999
Erzeugt mit innoplus bad 
0
SECTION
2
HEADER
9
$ACADVER
1
AC1009
9
$DWGCODEPAGE
3
ISO8859-1
0
ENDSEC
0
SECTION
2
TABLES
0
TABLE
2
LAYER
70
1
0
LAYER
2
0
70
0
62
7
6
CONTINUOUS
0
ENDTAB
0
ENDSEC
0
SECTION
2
ENTITIES
0
LINE
8
0
6
CONTINUOUS
10
21.390165
20
-1.972895
30
0.0
11
21.098585
21
-7.314585
31
0.0
0
LINE
8
0
6
CONTINUOUS
10
21.681745
20
3.368795
30
0.0
11
21.390165
21
-1.972895
31
0.0
0
LINE
8
0
6
CONTINUOUS
10
21.973325
20
8.710485
30
0.0
11
21.681745
21
3.368795
31
0.0
0
LINE
8
0
6
CONTINUOUS
10
22.264905
20
14.052165
30
0.0
11
21.973325
21
8.710485
31
0.0
0
LINE
8
0
6
CONTINUOUS
10
22.556485
20
19.393845
30
0.0
11
22.264905
21
14.052165
31
0.0
0
LINE
8
0
6
CONTINUOUS
10
21.098585
20
-7.314585
30
0.0
11
20.807005
21
-12.656265
31
0.0
0
LINE
8
0
6
CONTINUOUS
10
19.218635
20
-38.694895
30
0.0
11
18.990765
21
-40.207575
31
0.0
0
LINE
8
0
6
CONTINUOUS
10
11.278285
20
37.963845
30
0.0
11
15.892085
21
34.463845
31
0.0
0
LINE
8
0
6
CONTINUOUS
10
0.000085
20
-55.429345
30
0.0
11
5.024085
21
-54.748755
31
0.0
0
LINE
8
0
6
CONTINUOUS
10
9.740085
20
-52.998655
30
0.0
11
13.738985
21
-49.984655
31
0.0
0
LINE
8
0
6
CONTINUOUS
10
0.000085
20
40.783845
30
0.0
11
5.844085
21
40.005845
31
0.0
0
LINE
8
0
6
CONTINUOUS
10
5.024085
20
-54.748755
30
0.0
11
9.740085
21
-52.998655
31
0.0
0
LINE
8
0
6
CONTINUOUS
10
18.876825
20
-40.963915
30
0.0
11
18.762875
21
-41.720255
31
0.0
0
LINE
8
0
6
CONTINUOUS
10
13.738985
20
-49.984655
30
0.0
11
16.917375
21
-46.192745
31
0.0
0
LINE
8
0
6
CONTINUOUS
10
15.892085
20
34.463845
30
0.0
11
19.583085
21
30.088845
31
0.0
0
LINE
8
0
6
CONTINUOUS
10
5.844085
20
40.005845
30
0.0
11
11.278285
21
37.963845
31
0.0
0
LINE
8
0
6
CONTINUOUS
10
19.480575
20
-36.956055
30
0.0
11
19.218635
21
-38.694895
31
0.0
0
LINE
8
0
6
CONTINUOUS
10
21.736185
20
24.935845
30
0.0
11
19.583085
21
30.088845
31
0.0
0
LINE
8
0
6
CONTINUOUS
10
22.556485
20
19.393845
30
0.0
11
21.736185
21
24.935845
31
0.0
0
LINE
8
0
6
CONTINUOUS
10
20.807005
20
-12.656265
30
0.0
11
19.480575
21
-36.956055
31
0.0
0
LINE
8
0
6
CONTINUOUS
10
18.762875
20
-41.720255
30
0.0
11
16.917375
21
-46.192745
31
0.0
0
LINE
8
0
6
CONTINUOUS
10
18.990765
20
-40.207575
30
0.0
11
18.876825
21
-40.963915
31
0.0
0
LINE
8
0
6
CONTINUOUS
10
-21.098415
20
-7.314585
30
0.0
11
-21.389995
21
-1.972895
31
0.0
0
LINE
8
0
6
CONTINUOUS
10
-21.389995
20
-1.972895
30
0.0
11
-21.681575
21
3.368795
31
0.0
0
LINE
8
0
6
CONTINUOUS
10
-21.681575
20
3.368795
30
0.0
11
-21.973155
21
8.710485
31
0.0
0
LINE
8
0
6
CONTINUOUS
10
-21.973155
20
8.710485
30
0.0
11
-22.264735
21
14.052165
31
0.0
0
LINE
8
0
6
CONTINUOUS
10
-22.264735
20
14.052165
30
0.0
11
-22.556315
21
19.393845
31
0.0
0
LINE
8
0
6
CONTINUOUS
10
-20.806835
20
-12.656265
30
0.0
11
-21.098415
21
-7.314585
31
0.0
0
LINE
8
0
6
CONTINUOUS
10
-18.990595
20
-40.207575
30
0.0
11
-19.218465
21
-38.694895
31
0.0
0
LINE
8
0
6
CONTINUOUS
10
-15.891915
20
34.463845
30
0.0
11
-11.278115
21
37.963845
31
0.0
0
LINE
8
0
6
CONTINUOUS
10
-5.023915
20
-54.748755
30
0.0
11
0.000085
21
-55.429345
31
0.0
0
LINE
8
0
6
CONTINUOUS
10
-13.738815
20
-49.984655
30
0.0
11
-9.739915
21
-52.998655
31
0.0
0
LINE
8
0
6
CONTINUOUS
10
-5.843915
20
40.005845
30
0.0
11
0.000085
21
40.783845
31
0.0
0
LINE
8
0
6
CONTINUOUS
10
-9.739915
20
-52.998655
30
0.0
11
-5.023915
21
-54.748755
31
0.0
0
LINE
8
0
6
CONTINUOUS
10
-18.762705
20
-41.720255
30
0.0
11
-18.876655
21
-40.963915
31
0.0
0
LINE
8
0
6
CONTINUOUS
10
-16.917205
20
-46.192745
30
0.0
11
-13.738815
21
-49.984655
31
0.0
0
LINE
8
0
6
CONTINUOUS
10
-19.582915
20
30.088845
30
0.0
11
-15.891915
21
34.463845
31
0.0
0
LINE
8
0
6
CONTINUOUS
10
-11.278115
20
37.963845
30
0.0
11
-5.843915
21
40.005845
31
0.0
0
LINE
8
0
6
CONTINUOUS
10
-19.218465
20
-38.694895
30
0.0
11
-19.480405
21
-36.956055
31
0.0
0
LINE
8
0
6
CONTINUOUS
10
-19.582915
20
30.088845
30
0.0
11
-21.732067
21
24.945294
31
0.0
0
LINE
8
0
6
CONTINUOUS
10
-21.736015
20
24.935845
30
0.0
11
-22.556315
21
19.393845
31
0.0
0
LINE
8
0
6
CONTINUOUS
10
-19.480405
20
-36.956055
30
0.0
11
-20.806835
21
-12.656265
31
0.0
0
LINE
8
0
6
CONTINUOUS
10
-16.917205
20
-46.192745
30
0.0
11
-18.762705
21
-41.720255
31
0.0
0
LINE
8
0
6
CONTINUOUS
10
-18.876655
20
-40.963915
30
0.0
11
-18.990595
21
-40.207575
31
0.0
0
LINE
8
0
6
CONTINUOUS
10
-19.095915
20
36.642845
30
0.0
11
-21.207915
21
31.770855
31
0.0
0
LINE
8
0
6
CONTINUOUS
10
-5.631915
20
46.145855
30
0.0
11
-10.911915
21
44.214855
31
0.0
0
LINE
8
0
6
CONTINUOUS
10
-10.911915
20
44.214855
30
0.0
11
-15.487915
21
40.886855
31
0.0
0
LINE
8
0
6
CONTINUOUS
10
0.000085
20
46.880845
30
0.0
11
-5.631915
21
46.145855
31
0.0
0
LINE
8
0
6
CONTINUOUS
10
-15.487915
20
40.886855
30
0.0
11
-19.095915
21
36.642845
31
0.0
0
LINE
8
0
6
CONTINUOUS
10
-21.207915
20
31.770855
30
0.0
11
-21.999915
21
26.537845
31
0.0
0
LINE
8
0
6
CONTINUOUS
10
-21.999915
20
26.537845
30
0.0
11
-22.009895
21
26.334855
31
0.0
0
LINE
8
0
6
CONTINUOUS
10
21.208085
20
31.770855
30
0.0
11
19.096085
21
36.642845
31
0.0
0
LINE
8
0
6
CONTINUOUS
10
10.912085
20
44.214855
30
0.0
11
5.632085
21
46.145855
31
0.0
0
LINE
8
0
6
CONTINUOUS
10
15.488085
20
40.886855
30
0.0
11
10.912085
21
44.214855
31
0.0
0
LINE
8
0
6
CONTINUOUS
10
5.632085
20
46.145855
30
0.0
11
0.000085
21
46.880845
31
0.0
0
LINE
8
0
6
CONTINUOUS
10
19.096085
20
36.642845
30
0.0
11
15.488085
21
40.886855
31
0.0
0
LINE
8
0
6
CONTINUOUS
10
22.010065
20
26.334855
30
0.0
11
22.000085
21
26.537845
31
0.0
0
LINE
8
0
6
CONTINUOUS
10
22.000085
20
26.537845
30
0.0
11
21.208085
21
31.770855
31
0.0
0
LINE
8
0
6
CONTINUOUS
10
0.000085
20
-55.520555
30
0.0
11
5.024085
21
-54.839955
31
0.0
0
LINE
8
0
6
CONTINUOUS
10
21.979385
20
2.861985
30
0.0
11
22.206885
21
7.314415
31
0.0
0
LINE
8
0
6
CONTINUOUS
10
22.206885
20
7.314415
30
0.0
11
22.375575
21
11.537535
31
0.0
0
LINE
8
0
6
CONTINUOUS
10
21.533915
20
-7.494085
30
0.0
11
21.745595
21
-2.106215
31
0.0
0
LINE
8
0
6
CONTINUOUS
10
21.745595
20
-2.106215
30
0.0
11
21.979385
21
2.861985
31
0.0
0
LINE
8
0
6
CONTINUOUS
10
19.218635
20
-38.786095
30
0.0
11
19.480585
21
-37.047255
31
0.0
0
LINE
8
0
6
CONTINUOUS
10
21.358185
20
-12.852355
30
0.0
11
21.533915
21
-7.494085
31
0.0
0
LINE
8
0
6
CONTINUOUS
10
22.372685
20
18.961855
30
0.0
11
22.010065
21
26.334855
31
0.0
0
LINE
8
0
6
CONTINUOUS
10
18.990755
20
-40.298775
30
0.0
11
19.218635
21
-38.786095
31
0.0
0
LINE
8
0
6
CONTINUOUS
10
22.375575
20
11.537535
30
0.0
11
22.433515
21
15.050395
31
0.0
0
LINE
8
0
6
CONTINUOUS
10
22.433515
20
15.050395
30
0.0
11
22.542335
21
18.894115
31
0.0
0
LINE
8
0
6
CONTINUOUS
10
9.740085
20
-53.089845
30
0.0
11
13.738985
21
-50.075745
31
0.0
0
LINE
8
0
6
CONTINUOUS
10
13.738985
20
-50.075745
30
0.0
11
16.917385
21
-46.283855
31
0.0
0
LINE
8
0
6
CONTINUOUS
10
18.762885
20
-41.811445
30
0.0
11
18.876825
21
-41.055115
31
0.0
0
LINE
8
0
6
CONTINUOUS
10
18.876825
20
-41.055115
30
0.0
11
18.990755
21
-40.298775
31
0.0
0
LINE
8
0
6
CONTINUOUS
10
16.917385
20
-46.283855
30
0.0
11
18.762885
21
-41.811445
31
0.0
0
LINE
8
0
6
CONTINUOUS
10
19.480585
20
-37.047255
30
0.0
11
21.358185
21
-12.852355
31
0.0
0
LINE
8
0
6
CONTINUOUS
10
5.024085
20
-54.839955
30
0.0
11
9.740085
21
-53.089845
31
0.0
0
LINE
8
0
6
CONTINUOUS
10
-5.023915
20
-54.839955
30
0.0
11
0.000085
21
-55.520555
31
0.0
0
LINE
8
0
6
CONTINUOUS
10
-22.206715
20
7.314415
30
0.0
11
-21.979215
21
2.861985
31
0.0
0
LINE
8
0
6
CONTINUOUS
10
-22.375405
20
11.537535
30
0.0
11
-22.206715
21
7.314415
31
0.0
0
LINE
8
0
6
CONTINUOUS
10
-21.745425
20
-2.106215
30
0.0
11
-21.533745
21
-7.494085
31
0.0
0
LINE
8
0
6
CONTINUOUS
10
-21.979215
20
2.861985
30
0.0
11
-21.745425
21
-2.106215
31
0.0
0
LINE
8
0
6
CONTINUOUS
10
-19.480415
20
-37.047255
30
0.0
11
-19.218465
21
-38.786095
31
0.0
0
LINE
8
0
6
CONTINUOUS
10
-21.533745
20
-7.494085
30
0.0
11
-21.358015
21
-12.852355
31
0.0
0
LINE
8
0
6
CONTINUOUS
10
-22.009895
20
26.334855
30
0.0
11
-22.372515
21
18.961855
31
0.0
0
LINE
8
0
6
CONTINUOUS
10
-19.218465
20
-38.786095
30
0.0
11
-18.990585
21
-40.298775
31
0.0
0
LINE
8
0
6
CONTINUOUS
10
-22.542165
20
18.894115
30
0.0
11
-22.433345
21
15.050395
31
0.0
0
LINE
8
0
6
CONTINUOUS
10
-22.433345
20
15.050395
30
0.0
11
-22.375405
21
11.537535
31
0.0
0
LINE
8
0
6
CONTINUOUS
10
-13.738815
20
-50.075745
30
0.0
11
-9.739915
21
-53.089845
31
0.0
0
LINE
8
0
6
CONTINUOUS
10
-16.917215
20
-46.283855
30
0.0
11
-13.738815
21
-50.075745
31
0.0
0
LINE
8
0
6
CONTINUOUS
10
-18.876655
20
-41.055115
30
0.0
11
-18.762715
21
-41.811445
31
0.0
0
LINE
8
0
6
CONTINUOUS
10
-18.990585
20
-40.298775
30
0.0
11
-18.876655
21
-41.055115
31
0.0
0
LINE
8
0
6
CONTINUOUS
10
-18.762715
20
-41.811445
30
0.0
11
-16.917215
21
-46.283855
31
0.0
0
LINE
8
0
6
CONTINUOUS
10
-21.358015
20
-12.852355
30
0.0
11
-19.480415
21
-37.047255
31
0.0
0
LINE
8
0
6
CONTINUOUS
10
-9.739915
20
-53.089845
30
0.0
11
-5.023915
21
-54.839955
31
0.0
0
LINE
8
0
6
CONTINUOUS
10
-21.999915
20
31.154148
30
0.0
11
-21.999915
21
26.787845
31
0.0
0
LINE
8
0
6
CONTINUOUS
10
22.000085
20
26.787845
30
0.0
11
22.000085
21
31.154149
31
0.0
0
LINE
8
0
6
CONTINUOUS
10
21.208085
20
32.247025
30
0.0
11
22.000085
21
26.701025
31
0.0
0
LINE
8
0
6
CONTINUOUS
10
-10.911915
20
45.507015
30
0.0
11
-5.631915
21
47.586025
31
0.0
0
LINE
8
0
6
CONTINUOUS
10
-21.207915
20
32.247025
30
0.0
11
-19.095915
21
37.447025
31
0.0
0
LINE
8
0
6
CONTINUOUS
10
-5.631915
20
47.586025
30
0.0
11
0.000085
21
48.366025
31
0.0
0
LINE
8
0
6
CONTINUOUS
10
19.096085
20
37.447025
30
0.0
11
21.208085
21
32.247025
31
0.0
0
LINE
8
0
6
CONTINUOUS
10
5.632085
20
47.586025
30
0.0
11
10.912085
21
45.507015
31
0.0
0
LINE
8
0
6
CONTINUOUS
10
-19.095915
20
37.447025
30
0.0
11
-15.575915
21
42.040025
31
0.0
0
LINE
8
0
6
CONTINUOUS
10
15.576085
20
42.040025
30
0.0
11
19.096085
21
37.447025
31
0.0
0
LINE
8
0
6
CONTINUOUS
10
10.912085
20
45.507015
30
0.0
11
15.576085
21
42.040025
31
0.0
0
LINE
8
0
6
CONTINUOUS
10
-15.575915
20
42.040025
30
0.0
11
-10.911915
21
45.507015
31
0.0
0
LINE
8
0
6
CONTINUOUS
10
-21.999915
20
26.701025
30
0.0
11
-21.207915
21
32.247025
31
0.0
0
LINE
8
0
6
CONTINUOUS
10
0.000085
20
48.366025
30
0.0
11
5.632085
21
47.586025
31
0.0
0
LINE
8
0
6
CONTINUOUS
10
90.000085
20
39.399705
30
0.0
11
90.000085
21
41.956715
31
0.0
0
LINE
8
0
6
CONTINUOUS
10
19.516885
20
-66.525595
30
0.0
11
24.960085
21
39.362365
31
0.0
0
LINE
8
0
6
CONTINUOUS
10
18.300085
20
-80.578175
30
0.0
11
18.650085
21
-78.155725
31
0.0
0
LINE
8
0
6
CONTINUOUS
10
14.950085
20
-87.054635
30
0.0
11
16.500085
21
-85.126535
31
0.0
0
LINE
8
0
6
CONTINUOUS
10
19.000085
20
-75.733265
30
0.0
11
19.516885
21
-66.525595
31
0.0
0
LINE
8
0
6
CONTINUOUS
10
17.400085
20
-82.852365
30
0.0
11
18.300085
21
-80.578175
31
0.0
0
LINE
8
0
6
CONTINUOUS
10
18.650085
20
-78.155725
30
0.0
11
19.000085
21
-75.733265
31
0.0
0
LINE
8
0
6
CONTINUOUS
10
16.500085
20
-85.126535
30
0.0
11
17.400085
21
-82.852365
31
0.0
0
LINE
8
0
6
CONTINUOUS
10
13.400085
20
-88.982755
30
0.0
11
14.950085
21
-87.054635
31
0.0
0
LINE
8
0
6
CONTINUOUS
10
0.000085
20
-94.519865
30
0.0
11
4.900085
21
-93.827725
31
0.0
0
LINE
8
0
6
CONTINUOUS
10
9.500085
20
-92.047935
30
0.0
11
13.400085
21
-88.982755
31
0.0
0
LINE
8
0
6
CONTINUOUS
10
4.900085
20
-93.827725
30
0.0
11
9.500085
21
-92.047935
31
0.0
0
LINE
8
0
6
CONTINUOUS
10
89.500075
20
54.519845
30
0.0
11
25.960445
21
54.519845
31
0.0
0
LINE
8
0
6
CONTINUOUS
10
24.481915
20
54.519845
30
0.0
11
0.000085
21
54.519845
31
0.0
0
LINE
8
0
6
CONTINUOUS
10
25.234675
20
54.519845
30
0.0
11
24.481915
21
54.519845
31
0.0
0
LINE
8
0
6
CONTINUOUS
10
25.960445
20
54.519845
30
0.0
11
25.234675
21
54.519845
31
0.0
0
LINE
8
0
6
CONTINUOUS
10
90.000085
20
34.599845
30
0.0
11
90.000085
21
39.399705
31
0.0
0
LINE
8
0
6
CONTINUOUS
10
90.000085
20
30.359855
30
0.0
11
90.000085
21
34.599845
31
0.0
0
LINE
8
0
6
CONTINUOUS
10
90.000085
20
49.639845
30
0.0
11
90.000085
21
54.132205
31
0.0
0
LINE
8
0
6
CONTINUOUS
10
90.000085
20
27.159845
30
0.0
11
90.000085
21
30.359855
31
0.0
0
LINE
8
0
6
CONTINUOUS
10
90.000085
20
24.519845
30
0.0
11
90.000085
21
25.239845
31
0.0
0
LINE
8
0
6
CONTINUOUS
10
89.500075
20
24.519845
30
0.0
11
90.000085
21
24.519845
31
0.0
0
LINE
8
0
6
CONTINUOUS
10
90.000085
20
25.239845
30
0.0
11
90.000085
21
27.159845
31
0.0
0
LINE
8
0
6
CONTINUOUS
10
90.000085
20
44.513725
30
0.0
11
90.000085
21
49.639845
31
0.0
0
LINE
8
0
6
CONTINUOUS
10
90.000085
20
41.956715
30
0.0
11
90.000085
21
44.513725
31
0.0
0
LINE
8
0
6
CONTINUOUS
10
90.000085
20
54.519845
30
0.0
11
89.500075
21
54.519845
31
0.0
0
LINE
8
0
6
CONTINUOUS
10
90.000085
20
54.132205
30
0.0
11
90.000085
21
54.519845
31
0.0
0
LINE
8
0
6
CONTINUOUS
10
20.327702
20
-50.752571
30
0.0
11
25.061415
21
32.421605
31
0.0
0
LINE
8
0
6
CONTINUOUS
10
25.061415
20
32.421605
30
0.0
11
25.185385
21
34.599845
31
0.0
0
LINE
8
0
6
CONTINUOUS
10
24.960085
20
39.362365
30
0.0
11
25.185385
21
34.599845
31
0.0
0
LINE
8
0
6
CONTINUOUS
10
24.611700
20
24.519845
30
0.0
11
89.500075
21
24.519845
31
0.0
0
LINE
8
0
6
CONTINUOUS
10
-89.999915
20
41.956715
30
0.0
11
-89.999915
21
39.399705
31
0.0
0
LINE
8
0
6
CONTINUOUS
10
-24.959915
20
39.362365
30
0.0
11
-19.516715
21
-66.525595
31
0.0
0
LINE
8
0
6
CONTINUOUS
10
-18.649915
20
-78.155725
30
0.0
11
-18.299915
21
-80.578175
31
0.0
0
LINE
8
0
6
CONTINUOUS
10
-16.499915
20
-85.126535
30
0.0
11
-14.949915
21
-87.054635
31
0.0
0
LINE
8
0
6
CONTINUOUS
10
-19.516715
20
-66.525595
30
0.0
11
-18.999915
21
-75.733265
31
0.0
0
LINE
8
0
6
CONTINUOUS
10
-18.299915
20
-80.578175
30
0.0
11
-17.399915
21
-82.852365
31
0.0
0
LINE
8
0
6
CONTINUOUS
10
-18.999915
20
-75.733265
30
0.0
11
-18.649915
21
-78.155725
31
0.0
0
LINE
8
0
6
CONTINUOUS
10
-17.399915
20
-82.852365
30
0.0
11
-16.499915
21
-85.126535
31
0.0
0
LINE
8
0
6
CONTINUOUS
10
-14.949915
20
-87.054635
30
0.0
11
-13.399915
21
-88.982755
31
0.0
0
LINE
8
0
6
CONTINUOUS
10
-4.899915
20
-93.827725
30
0.0
11
0.000085
21
-94.519865
31
0.0
0
LINE
8
0
6
CONTINUOUS
10
-13.399915
20
-88.982755
30
0.0
11
-9.499915
21
-92.047935
31
0.0
0
LINE
8
0
6
CONTINUOUS
10
-9.499915
20
-92.047935
30
0.0
11
-4.899915
21
-93.827725
31
0.0
0
LINE
8
0
6
CONTINUOUS
10
-25.960275
20
54.519845
30
0.0
11
-89.499905
21
54.519845
31
0.0
0
LINE
8
0
6
CONTINUOUS
10
0.000085
20
54.519845
30
0.0
11
-24.481745
21
54.519845
31
0.0
0
LINE
8
0
6
CONTINUOUS
10
-24.481745
20
54.519845
30
0.0
11
-25.234495
21
54.519845
31
0.0
0
LINE
8
0
6
CONTINUOUS
10
-25.234495
20
54.519845
30
0.0
11
-25.960275
21
54.519845
31
0.0
0
LINE
8
0
6
CONTINUOUS
10
-89.999915
20
39.399705
30
0.0
11
-89.999915
21
34.599845
31
0.0
0
LINE
8
0
6
CONTINUOUS
10
-89.999915
20
34.599845
30
0.0
11
-89.999915
21
30.359855
31
0.0
0
LINE
8
0
6
CONTINUOUS
10
-89.999915
20
54.132205
30
0.0
11
-89.999915
21
49.639845
31
0.0
0
LINE
8
0
6
CONTINUOUS
10
-89.999915
20
30.359855
30
0.0
11
-89.999915
21
27.159845
31
0.0
0
LINE
8
0
6
CONTINUOUS
10
-89.999915
20
24.519845
30
0.0
11
-89.499905
21
24.519845
31
0.0
0
LINE
8
0
6
CONTINUOUS
10
-89.999915
20
25.239845
30
0.0
11
-89.999915
21
24.519845
31
0.0
0
LINE
8
0
6
CONTINUOUS
10
-89.999915
20
27.159845
30
0.0
11
-89.999915
21
25.239845
31
0.0
0
LINE
8
0
6
CONTINUOUS
10
-89.999915
20
49.639845
30
0.0
11
-89.999915
21
44.513725
31
0.0
0
LINE
8
0
6
CONTINUOUS
10
-89.999915
20
44.513725
30
0.0
11
-89.999915
21
41.956715
31
0.0
0
LINE
8
0
6
CONTINUOUS
10
-89.999915
20
54.519845
30
0.0
11
-89.999915
21
54.132205
31
0.0
0
LINE
8
0
6
CONTINUOUS
10
-89.499905
20
54.519845
30
0.0
11
-89.999915
21
54.519845
31
0.0
0
LINE
8
0
6
CONTINUOUS
10
-25.061245
20
32.421605
30
0.0
11
-20.327532
21
-50.752571
31
0.0
0
LINE
8
0
6
CONTINUOUS
10
-25.185215
20
34.599845
30
0.0
11
-25.061245
21
32.421605
31
0.0
0
LINE
8
0
6
CONTINUOUS
10
-25.185215
20
34.599845
30
0.0
11
-24.959915
21
39.362365
31
0.0
0
LINE
8
0
6
CONTINUOUS
10
-89.499905
20
24.519845
30
0.0
11
-24.611530
21
24.519845
31
0.0
0
LINE
8
0
6
CONTINUOUS
10
-109.995325
20
88.143275
30
0.0
11
-109.642045
21
87.828825
31
0.0
0
LINE
8
0
6
CONTINUOUS
10
-40.358195
20
87.828795
30
0.0
11
-40.004895
21
88.143255
31
0.0
0
LINE
8
0
6
CONTINUOUS
10
-110.500095
20
89.628845
30
0.0
11
-110.500095
21
89.251145
31
0.0
0
LINE
8
0
6
CONTINUOUS
10
-39.500115
20
89.251115
30
0.0
11
-39.500115
21
89.628825
31
0.0
0
LINE
8
0
6
CONTINUOUS
10
-110.500095
20
94.095955
30
0.0
11
-110.500095
21
89.628845
31
0.0
0
LINE
8
0
6
CONTINUOUS
10
-39.500115
20
89.628825
30
0.0
11
-39.500115
21
94.095925
31
0.0
0
LINE
8
0
6
CONTINUOUS
10
-110.500095
20
94.519855
30
0.0
11
-110.500095
21
94.095955
31
0.0
0
LINE
8
0
6
CONTINUOUS
10
-109.610035
20
94.519855
30
0.0
11
-110.500095
21
94.519855
31
0.0
0
LINE
8
0
6
CONTINUOUS
10
-106.984495
20
94.519845
30
0.0
11
-109.610035
21
94.519855
31
0.0
0
LINE
8
0
6
CONTINUOUS
10
-102.755125
20
94.519845
30
0.0
11
-106.984495
21
94.519845
31
0.0
0
LINE
8
0
6
CONTINUOUS
10
-97.133985
20
94.519835
30
0.0
11
-102.755125
21
94.519845
31
0.0
0
LINE
8
0
6
CONTINUOUS
10
-90.402975
20
94.519835
30
0.0
11
-97.133985
21
94.519835
31
0.0
0
LINE
8
0
6
CONTINUOUS
10
-82.899605
20
94.519835
30
0.0
11
-90.402975
21
94.519835
31
0.0
0
LINE
8
0
6
CONTINUOUS
10
-75.000105
20
94.519835
30
0.0
11
-82.899605
21
94.519835
31
0.0
0
LINE
8
0
6
CONTINUOUS
10
-67.100595
20
94.519825
30
0.0
11
-75.000105
21
94.519835
31
0.0
0
LINE
8
0
6
CONTINUOUS
10
-59.597235
20
94.519825
30
0.0
11
-67.100595
21
94.519825
31
0.0
0
LINE
8
0
6
CONTINUOUS
10
-52.866225
20
94.519825
30
0.0
11
-59.597235
21
94.519825
31
0.0
0
LINE
8
0
6
CONTINUOUS
10
-47.245095
20
94.519815
30
0.0
11
-52.866225
21
94.519825
31
0.0
0
LINE
8
0
6
CONTINUOUS
10
-40.390155
20
94.519825
30
0.0
11
-43.015715
21
94.519825
31
0.0
0
LINE
8
0
6
CONTINUOUS
10
-39.500115
20
94.095925
30
0.0
11
-39.500115
21
94.519835
31
0.0
0
LINE
8
0
6
CONTINUOUS
10
-110.500095
20
89.251145
30
0.0
11
-110.350945
21
88.653875
31
0.0
0
LINE
8
0
6
CONTINUOUS
10
-110.350945
20
88.653875
30
0.0
11
-109.995325
21
88.143275
31
0.0
0
LINE
8
0
6
CONTINUOUS
10
-39.649305
20
88.653855
30
0.0
11
-39.500115
21
89.251115
31
0.0
0
LINE
8
0
6
CONTINUOUS
10
-40.004895
20
88.143255
30
0.0
11
-39.649305
21
88.653855
31
0.0
0
LINE
8
0
6
CONTINUOUS
10
-109.642045
20
87.828825
30
0.0
11
-89.949415
21
69.857875
31
0.0
0
LINE
8
0
6
CONTINUOUS
10
-60.050845
20
69.857865
30
0.0
11
-40.358195
21
87.828795
31
0.0
0
LINE
8
0
6
CONTINUOUS
10
-89.706645
20
69.632745
30
0.0
11
-89.337925
21
69.632745
31
0.0
0
LINE
8
0
6
CONTINUOUS
10
-89.949415
20
69.857875
30
0.0
11
-89.706645
21
69.632745
31
0.0
0
LINE
8
0
6
CONTINUOUS
10
-89.337925
20
69.632745
30
0.0
11
-88.250235
21
69.632745
31
0.0
0
LINE
8
0
6
CONTINUOUS
10
-88.250235
20
69.632745
30
0.0
11
-86.797574
21
69.632745
31
0.0
0
LINE
8
0
6
CONTINUOUS
10
-86.797574
20
69.632745
30
0.0
11
-86.498135
21
69.632745
31
0.0
0
LINE
8
0
6
CONTINUOUS
10
-86.498135
20
69.632745
30
0.0
11
-84.169485
21
69.632745
31
0.0
0
LINE
8
0
6
CONTINUOUS
10
-84.169485
20
69.632745
30
0.0
11
-81.381055
21
69.632745
31
0.0
0
LINE
8
0
6
CONTINUOUS
10
-81.381055
20
69.632745
30
0.0
11
-78.272625
21
69.632735
31
0.0
0
LINE
8
0
6
CONTINUOUS
10
-78.272625
20
69.632735
30
0.0
11
-75.000105
21
69.632735
31
0.0
0
LINE
8
0
6
CONTINUOUS
10
-75.000105
20
69.632735
30
0.0
11
-71.727615
21
69.632735
31
0.0
0
LINE
8
0
6
CONTINUOUS
10
-71.727615
20
69.632735
30
0.0
11
-68.619205
21
69.632735
31
0.0
0
LINE
8
0
6
CONTINUOUS
10
-68.619205
20
69.632735
30
0.0
11
-65.830735
21
69.632735
31
0.0
0
LINE
8
0
6
CONTINUOUS
10
-65.830735
20
69.632735
30
0.0
11
-63.502095
21
69.632735
31
0.0
0
LINE
8
0
6
CONTINUOUS
10
-63.502095
20
69.632735
30
0.0
11
-61.750005
21
69.632735
31
0.0
0
LINE
8
0
6
CONTINUOUS
10
-61.750005
20
69.632735
30
0.0
11
-60.662315
21
69.632735
31
0.0
0
LINE
8
0
6
CONTINUOUS
10
-60.293605
20
69.632735
30
0.0
11
-60.050845
21
69.857865
31
0.0
0
LINE
8
0
6
CONTINUOUS
10
-60.662315
20
69.632735
30
0.0
11
-60.293605
21
69.632735
31
0.0
0
LINE
8
0
6
CONTINUOUS
10
-47.245095
20
94.519815
30
0.0
11
-43.015715
21
94.519825
31
0.0
0
LINE
8
0
6
CONTINUOUS
10
-43.015715
20
94.519825
30
0.0
11
-43.538805
21
94.519825
31
0.0
0
LINE
8
0
6
CONTINUOUS
10
-40.390155
20
94.519825
30
0.0
11
-39.500115
21
94.519835
31
0.0
0
LINE
8
0
6
CONTINUOUS
10
-40.956225
20
94.519825
30
0.0
11
-40.390155
21
94.519825
31
0.0
0
LINE
8
0
6
CONTINUOUS
10
-109.043995
20
94.519845
30
0.0
11
-75.000025
21
94.519845
31
0.0
0
LINE
8
0
6
CONTINUOUS
10
-75.000015
20
94.519855
30
0.0
11
-109.919495
21
94.519855
31
0.0
0
LINE
8
0
6
CONTINUOUS
10
-75.000065
20
94.519845
30
0.0
11
-102.301185
21
94.519845
31
0.0
0
LINE
8
0
6
CONTINUOUS
10
-47.699085
20
94.519835
30
0.0
11
-53.228275
21
94.519845
31
0.0
0
LINE
8
0
6
CONTINUOUS
10
-75.000025
20
94.519855
30
0.0
11
-47.699085
21
94.519835
31
0.0
0
LINE
8
0
6
CONTINUOUS
10
-53.228275
20
94.519845
30
0.0
11
-75.000055
21
94.519865
31
0.0
0
LINE
8
0
6
CONTINUOUS
10
-75.000025
20
94.519845
30
0.0
11
-40.956225
21
94.519825
31
0.0
0
LINE
8
0
6
CONTINUOUS
10
-40.080715
20
94.519835
30
0.0
11
-75.000015
21
94.519855
31
0.0
0
LINE
8
0
6
CONTINUOUS
10
-75.000065
20
94.519845
30
0.0
11
-47.699045
21
94.519815
31
0.0
0
LINE
8
0
6
CONTINUOUS
10
-43.538805
20
94.519825
30
0.0
11
-75.000035
21
94.519845
31
0.0
0
LINE
8
0
6
CONTINUOUS
10
-67.229795
20
94.519825
30
0.0
11
-59.849155
21
94.519825
31
0.0
0
LINE
8
0
6
CONTINUOUS
10
-92.333205
20
67.071885
30
0.0
11
-92.333205
21
57.080665
31
0.0
0
LINE
8
0
6
CONTINUOUS
10
-92.294545
20
67.101655
30
0.0
11
-92.333205
21
67.071885
31
0.0
0
LINE
8
0
6
CONTINUOUS
10
-62.159815
20
54.519845
30
0.0
11
-58.833225
21
57.080675
31
0.0
0
LINE
8
0
6
CONTINUOUS
10
-63.506615
20
54.519845
30
0.0
11
-62.159815
21
54.519845
31
0.0
0
LINE
8
0
6
CONTINUOUS
10
-58.833225
20
57.080675
30
0.0
11
-58.833205
21
67.071895
31
0.0
0
LINE
8
0
6
CONTINUOUS
10
-58.833205
20
67.071895
30
0.0
11
-62.159795
21
69.632725
31
0.0
0
LINE
8
0
6
CONTINUOUS
10
-67.583205
20
67.071905
30
0.0
11
-66.794535
21
67.101675
31
0.0
0
LINE
8
0
6
CONTINUOUS
10
-66.794535
20
67.101675
30
0.0
11
-63.506595
21
69.632725
31
0.0
0
LINE
8
0
6
CONTINUOUS
10
-84.371895
20
67.101675
30
0.0
11
-83.583205
21
67.071895
31
0.0
0
LINE
8
0
6
CONTINUOUS
10
-76.930005
20
69.632715
30
0.0
11
-83.583205
21
67.071895
31
0.0
0
LINE
8
0
6
CONTINUOUS
10
-67.583205
20
67.071905
30
0.0
11
-74.236405
21
69.632715
31
0.0
0
LINE
8
0
6
CONTINUOUS
10
-76.929995
20
54.519845
30
0.0
11
-74.236395
21
54.519845
31
0.0
0
LINE
8
0
6
CONTINUOUS
10
-89.006595
20
69.632715
30
0.0
11
-92.294545
21
67.101655
31
0.0
0
LINE
8
0
6
CONTINUOUS
10
-87.659825
20
69.632715
30
0.0
11
-89.006595
21
69.632715
31
0.0
0
LINE
8
0
6
CONTINUOUS
10
-84.371895
20
67.101675
30
0.0
11
-87.659825
21
69.632715
31
0.0
0
LINE
8
0
6
CONTINUOUS
10
-92.294535
20
57.050905
30
0.0
11
-92.333205
21
57.080665
31
0.0
0
LINE
8
0
6
CONTINUOUS
10
-89.006585
20
54.519825
30
0.0
11
-92.294535
21
57.050905
31
0.0
0
LINE
8
0
6
CONTINUOUS
10
-76.929995
20
54.519845
30
0.0
11
-83.583205
21
57.080655
31
0.0
0
LINE
8
0
6
CONTINUOUS
10
-84.371885
20
57.050895
30
0.0
11
-87.659776
21
54.519855
31
0.0
0
LINE
8
0
6
CONTINUOUS
10
-83.583205
20
57.080655
30
0.0
11
-84.371885
21
57.050895
31
0.0
0
LINE
8
0
6
CONTINUOUS
10
-66.794535
20
57.050905
30
0.0
11
-67.583205
21
57.080675
31
0.0
0
LINE
8
0
6
CONTINUOUS
10
-63.506615
20
54.519845
30
0.0
11
-66.794535
21
57.050905
31
0.0
0
LINE
8
0
6
CONTINUOUS
10
-74.236395
20
54.519845
30
0.0
11
-63.506615
21
54.519845
31
0.0
0
LINE
8
0
6
CONTINUOUS
10
-67.583205
20
57.080675
30
0.0
11
-74.236395
21
54.519845
31
0.0
0
LINE
8
0
6
CONTINUOUS
10
40.004885
20
88.143255
30
0.0
11
40.358165
21
87.828805
31
0.0
0
LINE
8
0
6
CONTINUOUS
10
109.642015
20
87.828775
30
0.0
11
109.995315
21
88.143235
31
0.0
0
LINE
8
0
6
CONTINUOUS
10
39.500115
20
89.628825
30
0.0
11
39.500115
21
89.251125
31
0.0
0
LINE
8
0
6
CONTINUOUS
10
110.500095
20
89.251095
30
0.0
11
110.500095
21
89.628805
31
0.0
0
LINE
8
0
6
CONTINUOUS
10
39.500115
20
94.095935
30
0.0
11
39.500115
21
89.628825
31
0.0
0
LINE
8
0
6
CONTINUOUS
10
110.500095
20
89.628805
30
0.0
11
110.500095
21
94.095905
31
0.0
0
LINE
8
0
6
CONTINUOUS
10
39.500115
20
94.519835
30
0.0
11
39.500115
21
94.095935
31
0.0
0
LINE
8
0
6
CONTINUOUS
10
40.390175
20
94.519835
30
0.0
11
39.500115
21
94.519835
31
0.0
0
LINE
8
0
6
CONTINUOUS
10
43.015715
20
94.519825
30
0.0
11
40.390175
21
94.519835
31
0.0
0
LINE
8
0
6
CONTINUOUS
10
47.245085
20
94.519825
30
0.0
11
43.015715
21
94.519825
31
0.0
0
LINE
8
0
6
CONTINUOUS
10
52.866225
20
94.519815
30
0.0
11
47.245085
21
94.519825
31
0.0
0
LINE
8
0
6
CONTINUOUS
10
59.597235
20
94.519815
30
0.0
11
52.866225
21
94.519815
31
0.0
0
LINE
8
0
6
CONTINUOUS
10
67.100605
20
94.519815
30
0.0
11
59.597235
21
94.519815
31
0.0
0
LINE
8
0
6
CONTINUOUS
10
75.000105
20
94.519815
30
0.0
11
67.100605
21
94.519815
31
0.0
0
LINE
8
0
6
CONTINUOUS
10
82.899615
20
94.519805
30
0.0
11
75.000105
21
94.519815
31
0.0
0
LINE
8
0
6
CONTINUOUS
10
90.402975
20
94.519805
30
0.0
11
82.899615
21
94.519805
31
0.0
0
LINE
8
0
6
CONTINUOUS
10
97.133985
20
94.519805
30
0.0
11
90.402975
21
94.519805
31
0.0
0
LINE
8
0
6
CONTINUOUS
10
102.755115
20
94.519795
30
0.0
11
97.133985
21
94.519805
31
0.0
0
LINE
8
0
6
CONTINUOUS
10
109.610055
20
94.519805
30
0.0
11
106.984495
21
94.519805
31
0.0
0
LINE
8
0
6
CONTINUOUS
10
110.500095
20
94.095905
30
0.0
11
110.500095
21
94.519815
31
0.0
0
LINE
8
0
6
CONTINUOUS
10
39.500115
20
89.251125
30
0.0
11
39.649265
21
88.653855
31
0.0
0
LINE
8
0
6
CONTINUOUS
10
39.649265
20
88.653855
30
0.0
11
40.004885
21
88.143255
31
0.0
0
LINE
8
0
6
CONTINUOUS
10
110.350905
20
88.653835
30
0.0
11
110.500095
21
89.251095
31
0.0
0
LINE
8
0
6
CONTINUOUS
10
109.995315
20
88.143235
30
0.0
11
110.350905
21
88.653835
31
0.0
0
LINE
8
0
6
CONTINUOUS
10
40.358165
20
87.828805
30
0.0
11
60.050795
21
69.857855
31
0.0
0
LINE
8
0
6
CONTINUOUS
10
89.949365
20
69.857845
30
0.0
11
109.642015
21
87.828775
31
0.0
0
LINE
8
0
6
CONTINUOUS
10
60.293565
20
69.632725
30
0.0
11
60.662285
21
69.632725
31
0.0
0
LINE
8
0
6
CONTINUOUS
10
60.050795
20
69.857855
30
0.0
11
60.293565
21
69.632725
31
0.0
0
LINE
8
0
6
CONTINUOUS
10
60.662285
20
69.632725
30
0.0
11
61.749975
21
69.632725
31
0.0
0
LINE
8
0
6
CONTINUOUS
10
61.749975
20
69.632725
30
0.0
11
63.202636
21
69.632725
31
0.0
0
LINE
8
0
6
CONTINUOUS
10
63.202636
20
69.632725
30
0.0
11
63.502075
21
69.632725
31
0.0
0
LINE
8
0
6
CONTINUOUS
10
63.502075
20
69.632725
30
0.0
11
65.830725
21
69.632725
31
0.0
0
LINE
8
0
6
CONTINUOUS
10
65.830725
20
69.632725
30
0.0
11
68.619155
21
69.632725
31
0.0
0
LINE
8
0
6
CONTINUOUS
10
68.619155
20
69.632725
30
0.0
11
71.727585
21
69.632715
31
0.0
0
LINE
8
0
6
CONTINUOUS
10
71.727585
20
69.632715
30
0.0
11
75.000105
21
69.632715
31
0.0
0
LINE
8
0
6
CONTINUOUS
10
75.000105
20
69.632715
30
0.0
11
78.272595
21
69.632715
31
0.0
0
LINE
8
0
6
CONTINUOUS
10
78.272595
20
69.632715
30
0.0
11
81.381005
21
69.632715
31
0.0
0
LINE
8
0
6
CONTINUOUS
10
81.381005
20
69.632715
30
0.0
11
84.169475
21
69.632715
31
0.0
0
LINE
8
0
6
CONTINUOUS
10
84.169475
20
69.632715
30
0.0
11
86.498115
21
69.632715
31
0.0
0
LINE
8
0
6
CONTINUOUS
10
86.498115
20
69.632715
30
0.0
11
88.250205
21
69.632715
31
0.0
0
LINE
8
0
6
CONTINUOUS
10
88.250205
20
69.632715
30
0.0
11
89.337895
21
69.632715
31
0.0
0
LINE
8
0
6
CONTINUOUS
10
89.706605
20
69.632715
30
0.0
11
89.949365
21
69.857845
31
0.0
0
LINE
8
0
6
CONTINUOUS
10
89.337895
20
69.632715
30
0.0
11
89.706605
21
69.632715
31
0.0
0
LINE
8
0
6
CONTINUOUS
10
102.755115
20
94.519795
30
0.0
11
106.984495
21
94.519805
31
0.0
0
LINE
8
0
6
CONTINUOUS
10
106.984495
20
94.519805
30
0.0
11
106.461405
21
94.519805
31
0.0
0
LINE
8
0
6
CONTINUOUS
10
109.610055
20
94.519805
30
0.0
11
110.500095
21
94.519815
31
0.0
0
LINE
8
0
6
CONTINUOUS
10
109.043985
20
94.519805
30
0.0
11
109.610055
21
94.519805
31
0.0
0
LINE
8
0
6
CONTINUOUS
10
40.956215
20
94.519825
30
0.0
11
75.000185
21
94.519825
31
0.0
0
LINE
8
0
6
CONTINUOUS
10
75.000195
20
94.519835
30
0.0
11
40.080715
21
94.519835
31
0.0
0
LINE
8
0
6
CONTINUOUS
10
75.000145
20
94.519825
30
0.0
11
47.699025
21
94.519825
31
0.0
0
LINE
8
0
6
CONTINUOUS
10
102.301125
20
94.519815
30
0.0
11
96.771935
21
94.519825
31
0.0
0
LINE
8
0
6
CONTINUOUS
10
75.000185
20
94.519835
30
0.0
11
102.301125
21
94.519815
31
0.0
0
LINE
8
0
6
CONTINUOUS
10
96.771935
20
94.519825
30
0.0
11
75.000155
21
94.519845
31
0.0
0
LINE
8
0
6
CONTINUOUS
10
75.000185
20
94.519825
30
0.0
11
109.043985
21
94.519805
31
0.0
0
LINE
8
0
6
CONTINUOUS
10
109.919495
20
94.519815
30
0.0
11
75.000195
21
94.519835
31
0.0
0
LINE
8
0
6
CONTINUOUS
10
75.000145
20
94.519825
30
0.0
11
102.301165
21
94.519795
31
0.0
0
LINE
8
0
6
CONTINUOUS
10
106.461405
20
94.519805
30
0.0
11
75.000175
21
94.519825
31
0.0
0
LINE
8
0
6
CONTINUOUS
10
82.770415
20
94.519805
30
0.0
11
90.151055
21
94.519805
31
0.0
0
LINE
8
0
6
CONTINUOUS
10
57.667005
20
67.071865
30
0.0
11
57.667005
21
57.080645
31
0.0
0
LINE
8
0
6
CONTINUOUS
10
57.705665
20
67.101635
30
0.0
11
57.667005
21
67.071865
31
0.0
0
LINE
8
0
6
CONTINUOUS
10
87.840395
20
54.519825
30
0.0
11
91.166985
21
57.080655
31
0.0
0
LINE
8
0
6
CONTINUOUS
10
91.166985
20
57.080655
30
0.0
11
91.167005
21
67.071875
31
0.0
0
LINE
8
0
6
CONTINUOUS
10
91.167005
20
67.071875
30
0.0
11
87.840415
21
69.632705
31
0.0
0
LINE
8
0
6
CONTINUOUS
10
82.417005
20
67.071885
30
0.0
11
83.205675
21
67.101655
31
0.0
0
LINE
8
0
6
CONTINUOUS
10
83.205675
20
67.101655
30
0.0
11
86.493615
21
69.632705
31
0.0
0
LINE
8
0
6
CONTINUOUS
10
65.628315
20
67.101655
30
0.0
11
66.417005
21
67.071875
31
0.0
0
LINE
8
0
6
CONTINUOUS
10
73.070205
20
69.632695
30
0.0
11
66.417005
21
67.071875
31
0.0
0
LINE
8
0
6
CONTINUOUS
10
82.417005
20
67.071885
30
0.0
11
75.763805
21
69.632695
31
0.0
0
LINE
8
0
6
CONTINUOUS
10
60.993615
20
69.632695
30
0.0
11
57.705665
21
67.101635
31
0.0
0
LINE
8
0
6
CONTINUOUS
10
62.340385
20
69.632695
30
0.0
11
60.993615
21
69.632695
31
0.0
0
LINE
8
0
6
CONTINUOUS
10
65.628315
20
67.101655
30
0.0
11
62.340385
21
69.632695
31
0.0
0
LINE
8
0
6
CONTINUOUS
10
57.705675
20
57.050885
30
0.0
11
57.667005
21
57.080645
31
0.0
0
LINE
8
0
6
CONTINUOUS
10
60.993625
20
54.519805
30
0.0
11
57.705675
21
57.050885
31
0.0
0
LINE
8
0
6
CONTINUOUS
10
73.070215
20
54.519825
30
0.0
11
66.417005
21
57.080635
31
0.0
0
LINE
8
0
6
CONTINUOUS
10
65.628325
20
57.050875
30
0.0
11
62.340447
21
54.519845
31
0.0
0
LINE
8
0
6
CONTINUOUS
10
66.417005
20
57.080635
30
0.0
11
65.628325
21
57.050875
31
0.0
0
LINE
8
0
6
CONTINUOUS
10
83.205675
20
57.050885
30
0.0
11
82.417005
21
57.080655
31
0.0
0
LINE
8
0
6
CONTINUOUS
10
86.493595
20
54.519825
30
0.0
11
83.205675
21
57.050885
31
0.0
0
LINE
8
0
6
CONTINUOUS
10
82.417005
20
57.080655
30
0.0
11
75.763867
21
54.519845
31
0.0
0
LINE
8
0
6
CONTINUOUS
10
61.436455
20
69.632695
30
0.0
11
61.666369
21
69.632695
31
0.0
0
LINE
8
0
6
CONTINUOUS
10
62.419841
20
69.632695
30
0.0
11
62.664585
21
69.632695
31
0.0
0
LINE
8
0
6
CONTINUOUS
10
61.533563
20
69.632695
30
0.0
11
61.436455
21
69.632695
31
0.0
0
LINE
8
0
6
CONTINUOUS
10
5.441085
20
46.629404
30
0.0
11
10.436436
21
44.679655
31
0.0
0
LINE
8
0
6
CONTINUOUS
10
19.115527
20
41.937814
30
0.0
11
19.096085
21
41.999498
31
0.0
0
LINE
8
0
6
CONTINUOUS
10
-14.795264
20
41.271257
30
0.0
11
-10.499915
21
44.655161
31
0.0
0
LINE
8
0
6
CONTINUOUS
10
-19.095915
20
41.999498
30
0.0
11
-17.174430
21
44.513725
31
0.0
0
LINE
8
0
6
CONTINUOUS
10
-20.159382
20
39.361973
30
0.0
11
-19.120856
21
41.937814
31
0.0
0
LINE
8
0
6
CONTINUOUS
10
-20.358774
20
38.867423
30
0.0
11
-20.159382
21
39.361973
31
0.0
0
LINE
8
0
6
CONTINUOUS
10
-19.120856
20
41.937814
30
0.0
11
-19.095915
21
41.999498
31
0.0
0
LINE
8
0
6
CONTINUOUS
10
10.500085
20
44.655161
30
0.0
11
14.795656
21
41.271476
31
0.0
0
LINE
8
0
6
CONTINUOUS
10
-10.436266
20
44.679655
30
0.0
11
-5.440915
21
46.629404
31
0.0
0
ENDSEC
0
EOF
