999
Erzeugt mit innoplus bad 
0
SECTION
2
HEADER
9
$ACADVER
1
AC1009
9
$DWGCODEPAGE
3
ISO8859-1
0
ENDSEC
0
SECTION
2
TABLES
0
TABLE
2
LAYER
70
1
0
LAYER
2
0
70
0
62
7
6
CONTINUOUS
0
ENDTAB
0
ENDSEC
0
SECTION
2
ENTITIES
0
LINE
8
0
6
CONTINUOUS
10
21.390165
20
60.964595
30
0.0
11
21.098585
21
60.964795
31
0.0
0
LINE
8
0
6
CONTINUOUS
10
21.681745
20
60.964385
30
0.0
11
21.390165
21
60.964595
31
0.0
0
LINE
8
0
6
CONTINUOUS
10
21.973325
20
60.964175
30
0.0
11
21.681745
21
60.964385
31
0.0
0
LINE
8
0
6
CONTINUOUS
10
22.264905
20
60.963975
30
0.0
11
21.973325
21
60.964175
31
0.0
0
LINE
8
0
6
CONTINUOUS
10
22.556485
20
60.963765
30
0.0
11
22.264905
21
60.963975
31
0.0
0
LINE
8
0
6
CONTINUOUS
10
22.542335
20
60.479075
30
0.0
11
22.556485
21
60.963765
31
0.0
0
LINE
8
0
6
CONTINUOUS
10
21.098585
20
60.964795
30
0.0
11
20.807005
21
60.965005
31
0.0
0
LINE
8
0
6
CONTINUOUS
10
19.218635
20
60.966015
30
0.0
11
18.990765
21
60.966065
31
0.0
0
LINE
8
0
6
CONTINUOUS
10
5.024085
20
60.966635
30
0.0
11
0.000085
21
60.966655
31
0.0
0
LINE
8
0
6
CONTINUOUS
10
13.738985
20
60.966445
30
0.0
11
9.740085
21
60.966565
31
0.0
0
LINE
8
0
6
CONTINUOUS
10
9.740085
20
60.966565
30
0.0
11
5.024085
21
60.966635
31
0.0
0
LINE
8
0
6
CONTINUOUS
10
18.876825
20
60.966095
30
0.0
11
18.762875
21
60.966125
31
0.0
0
LINE
8
0
6
CONTINUOUS
10
16.917375
20
60.966295
30
0.0
11
13.738985
21
60.966445
31
0.0
0
LINE
8
0
6
CONTINUOUS
10
19.480575
20
60.965945
30
0.0
11
19.218635
21
60.966015
31
0.0
0
LINE
8
0
6
CONTINUOUS
10
20.807005
20
60.965005
30
0.0
11
19.480575
21
60.965945
31
0.0
0
LINE
8
0
6
CONTINUOUS
10
18.762875
20
60.966125
30
0.0
11
16.917375
21
60.966295
31
0.0
0
LINE
8
0
6
CONTINUOUS
10
18.990765
20
60.966065
30
0.0
11
18.876825
21
60.966095
31
0.0
0
LINE
8
0
6
CONTINUOUS
10
-21.098415
20
60.964795
30
0.0
11
-21.389995
21
60.964595
31
0.0
0
LINE
8
0
6
CONTINUOUS
10
-21.389995
20
60.964595
30
0.0
11
-21.681575
21
60.964385
31
0.0
0
LINE
8
0
6
CONTINUOUS
10
-21.681575
20
60.964385
30
0.0
11
-21.973155
21
60.964175
31
0.0
0
LINE
8
0
6
CONTINUOUS
10
-21.973155
20
60.964175
30
0.0
11
-22.264735
21
60.963975
31
0.0
0
LINE
8
0
6
CONTINUOUS
10
-22.556315
20
60.963765
30
0.0
11
-22.542165
21
60.479075
31
0.0
0
LINE
8
0
6
CONTINUOUS
10
-22.264735
20
60.963975
30
0.0
11
-22.556315
21
60.963765
31
0.0
0
LINE
8
0
6
CONTINUOUS
10
-20.806835
20
60.965005
30
0.0
11
-21.098415
21
60.964795
31
0.0
0
LINE
8
0
6
CONTINUOUS
10
-18.990595
20
60.966065
30
0.0
11
-19.218465
21
60.966015
31
0.0
0
LINE
8
0
6
CONTINUOUS
10
0.000085
20
60.966655
30
0.0
11
-5.023915
21
60.966635
31
0.0
0
LINE
8
0
6
CONTINUOUS
10
-9.739915
20
60.966565
30
0.0
11
-13.738815
21
60.966445
31
0.0
0
LINE
8
0
6
CONTINUOUS
10
-5.023915
20
60.966635
30
0.0
11
-9.739915
21
60.966565
31
0.0
0
LINE
8
0
6
CONTINUOUS
10
-18.762705
20
60.966125
30
0.0
11
-18.876655
21
60.966095
31
0.0
0
LINE
8
0
6
CONTINUOUS
10
-13.738815
20
60.966445
30
0.0
11
-16.917205
21
60.966295
31
0.0
0
LINE
8
0
6
CONTINUOUS
10
-19.218465
20
60.966015
30
0.0
11
-19.480405
21
60.965945
31
0.0
0
LINE
8
0
6
CONTINUOUS
10
-19.480405
20
60.965945
30
0.0
11
-20.806835
21
60.965005
31
0.0
0
LINE
8
0
6
CONTINUOUS
10
-16.917205
20
60.966295
30
0.0
11
-18.762705
21
60.966125
31
0.0
0
LINE
8
0
6
CONTINUOUS
10
-18.876655
20
60.966095
30
0.0
11
-18.990595
21
60.966065
31
0.0
0
LINE
8
0
6
CONTINUOUS
10
-21.207915
20
21.633325
30
0.0
11
-19.095915
21
20.716425
31
0.0
0
LINE
8
0
6
CONTINUOUS
10
-10.911915
20
19.295325
30
0.0
11
-5.631915
21
18.928525
31
0.0
0
LINE
8
0
6
CONTINUOUS
10
-15.487915
20
19.921825
30
0.0
11
-10.911915
21
19.295325
31
0.0
0
LINE
8
0
6
CONTINUOUS
10
-5.631915
20
18.928525
30
0.0
11
0.000085
21
18.791025
31
0.0
0
LINE
8
0
6
CONTINUOUS
10
-19.095915
20
20.716425
30
0.0
11
-15.487915
21
19.921825
31
0.0
0
LINE
8
0
6
CONTINUOUS
10
-21.999915
20
22.611325
30
0.0
11
-21.207915
21
21.633325
31
0.0
0
LINE
8
0
6
CONTINUOUS
10
-22.009895
20
23.390955
30
0.0
11
-21.999915
21
22.611325
31
0.0
0
LINE
8
0
6
CONTINUOUS
10
19.096085
20
20.716425
30
0.0
11
21.208085
21
21.633325
31
0.0
0
LINE
8
0
6
CONTINUOUS
10
5.632085
20
18.928525
30
0.0
11
10.912085
21
19.295325
31
0.0
0
LINE
8
0
6
CONTINUOUS
10
10.912085
20
19.295325
30
0.0
11
15.488085
21
19.921825
31
0.0
0
LINE
8
0
6
CONTINUOUS
10
0.000085
20
18.791025
30
0.0
11
5.632085
21
18.928525
31
0.0
0
LINE
8
0
6
CONTINUOUS
10
15.488085
20
19.921825
30
0.0
11
19.096085
21
20.716425
31
0.0
0
LINE
8
0
6
CONTINUOUS
10
22.000085
20
22.611325
30
0.0
11
22.010065
21
23.390955
31
0.0
0
LINE
8
0
6
CONTINUOUS
10
21.208085
20
21.633325
30
0.0
11
22.000085
21
22.611325
31
0.0
0
LINE
8
0
6
CONTINUOUS
10
22.433515
20
56.754475
30
0.0
11
22.542335
21
60.479075
31
0.0
0
LINE
8
0
6
CONTINUOUS
10
22.384835
20
53.748835
30
0.0
11
22.416925
21
55.333595
31
0.0
0
LINE
8
0
6
CONTINUOUS
10
22.010065
20
23.390955
30
0.0
11
22.372685
21
51.708325
31
0.0
0
LINE
8
0
6
CONTINUOUS
10
18.762885
20
59.828325
30
0.0
11
18.762885
21
60.073325
31
0.0
0
LINE
8
0
6
CONTINUOUS
10
22.372685
20
51.708325
30
0.0
11
22.384835
21
53.748835
31
0.0
0
LINE
8
0
6
CONTINUOUS
10
19.480585
20
60.073325
30
0.0
11
21.358185
21
59.919325
31
0.0
0
LINE
8
0
6
CONTINUOUS
10
22.416925
20
55.333595
30
0.0
11
22.433515
21
56.754475
31
0.0
0
LINE
8
0
6
CONTINUOUS
10
18.762885
20
59.659325
30
0.0
11
18.762885
21
59.828325
31
0.0
0
LINE
8
0
6
CONTINUOUS
10
-22.542165
20
60.479075
30
0.0
11
-22.433345
21
56.754475
31
0.0
0
LINE
8
0
6
CONTINUOUS
10
-22.416755
20
55.333595
30
0.0
11
-22.384665
21
53.748835
31
0.0
0
LINE
8
0
6
CONTINUOUS
10
-22.372515
20
51.708325
30
0.0
11
-22.009895
21
23.390955
31
0.0
0
LINE
8
0
6
CONTINUOUS
10
-18.762715
20
60.073325
30
0.0
11
-18.762715
21
59.828325
31
0.0
0
LINE
8
0
6
CONTINUOUS
10
-22.384665
20
53.748835
30
0.0
11
-22.372515
21
51.708325
31
0.0
0
LINE
8
0
6
CONTINUOUS
10
-21.358015
20
59.919325
30
0.0
11
-19.480415
21
60.073325
31
0.0
0
LINE
8
0
6
CONTINUOUS
10
-22.433345
20
56.754475
30
0.0
11
-22.416755
21
55.333595
31
0.0
0
LINE
8
0
6
CONTINUOUS
10
-18.762715
20
59.828325
30
0.0
11
-18.762715
21
59.659325
31
0.0
0
LINE
8
0
6
CONTINUOUS
10
21.000085
20
21.108036
30
0.0
11
21.000085
21
21.543024
31
0.0
0
LINE
8
0
6
CONTINUOUS
10
-21.999915
20
19.547425
30
0.0
11
-21.999915
21
-5.411467
31
0.0
0
LINE
8
0
6
CONTINUOUS
10
22.000085
20
-5.411476
30
0.0
11
22.000085
21
19.547425
31
0.0
0
LINE
8
0
6
CONTINUOUS
10
-21.207915
20
21.017735
30
0.0
11
-21.999915
21
20.039825
31
0.0
0
LINE
8
0
6
CONTINUOUS
10
-20.999915
20
21.108036
30
0.0
11
-21.207915
21
21.017735
31
0.0
0
LINE
8
0
6
CONTINUOUS
10
21.208085
20
21.017735
30
0.0
11
21.000085
21
21.108036
31
0.0
0
LINE
8
0
6
CONTINUOUS
10
22.000085
20
20.039825
30
0.0
11
21.208085
21
21.017735
31
0.0
0
LINE
8
0
6
CONTINUOUS
10
0.000085
20
16.219535
30
0.0
11
-5.631915
21
16.357035
31
0.0
0
LINE
8
0
6
CONTINUOUS
10
-21.999915
20
20.039825
30
0.0
11
-21.999915
21
19.547425
31
0.0
0
LINE
8
0
6
CONTINUOUS
10
-21.207915
20
19.061835
30
0.0
11
-21.999915
21
20.039825
31
0.0
0
LINE
8
0
6
CONTINUOUS
10
5.632085
20
16.357035
30
0.0
11
0.000085
21
16.219535
31
0.0
0
LINE
8
0
6
CONTINUOUS
10
19.096085
20
18.144935
30
0.0
11
15.576085
21
17.335025
31
0.0
0
LINE
8
0
6
CONTINUOUS
10
-19.095915
20
18.144935
30
0.0
11
-21.207915
21
19.061835
31
0.0
0
LINE
8
0
6
CONTINUOUS
10
-10.911915
20
16.723825
30
0.0
11
-15.575915
21
17.335025
31
0.0
0
LINE
8
0
6
CONTINUOUS
10
-5.631915
20
16.357035
30
0.0
11
-10.911915
21
16.723825
31
0.0
0
LINE
8
0
6
CONTINUOUS
10
10.912085
20
16.723825
30
0.0
11
5.632085
21
16.357035
31
0.0
0
LINE
8
0
6
CONTINUOUS
10
-15.575915
20
17.335025
30
0.0
11
-19.095915
21
18.144935
31
0.0
0
LINE
8
0
6
CONTINUOUS
10
22.000085
20
20.039825
30
0.0
11
21.208085
21
19.061835
31
0.0
0
LINE
8
0
6
CONTINUOUS
10
22.000085
20
19.547425
30
0.0
11
22.000085
21
20.039825
31
0.0
0
LINE
8
0
6
CONTINUOUS
10
15.576085
20
17.335025
30
0.0
11
10.912085
21
16.723825
31
0.0
0
LINE
8
0
6
CONTINUOUS
10
21.208085
20
19.061835
30
0.0
11
19.096085
21
18.144935
31
0.0
0
LINE
8
0
6
CONTINUOUS
10
24.481915
20
-3.425525
30
0.0
11
22.000085
21
-3.425525
31
0.0
0
LINE
8
0
6
CONTINUOUS
10
89.500075
20
-3.425535
30
0.0
11
25.960445
21
-3.425525
31
0.0
0
LINE
8
0
6
CONTINUOUS
10
90.000085
20
-4.185745
30
0.0
11
90.000085
21
-3.805635
31
0.0
0
LINE
8
0
6
CONTINUOUS
10
25.234675
20
-3.425525
30
0.0
11
24.481915
21
-3.425525
31
0.0
0
LINE
8
0
6
CONTINUOUS
10
25.960445
20
-3.425525
30
0.0
11
25.234675
21
-3.425525
31
0.0
0
LINE
8
0
6
CONTINUOUS
10
90.000085
20
-6.106675
30
0.0
11
90.000085
21
-4.185745
31
0.0
0
LINE
8
0
6
CONTINUOUS
10
90.000085
20
-9.306675
30
0.0
11
90.000085
21
-6.106675
31
0.0
0
LINE
8
0
6
CONTINUOUS
10
90.000085
20
-13.546675
30
0.0
11
90.000085
21
-9.306675
31
0.0
0
LINE
8
0
6
CONTINUOUS
10
90.000085
20
-37.626675
30
0.0
11
90.000085
21
-33.386675
31
0.0
0
LINE
8
0
6
CONTINUOUS
10
90.000085
20
-40.826675
30
0.0
11
90.000085
21
-37.626675
31
0.0
0
LINE
8
0
6
CONTINUOUS
10
90.000085
20
-23.466675
30
0.0
11
90.000085
21
-18.346675
31
0.0
0
LINE
8
0
6
CONTINUOUS
10
90.000085
20
-43.466675
30
0.0
11
90.000085
21
-42.746675
31
0.0
0
LINE
8
0
6
CONTINUOUS
10
89.500075
20
-43.466665
30
0.0
11
90.000085
21
-43.466675
31
0.0
0
LINE
8
0
6
CONTINUOUS
10
90.000085
20
-42.746675
30
0.0
11
90.000085
21
-40.826675
31
0.0
0
LINE
8
0
6
CONTINUOUS
10
90.000085
20
-18.346675
30
0.0
11
90.000085
21
-13.546675
31
0.0
0
LINE
8
0
6
CONTINUOUS
10
90.000085
20
-3.425535
30
0.0
11
89.500075
21
-3.425535
31
0.0
0
LINE
8
0
6
CONTINUOUS
10
90.000085
20
-3.805635
30
0.0
11
90.000085
21
-3.425535
31
0.0
0
LINE
8
0
6
CONTINUOUS
10
90.000085
20
-28.586675
30
0.0
11
90.000085
21
-23.466675
31
0.0
0
LINE
8
0
6
CONTINUOUS
10
90.000085
20
-33.386675
30
0.0
11
90.000085
21
-28.586675
31
0.0
0
LINE
8
0
6
CONTINUOUS
10
24.960085
20
-4.191295
30
0.0
11
19.516885
21
-19.931875
31
0.0
0
LINE
8
0
6
CONTINUOUS
10
22.441885
20
-23.466675
30
0.0
11
23.762955
21
-18.346675
31
0.0
0
LINE
8
0
6
CONTINUOUS
10
22.441885
20
-23.466675
30
0.0
11
20.554535
21
-28.586675
31
0.0
0
LINE
8
0
6
CONTINUOUS
10
23.762955
20
-18.346675
30
0.0
11
24.455205
21
-13.546675
31
0.0
0
LINE
8
0
6
CONTINUOUS
10
24.941245
20
-9.306675
30
0.0
11
25.185385
21
-6.106675
31
0.0
0
LINE
8
0
6
CONTINUOUS
10
17.732555
20
-33.479295
30
0.0
11
17.792775
21
-33.386675
31
0.0
0
LINE
8
0
6
CONTINUOUS
10
20.554535
20
-28.586675
30
0.0
11
17.792775
21
-33.386675
31
0.0
0
LINE
8
0
6
CONTINUOUS
10
24.455205
20
-13.546675
30
0.0
11
24.941245
21
-9.306675
31
0.0
0
LINE
8
0
6
CONTINUOUS
10
24.960085
20
-4.191295
30
0.0
11
25.185385
21
-6.106675
31
0.0
0
LINE
8
0
6
CONTINUOUS
10
17.400085
20
-22.358905
30
0.0
11
16.500085
21
-22.696965
31
0.0
0
LINE
8
0
6
CONTINUOUS
10
18.300085
20
-22.020835
30
0.0
11
17.400085
21
-22.358905
31
0.0
0
LINE
8
0
6
CONTINUOUS
10
16.500085
20
-22.696965
30
0.0
11
14.950085
21
-22.983585
31
0.0
0
LINE
8
0
6
CONTINUOUS
10
18.650085
20
-21.660735
30
0.0
11
18.300085
21
-22.020835
31
0.0
0
LINE
8
0
6
CONTINUOUS
10
14.950085
20
-22.983585
30
0.0
11
13.400085
21
-23.270205
31
0.0
0
LINE
8
0
6
CONTINUOUS
10
19.000085
20
-21.300625
30
0.0
11
18.650085
21
-21.660735
31
0.0
0
LINE
8
0
6
CONTINUOUS
10
15.208085
20
-37.362225
30
0.0
11
16.779085
21
-35.016475
31
0.0
0
LINE
8
0
6
CONTINUOUS
10
19.516885
20
-19.931875
30
0.0
11
19.000085
21
-21.300625
31
0.0
0
LINE
8
0
6
CONTINUOUS
10
13.637085
20
-39.707975
30
0.0
11
15.208085
21
-37.362225
31
0.0
0
LINE
8
0
6
CONTINUOUS
10
4.900085
20
-23.990425
30
0.0
11
0.000085
21
-24.093315
31
0.0
0
LINE
8
0
6
CONTINUOUS
10
17.400085
20
-32.990275
30
0.0
11
18.300085
21
-30.702475
31
0.0
0
LINE
8
0
6
CONTINUOUS
10
13.000085
20
-43.465761
30
0.0
11
89.500075
21
-43.466665
31
0.0
0
LINE
8
0
6
CONTINUOUS
10
13.400085
20
-23.270205
30
0.0
11
9.500085
21
-23.725855
31
0.0
0
LINE
8
0
6
CONTINUOUS
10
13.000085
20
-40.203341
30
0.0
11
13.637085
21
-39.707975
31
0.0
0
LINE
8
0
6
CONTINUOUS
10
18.300085
20
-30.702475
30
0.0
11
18.580085
21
-29.925875
31
0.0
0
LINE
8
0
6
CONTINUOUS
10
9.500085
20
-23.725855
30
0.0
11
4.900085
21
-23.990425
31
0.0
0
LINE
8
0
6
CONTINUOUS
10
16.779085
20
-35.016475
30
0.0
11
17.732555
21
-33.479295
31
0.0
0
LINE
8
0
6
CONTINUOUS
10
-21.999915
20
-3.425525
30
0.0
11
-24.481745
21
-3.425525
31
0.0
0
LINE
8
0
6
CONTINUOUS
10
-25.960275
20
-3.425525
30
0.0
11
-89.499905
21
-3.425525
31
0.0
0
LINE
8
0
6
CONTINUOUS
10
-89.999915
20
-3.805635
30
0.0
11
-89.999915
21
-4.185745
31
0.0
0
LINE
8
0
6
CONTINUOUS
10
-24.481745
20
-3.425525
30
0.0
11
-25.234505
21
-3.425525
31
0.0
0
LINE
8
0
6
CONTINUOUS
10
-25.234505
20
-3.425525
30
0.0
11
-25.960275
21
-3.425525
31
0.0
0
LINE
8
0
6
CONTINUOUS
10
-89.999915
20
-4.185745
30
0.0
11
-89.999915
21
-6.106675
31
0.0
0
LINE
8
0
6
CONTINUOUS
10
-89.999915
20
-6.106675
30
0.0
11
-89.999915
21
-9.306675
31
0.0
0
LINE
8
0
6
CONTINUOUS
10
-89.999915
20
-9.306675
30
0.0
11
-89.999915
21
-13.546675
31
0.0
0
LINE
8
0
6
CONTINUOUS
10
-89.999915
20
-33.386675
30
0.0
11
-89.999915
21
-37.626675
31
0.0
0
LINE
8
0
6
CONTINUOUS
10
-89.999915
20
-37.626675
30
0.0
11
-89.999915
21
-40.826675
31
0.0
0
LINE
8
0
6
CONTINUOUS
10
-89.999915
20
-18.346675
30
0.0
11
-89.999915
21
-23.466675
31
0.0
0
LINE
8
0
6
CONTINUOUS
10
-89.999915
20
-43.466675
30
0.0
11
-89.499905
21
-43.466665
31
0.0
0
LINE
8
0
6
CONTINUOUS
10
-89.999915
20
-42.746675
30
0.0
11
-89.999915
21
-43.466675
31
0.0
0
LINE
8
0
6
CONTINUOUS
10
-89.999915
20
-40.826675
30
0.0
11
-89.999915
21
-42.746675
31
0.0
0
LINE
8
0
6
CONTINUOUS
10
-89.999915
20
-13.546675
30
0.0
11
-89.999915
21
-18.346675
31
0.0
0
LINE
8
0
6
CONTINUOUS
10
-89.999915
20
-3.425525
30
0.0
11
-89.999915
21
-3.805635
31
0.0
0
LINE
8
0
6
CONTINUOUS
10
-89.499905
20
-3.425525
30
0.0
11
-89.999915
21
-3.425525
31
0.0
0
LINE
8
0
6
CONTINUOUS
10
-89.999915
20
-23.466675
30
0.0
11
-89.999915
21
-28.586675
31
0.0
0
LINE
8
0
6
CONTINUOUS
10
-89.999915
20
-28.586675
30
0.0
11
-89.999915
21
-33.386675
31
0.0
0
LINE
8
0
6
CONTINUOUS
10
-19.516715
20
-19.931875
30
0.0
11
-24.959915
21
-4.191295
31
0.0
0
LINE
8
0
6
CONTINUOUS
10
-23.762785
20
-18.346675
30
0.0
11
-22.441715
21
-23.466675
31
0.0
0
LINE
8
0
6
CONTINUOUS
10
-20.554365
20
-28.586675
30
0.0
11
-22.441715
21
-23.466675
31
0.0
0
LINE
8
0
6
CONTINUOUS
10
-24.455035
20
-13.546675
30
0.0
11
-23.762785
21
-18.346675
31
0.0
0
LINE
8
0
6
CONTINUOUS
10
-25.185215
20
-6.106675
30
0.0
11
-24.941075
21
-9.306675
31
0.0
0
LINE
8
0
6
CONTINUOUS
10
-17.792605
20
-33.386675
30
0.0
11
-17.732385
21
-33.479295
31
0.0
0
LINE
8
0
6
CONTINUOUS
10
-17.792605
20
-33.386675
30
0.0
11
-20.554365
21
-28.586675
31
0.0
0
LINE
8
0
6
CONTINUOUS
10
-24.941075
20
-9.306675
30
0.0
11
-24.455035
21
-13.546675
31
0.0
0
LINE
8
0
6
CONTINUOUS
10
-25.185215
20
-6.106675
30
0.0
11
-24.959915
21
-4.191295
31
0.0
0
LINE
8
0
6
CONTINUOUS
10
-16.499915
20
-22.696965
30
0.0
11
-17.399915
21
-22.358905
31
0.0
0
LINE
8
0
6
CONTINUOUS
10
-17.399915
20
-22.358905
30
0.0
11
-18.299915
21
-22.020835
31
0.0
0
LINE
8
0
6
CONTINUOUS
10
-14.949915
20
-22.983585
30
0.0
11
-16.499915
21
-22.696965
31
0.0
0
LINE
8
0
6
CONTINUOUS
10
-18.299915
20
-22.020835
30
0.0
11
-18.649915
21
-21.660735
31
0.0
0
LINE
8
0
6
CONTINUOUS
10
-13.399915
20
-23.270205
30
0.0
11
-14.949915
21
-22.983585
31
0.0
0
LINE
8
0
6
CONTINUOUS
10
-18.649915
20
-21.660735
30
0.0
11
-18.999915
21
-21.300625
31
0.0
0
LINE
8
0
6
CONTINUOUS
10
-16.778915
20
-35.016475
30
0.0
11
-15.207915
21
-37.362225
31
0.0
0
LINE
8
0
6
CONTINUOUS
10
-18.999915
20
-21.300625
30
0.0
11
-19.516715
21
-19.931875
31
0.0
0
LINE
8
0
6
CONTINUOUS
10
-15.207915
20
-37.362225
30
0.0
11
-13.636915
21
-39.707975
31
0.0
0
LINE
8
0
6
CONTINUOUS
10
0.000085
20
-24.093315
30
0.0
11
-4.899915
21
-23.990425
31
0.0
0
LINE
8
0
6
CONTINUOUS
10
-18.299915
20
-30.702475
30
0.0
11
-17.399915
21
-32.990275
31
0.0
0
LINE
8
0
6
CONTINUOUS
10
-89.499905
20
-43.466665
30
0.0
11
-12.999915
21
-43.465761
31
0.0
0
LINE
8
0
6
CONTINUOUS
10
-9.499915
20
-23.725855
30
0.0
11
-13.399915
21
-23.270205
31
0.0
0
LINE
8
0
6
CONTINUOUS
10
-13.636915
20
-39.707975
30
0.0
11
-12.999915
21
-40.203341
31
0.0
0
LINE
8
0
6
CONTINUOUS
10
-18.579915
20
-29.925875
30
0.0
11
-18.299915
21
-30.702475
31
0.0
0
LINE
8
0
6
CONTINUOUS
10
-4.899915
20
-23.990425
30
0.0
11
-9.499915
21
-23.725855
31
0.0
0
LINE
8
0
6
CONTINUOUS
10
-17.732385
20
-33.479295
30
0.0
11
-16.778915
21
-35.016475
31
0.0
0
LINE
8
0
6
CONTINUOUS
10
13.000085
20
-47.931475
30
0.0
11
13.000085
21
-38.595654
31
0.0
0
LINE
8
0
6
CONTINUOUS
10
-12.999915
20
-39.145465
30
0.0
11
-12.999915
21
-47.931475
31
0.0
0
LINE
8
0
6
CONTINUOUS
10
-12.999915
20
-47.931475
30
0.0
11
-12.999915
21
-48.401325
31
0.0
0
LINE
8
0
6
CONTINUOUS
10
13.000085
20
-48.401325
30
0.0
11
13.000085
21
-47.931475
31
0.0
0
LINE
8
0
6
CONTINUOUS
10
0.000085
20
-52.847655
30
0.0
11
6.448085
21
-52.260665
31
0.0
0
LINE
8
0
6
CONTINUOUS
10
0.000085
20
-43.955125
30
0.0
11
-6.447915
21
-44.542025
31
0.0
0
LINE
8
0
6
CONTINUOUS
10
-6.447915
20
-44.542025
30
0.0
11
-11.283915
21
-46.196025
31
0.0
0
LINE
8
0
6
CONTINUOUS
10
13.000085
20
-48.401325
30
0.0
11
11.284085
21
-46.196025
31
0.0
0
LINE
8
0
6
CONTINUOUS
10
-12.999915
20
-48.401325
30
0.0
11
-11.283915
21
-50.606725
31
0.0
0
LINE
8
0
6
CONTINUOUS
10
-6.447915
20
-52.260665
30
0.0
11
0.000085
21
-52.847655
31
0.0
0
LINE
8
0
6
CONTINUOUS
10
6.448085
20
-44.542025
30
0.0
11
0.000085
21
-43.955125
31
0.0
0
LINE
8
0
6
CONTINUOUS
10
-11.283915
20
-50.606725
30
0.0
11
-6.447915
21
-52.260665
31
0.0
0
LINE
8
0
6
CONTINUOUS
10
6.448085
20
-52.260665
30
0.0
11
11.284085
21
-50.606725
31
0.0
0
LINE
8
0
6
CONTINUOUS
10
11.284085
20
-50.606725
30
0.0
11
13.000085
21
-48.401325
31
0.0
0
LINE
8
0
6
CONTINUOUS
10
11.284085
20
-46.196025
30
0.0
11
6.448085
21
-44.542025
31
0.0
0
LINE
8
0
6
CONTINUOUS
10
-11.283915
20
-46.196025
30
0.0
11
-12.999915
21
-48.401325
31
0.0
0
LINE
8
0
6
CONTINUOUS
10
-5.225275
20
-45.283495
30
0.0
11
0.000085
21
-44.807175
31
0.0
0
LINE
8
0
6
CONTINUOUS
10
-9.115985
20
-46.614195
30
0.0
11
-5.225275
21
-45.283495
31
0.0
0
LINE
8
0
6
CONTINUOUS
10
9.116155
20
-46.614195
30
0.0
11
10.508865
21
-48.401325
31
0.0
0
LINE
8
0
6
CONTINUOUS
10
0.000085
20
-44.807175
30
0.0
11
5.225445
21
-45.283495
31
0.0
0
LINE
8
0
6
CONTINUOUS
10
5.225445
20
-45.283495
30
0.0
11
9.116155
21
-46.614195
31
0.0
0
LINE
8
0
6
CONTINUOUS
10
-10.508695
20
-48.401325
30
0.0
11
-9.115985
21
-46.614195
31
0.0
0
LINE
8
0
6
CONTINUOUS
10
-9.115985
20
-49.818675
30
0.0
11
-10.508695
21
-48.031445
31
0.0
0
LINE
8
0
6
CONTINUOUS
10
-10.508695
20
-48.401325
30
0.0
11
-9.115985
21
-50.188545
31
0.0
0
LINE
8
0
6
CONTINUOUS
10
-9.115985
20
-50.188545
30
0.0
11
-5.225255
21
-51.519195
31
0.0
0
LINE
8
0
6
CONTINUOUS
10
-5.225255
20
-51.149315
30
0.0
11
-9.115985
21
-49.818675
31
0.0
0
LINE
8
0
6
CONTINUOUS
10
0.000085
20
-51.625725
30
0.0
11
-5.225255
21
-51.149315
31
0.0
0
LINE
8
0
6
CONTINUOUS
10
-5.225255
20
-51.519195
30
0.0
11
0.000085
21
-51.995605
31
0.0
0
LINE
8
0
6
CONTINUOUS
10
0.000085
20
-51.995605
30
0.0
11
5.225425
21
-51.519195
31
0.0
0
LINE
8
0
6
CONTINUOUS
10
5.225425
20
-51.149315
30
0.0
11
0.000085
21
-51.625725
31
0.0
0
LINE
8
0
6
CONTINUOUS
10
10.508865
20
-48.031445
30
0.0
11
9.116155
21
-49.818675
31
0.0
0
LINE
8
0
6
CONTINUOUS
10
9.116155
20
-50.188545
30
0.0
11
10.508865
21
-48.401325
31
0.0
0
LINE
8
0
6
CONTINUOUS
10
5.225425
20
-51.519195
30
0.0
11
9.116155
21
-50.188545
31
0.0
0
LINE
8
0
6
CONTINUOUS
10
9.116155
20
-49.818675
30
0.0
11
5.225425
21
-51.149315
31
0.0
0
LINE
8
0
6
CONTINUOUS
10
-82.899615
20
-60.076605
30
0.0
11
-75.000125
21
-60.966655
31
0.0
0
LINE
8
0
6
CONTINUOUS
10
-90.402995
20
-57.451055
30
0.0
11
-82.899615
21
-60.076605
31
0.0
0
LINE
8
0
6
CONTINUOUS
10
-97.134005
20
-53.221675
30
0.0
11
-90.402995
21
-57.451055
31
0.0
0
LINE
8
0
6
CONTINUOUS
10
-102.755125
20
-47.600545
30
0.0
11
-97.134005
21
-53.221675
31
0.0
0
LINE
8
0
6
CONTINUOUS
10
-106.984495
20
-40.869535
30
0.0
11
-102.755125
21
-47.600545
31
0.0
0
LINE
8
0
6
CONTINUOUS
10
-109.610035
20
-33.366165
30
0.0
11
-106.984495
21
-40.869535
31
0.0
0
LINE
8
0
6
CONTINUOUS
10
-110.500095
20
-25.466675
30
0.0
11
-109.610035
21
-33.366165
31
0.0
0
LINE
8
0
6
CONTINUOUS
10
-102.755125
20
-3.332805
30
0.0
11
-106.984485
21
-10.063815
31
0.0
0
LINE
8
0
6
CONTINUOUS
10
-97.133985
20
2.288335
30
0.0
11
-102.755125
21
-3.332805
31
0.0
0
LINE
8
0
6
CONTINUOUS
10
-90.402975
20
6.517685
30
0.0
11
-97.133985
21
2.288335
31
0.0
0
LINE
8
0
6
CONTINUOUS
10
-82.899605
20
9.143245
30
0.0
11
-90.402975
21
6.517685
31
0.0
0
LINE
8
0
6
CONTINUOUS
10
-75.000105
20
10.033305
30
0.0
11
-82.899605
21
9.143245
31
0.0
0
LINE
8
0
6
CONTINUOUS
10
-67.100595
20
9.143245
30
0.0
11
-75.000105
21
10.033305
31
0.0
0
LINE
8
0
6
CONTINUOUS
10
-59.597235
20
6.517685
30
0.0
11
-67.100595
21
9.143245
31
0.0
0
LINE
8
0
6
CONTINUOUS
10
-52.866225
20
2.288315
30
0.0
11
-59.597235
21
6.517685
31
0.0
0
LINE
8
0
6
CONTINUOUS
10
-47.245095
20
-3.332815
30
0.0
11
-52.866225
21
2.288315
31
0.0
0
LINE
8
0
6
CONTINUOUS
10
-47.186842
20
-3.425525
30
0.0
11
-47.245095
21
-3.332815
31
0.0
0
LINE
8
0
6
CONTINUOUS
10
-47.245155
20
-47.600595
30
0.0
11
-44.647290
21
-43.466135
31
0.0
0
LINE
8
0
6
CONTINUOUS
10
-52.866275
20
-53.221705
30
0.0
11
-47.245155
21
-47.600595
31
0.0
0
LINE
8
0
6
CONTINUOUS
10
-59.597295
20
-57.451075
30
0.0
11
-52.866275
21
-53.221705
31
0.0
0
LINE
8
0
6
CONTINUOUS
10
-67.100665
20
-60.076615
30
0.0
11
-59.597295
21
-57.451075
31
0.0
0
LINE
8
0
6
CONTINUOUS
10
-75.000125
20
-60.966655
30
0.0
11
-67.100665
21
-60.076615
31
0.0
0
LINE
8
0
6
CONTINUOUS
10
-92.333205
20
-26.232225
30
0.0
11
-89.999915
21
-30.273598
31
0.0
0
LINE
8
0
6
CONTINUOUS
10
-92.294535
20
-25.299225
30
0.0
11
-92.333205
21
-26.232225
31
0.0
0
LINE
8
0
6
CONTINUOUS
10
-89.999915
20
-21.324845
30
0.0
11
-92.294535
21
-25.299225
31
0.0
0
LINE
8
0
6
CONTINUOUS
10
67.100595
20
-60.076605
30
0.0
11
75.000085
21
-60.966655
31
0.0
0
LINE
8
0
6
CONTINUOUS
10
59.597215
20
-57.451055
30
0.0
11
67.100595
21
-60.076605
31
0.0
0
LINE
8
0
6
CONTINUOUS
10
52.866205
20
-53.221675
30
0.0
11
59.597215
21
-57.451055
31
0.0
0
LINE
8
0
6
CONTINUOUS
10
47.245085
20
-47.600545
30
0.0
11
52.866205
21
-53.221675
31
0.0
0
LINE
8
0
6
CONTINUOUS
10
44.647266
20
-43.466135
30
0.0
11
47.245085
21
-47.600545
31
0.0
0
LINE
8
0
6
CONTINUOUS
10
47.245085
20
-3.332805
30
0.0
11
47.186823
21
-3.425528
31
0.0
0
LINE
8
0
6
CONTINUOUS
10
52.866225
20
2.288335
30
0.0
11
47.245085
21
-3.332805
31
0.0
0
LINE
8
0
6
CONTINUOUS
10
59.597235
20
6.517685
30
0.0
11
52.866225
21
2.288335
31
0.0
0
LINE
8
0
6
CONTINUOUS
10
67.100605
20
9.143245
30
0.0
11
59.597235
21
6.517685
31
0.0
0
LINE
8
0
6
CONTINUOUS
10
75.000105
20
10.033305
30
0.0
11
67.100605
21
9.143245
31
0.0
0
LINE
8
0
6
CONTINUOUS
10
82.899615
20
9.143245
30
0.0
11
75.000105
21
10.033305
31
0.0
0
LINE
8
0
6
CONTINUOUS
10
90.402975
20
6.517685
30
0.0
11
82.899615
21
9.143245
31
0.0
0
LINE
8
0
6
CONTINUOUS
10
97.133985
20
2.288315
30
0.0
11
90.402975
21
6.517685
31
0.0
0
LINE
8
0
6
CONTINUOUS
10
102.755115
20
-3.332815
30
0.0
11
97.133985
21
2.288315
31
0.0
0
LINE
8
0
6
CONTINUOUS
10
106.984495
20
-10.063845
30
0.0
11
102.755115
21
-3.332815
31
0.0
0
LINE
8
0
6
CONTINUOUS
10
109.610055
20
-17.567225
30
0.0
11
106.984495
21
-10.063845
31
0.0
0
LINE
8
0
6
CONTINUOUS
10
110.500095
20
-25.466715
30
0.0
11
109.610055
21
-17.567225
31
0.0
0
LINE
8
0
6
CONTINUOUS
10
109.609995
20
-33.366215
30
0.0
11
110.500095
21
-25.466715
31
0.0
0
LINE
8
0
6
CONTINUOUS
10
106.984455
20
-40.869575
30
0.0
11
109.609995
21
-33.366215
31
0.0
0
LINE
8
0
6
CONTINUOUS
10
102.755055
20
-47.600595
30
0.0
11
106.984455
21
-40.869575
31
0.0
0
LINE
8
0
6
CONTINUOUS
10
97.133935
20
-53.221705
30
0.0
11
102.755055
21
-47.600595
31
0.0
0
LINE
8
0
6
CONTINUOUS
10
90.402915
20
-57.451075
30
0.0
11
97.133935
21
-53.221705
31
0.0
0
LINE
8
0
6
CONTINUOUS
10
82.899545
20
-60.076615
30
0.0
11
90.402915
21
-57.451075
31
0.0
0
LINE
8
0
6
CONTINUOUS
10
75.000085
20
-60.966655
30
0.0
11
82.899545
21
-60.076615
31
0.0
0
LINE
8
0
6
CONTINUOUS
10
91.166985
20
-25.366225
30
0.0
11
90.000085
21
-23.345085
31
0.0
0
LINE
8
0
6
CONTINUOUS
10
90.000085
20
-28.253382
30
0.0
11
91.128315
21
-26.299225
31
0.0
0
LINE
8
0
6
CONTINUOUS
10
91.128315
20
-26.299225
30
0.0
11
91.166985
21
-25.366225
31
0.0
0
LINE
8
0
6
CONTINUOUS
10
-6.447915
20
-38.769547
30
0.0
11
-4.899915
21
-39.083476
31
0.0
0
LINE
8
0
6
CONTINUOUS
10
-4.899915
20
-39.083476
30
0.0
11
0.000085
21
-38.899249
31
0.0
0
LINE
8
0
6
CONTINUOUS
10
6.536934
20
-38.794818
30
0.0
11
8.077615
21
-39.208487
31
0.0
0
LINE
8
0
6
CONTINUOUS
10
-14.795195
20
17.470608
30
0.0
11
-10.499915
21
16.873901
31
0.0
0
LINE
8
0
6
CONTINUOUS
10
-20.245430
20
19.106283
30
0.0
11
-20.999900
21
20.039825
31
0.0
0
LINE
8
0
6
CONTINUOUS
10
-18.256623
20
18.227448
30
0.0
11
-20.236315
21
19.095003
31
0.0
0
LINE
8
0
6
CONTINUOUS
10
-10.436780
20
16.869558
30
0.0
11
-5.440915
21
16.525793
31
0.0
0
LINE
8
0
6
CONTINUOUS
10
14.796085
20
17.470640
30
0.0
11
18.232085
21
18.216532
31
0.0
0
LINE
8
0
6
CONTINUOUS
10
10.500085
20
16.873901
30
0.0
11
14.795587
21
17.470569
31
0.0
0
LINE
8
0
6
CONTINUOUS
10
5.441085
20
16.525793
30
0.0
11
10.436955
21
16.869557
31
0.0
0
ENDSEC
0
EOF
