999
Erzeugt mit innoplus bad 
0
SECTION
2
HEADER
9
$ACADVER
1
AC1009
9
$DWGCODEPAGE
3
ISO8859-1
0
ENDSEC
0
SECTION
2
TABLES
0
TABLE
2
LAYER
70
1
0
LAYER
2
0
70
0
62
7
6
CONTINUOUS
0
ENDTAB
0
ENDSEC
0
SECTION
2
ENTITIES
0
LINE
8
0
6
CONTINUOUS
10
152.796000
20
36.150000
30
0.0
11
159.966000
21
36.150000
31
0.0
0
LINE
8
0
6
CONTINUOUS
10
147.877000
20
36.150000
30
0.0
11
152.796000
21
36.150000
31
0.0
0
LINE
8
0
6
CONTINUOUS
10
142.666000
20
36.150000
30
0.0
11
147.877000
21
36.150000
31
0.0
0
LINE
8
0
6
CONTINUOUS
10
133.239000
20
36.150000
30
0.0
11
138.479000
21
36.150000
31
0.0
0
LINE
8
0
6
CONTINUOUS
10
128.174000
20
36.150000
30
0.0
11
133.239000
21
36.150000
31
0.0
0
LINE
8
0
6
CONTINUOUS
10
123.519000
20
36.150000
30
0.0
11
128.174000
21
36.150000
31
0.0
0
LINE
8
0
6
CONTINUOUS
10
118.606000
20
36.150000
30
0.0
11
122.112151
21
36.150000
31
0.0
0
LINE
8
0
6
CONTINUOUS
10
114.010000
20
36.150000
30
0.0
11
118.606000
21
36.150000
31
0.0
0
LINE
8
0
6
CONTINUOUS
10
111.589000
20
36.150000
30
0.0
11
114.010000
21
36.150000
31
0.0
0
LINE
8
0
6
CONTINUOUS
10
105.827000
20
36.150000
30
0.0
11
111.589000
21
36.150000
31
0.0
0
LINE
8
0
6
CONTINUOUS
10
163.458000
20
38.290000
30
0.0
11
163.774000
21
39.092000
31
0.0
0
LINE
8
0
6
CONTINUOUS
10
162.888000
20
37.507000
30
0.0
11
163.458000
21
38.290000
31
0.0
0
LINE
8
0
6
CONTINUOUS
10
162.319000
20
36.995000
30
0.0
11
162.888000
21
37.507000
31
0.0
0
LINE
8
0
6
CONTINUOUS
10
161.689000
20
36.580000
30
0.0
11
162.319000
21
36.995000
31
0.0
0
LINE
8
0
6
CONTINUOUS
10
160.897000
20
36.271000
30
0.0
11
161.689000
21
36.580000
31
0.0
0
LINE
8
0
6
CONTINUOUS
10
159.966000
20
36.150000
30
0.0
11
160.897000
21
36.271000
31
0.0
0
LINE
8
0
6
CONTINUOUS
10
163.973000
20
39.942000
30
0.0
11
164.081000
21
41.526000
31
0.0
0
LINE
8
0
6
CONTINUOUS
10
164.081000
20
41.526000
30
0.0
11
164.135000
21
43.555000
31
0.0
0
LINE
8
0
6
CONTINUOUS
10
164.217000
20
46.198000
30
0.0
11
164.259000
21
47.872000
31
0.0
0
LINE
8
0
6
CONTINUOUS
10
164.259000
20
47.872000
30
0.0
11
164.300000
21
49.650000
31
0.0
0
LINE
8
0
6
CONTINUOUS
10
151.031000
20
36.150000
30
0.0
11
152.895000
21
36.150000
31
0.0
0
LINE
8
0
6
CONTINUOUS
10
89.320000
20
40.146000
30
0.0
11
89.976000
21
38.958000
31
0.0
0
LINE
8
0
6
CONTINUOUS
10
89.976000
20
38.958000
30
0.0
11
90.740000
21
37.932000
31
0.0
0
LINE
8
0
6
CONTINUOUS
10
90.740000
20
37.932000
30
0.0
11
91.532000
21
37.230000
31
0.0
0
LINE
8
0
6
CONTINUOUS
10
91.532000
20
37.230000
30
0.0
11
92.378000
21
36.636000
31
0.0
0
LINE
8
0
6
CONTINUOUS
10
92.378000
20
36.636000
30
0.0
11
93.225000
21
36.312000
31
0.0
0
LINE
8
0
6
CONTINUOUS
10
93.225000
20
36.312000
30
0.0
11
94.126000
21
36.150000
31
0.0
0
LINE
8
0
6
CONTINUOUS
10
88.720000
20
41.442000
30
0.0
11
89.320000
21
40.146000
31
0.0
0
LINE
8
0
6
CONTINUOUS
10
88.201000
20
42.954000
30
0.0
11
88.720000
21
41.442000
31
0.0
0
LINE
8
0
6
CONTINUOUS
10
87.846000
20
44.520000
30
0.0
11
88.201000
21
42.954000
31
0.0
0
LINE
8
0
6
CONTINUOUS
10
87.546000
20
46.194000
30
0.0
11
87.846000
21
44.520000
31
0.0
0
LINE
8
0
6
CONTINUOUS
10
87.382000
20
47.868000
30
0.0
11
87.546000
21
46.194000
31
0.0
0
LINE
8
0
6
CONTINUOUS
10
87.300000
20
49.650000
30
0.0
11
87.382000
21
47.868000
31
0.0
0
LINE
8
0
6
CONTINUOUS
10
94.126000
20
36.150000
30
0.0
11
105.827000
21
36.150000
31
0.0
0
LINE
8
0
6
CONTINUOUS
10
163.774000
20
60.208000
30
0.0
11
163.458000
21
61.010000
31
0.0
0
LINE
8
0
6
CONTINUOUS
10
162.319000
20
62.305000
30
0.0
11
161.689000
21
62.720000
31
0.0
0
LINE
8
0
6
CONTINUOUS
10
161.689000
20
62.720000
30
0.0
11
160.897000
21
63.029000
31
0.0
0
LINE
8
0
6
CONTINUOUS
10
163.973000
20
59.358000
30
0.0
11
163.774000
21
60.208000
31
0.0
0
LINE
8
0
6
CONTINUOUS
10
164.135000
20
55.745000
30
0.0
11
164.081000
21
57.774000
31
0.0
0
LINE
8
0
6
CONTINUOUS
10
164.217000
20
53.102000
30
0.0
11
164.135000
21
55.745000
31
0.0
0
LINE
8
0
6
CONTINUOUS
10
164.259000
20
51.428000
30
0.0
11
164.217000
21
53.102000
31
0.0
0
LINE
8
0
6
CONTINUOUS
10
164.300000
20
49.650000
30
0.0
11
164.259000
21
51.428000
31
0.0
0
LINE
8
0
6
CONTINUOUS
10
159.966000
20
63.150000
30
0.0
11
152.796000
21
63.150000
31
0.0
0
LINE
8
0
6
CONTINUOUS
10
147.877000
20
63.150000
30
0.0
11
142.666000
21
63.150000
31
0.0
0
LINE
8
0
6
CONTINUOUS
10
142.666000
20
63.150000
30
0.0
11
138.479000
21
63.150000
31
0.0
0
LINE
8
0
6
CONTINUOUS
10
138.479000
20
63.150000
30
0.0
11
133.239000
21
63.150000
31
0.0
0
LINE
8
0
6
CONTINUOUS
10
133.239000
20
63.150000
30
0.0
11
128.174000
21
63.150000
31
0.0
0
LINE
8
0
6
CONTINUOUS
10
128.174000
20
63.150000
30
0.0
11
123.519000
21
63.150000
31
0.0
0
LINE
8
0
6
CONTINUOUS
10
123.519000
20
63.150000
30
0.0
11
118.606000
21
63.150000
31
0.0
0
LINE
8
0
6
CONTINUOUS
10
118.606000
20
63.150000
30
0.0
11
114.010000
21
63.150000
31
0.0
0
LINE
8
0
6
CONTINUOUS
10
114.010000
20
63.150000
30
0.0
11
111.589000
21
63.150000
31
0.0
0
LINE
8
0
6
CONTINUOUS
10
112.034000
20
63.150000
30
0.0
11
111.589000
21
63.150000
31
0.0
0
LINE
8
0
6
CONTINUOUS
10
105.827000
20
63.150000
30
0.0
11
94.126000
21
63.150000
31
0.0
0
LINE
8
0
6
CONTINUOUS
10
122.112151
20
63.150000
30
0.0
11
118.682000
21
63.150000
31
0.0
0
LINE
8
0
6
CONTINUOUS
10
142.516000
20
63.150000
30
0.0
11
138.395000
21
63.150000
31
0.0
0
LINE
8
0
6
CONTINUOUS
10
154.818000
20
63.150000
30
0.0
11
152.895000
21
63.150000
31
0.0
0
LINE
8
0
6
CONTINUOUS
10
89.976000
20
60.342000
30
0.0
11
89.320000
21
59.154000
31
0.0
0
LINE
8
0
6
CONTINUOUS
10
90.740000
20
61.368000
30
0.0
11
89.976000
21
60.342000
31
0.0
0
LINE
8
0
6
CONTINUOUS
10
91.532000
20
62.070000
30
0.0
11
90.740000
21
61.368000
31
0.0
0
LINE
8
0
6
CONTINUOUS
10
92.378000
20
62.664000
30
0.0
11
91.532000
21
62.070000
31
0.0
0
LINE
8
0
6
CONTINUOUS
10
93.225000
20
62.988000
30
0.0
11
92.378000
21
62.664000
31
0.0
0
LINE
8
0
6
CONTINUOUS
10
89.320000
20
59.154000
30
0.0
11
88.720000
21
57.858000
31
0.0
0
LINE
8
0
6
CONTINUOUS
10
88.720000
20
57.858000
30
0.0
11
88.201000
21
56.346000
31
0.0
0
LINE
8
0
6
CONTINUOUS
10
88.201000
20
56.346000
30
0.0
11
87.846000
21
54.780000
31
0.0
0
LINE
8
0
6
CONTINUOUS
10
87.846000
20
54.780000
30
0.0
11
87.546000
21
53.106000
31
0.0
0
LINE
8
0
6
CONTINUOUS
10
87.546000
20
53.106000
30
0.0
11
87.382000
21
51.432000
31
0.0
0
LINE
8
0
6
CONTINUOUS
10
87.382000
20
51.432000
30
0.0
11
87.300000
21
49.650000
31
0.0
0
LINE
8
0
6
CONTINUOUS
10
25.000000
20
-43.657300
30
0.0
11
25.000000
21
-53.238800
31
0.0
0
LINE
8
0
6
CONTINUOUS
10
25.000000
20
-33.505500
30
0.0
11
25.000000
21
-43.657300
31
0.0
0
LINE
8
0
6
CONTINUOUS
10
25.000000
20
-15.141000
30
0.0
11
25.000000
21
-25.349800
31
0.0
0
LINE
8
0
6
CONTINUOUS
10
25.000000
20
-5.274300
30
0.0
11
25.000000
21
-15.141000
31
0.0
0
LINE
8
0
6
CONTINUOUS
10
25.000000
20
3.793900
30
0.0
11
25.000000
21
-5.274300
31
0.0
0
LINE
8
0
6
CONTINUOUS
10
25.000000
20
22.318000
30
0.0
11
25.000000
21
13.363900
31
0.0
0
LINE
8
0
6
CONTINUOUS
10
25.000000
20
38.259000
30
0.0
11
25.000000
21
27.035000
31
0.0
0
LINE
8
0
6
CONTINUOUS
10
21.037000
20
-74.009150
30
0.0
11
19.553000
21
-74.624840
31
0.0
0
LINE
8
0
6
CONTINUOUS
10
22.486000
20
-72.899250
30
0.0
11
21.037000
21
-74.009150
31
0.0
0
LINE
8
0
6
CONTINUOUS
10
23.435000
20
-71.791920
30
0.0
11
22.486000
21
-72.899250
31
0.0
0
LINE
8
0
6
CONTINUOUS
10
24.777000
20
-69.020700
30
0.0
11
24.204000
21
-70.564340
31
0.0
0
LINE
8
0
6
CONTINUOUS
10
25.000000
20
-67.207790
30
0.0
11
24.777000
21
-69.020700
31
0.0
0
LINE
8
0
6
CONTINUOUS
10
17.978000
20
-75.012362
30
0.0
11
15.044000
21
-75.222569
31
0.0
0
LINE
8
0
6
CONTINUOUS
10
15.044000
20
-75.222569
30
0.0
11
11.287000
21
-75.327882
31
0.0
0
LINE
8
0
6
CONTINUOUS
10
6.392000
20
-75.488820
30
0.0
11
3.293000
21
-75.571111
31
0.0
0
LINE
8
0
6
CONTINUOUS
10
17.600000
20
70.414000
30
0.0
11
19.800000
21
69.138000
31
0.0
0
LINE
8
0
6
CONTINUOUS
10
19.800000
20
69.138000
30
0.0
11
21.700000
21
67.648000
31
0.0
0
LINE
8
0
6
CONTINUOUS
10
21.700000
20
67.648000
30
0.0
11
23.000000
21
66.106000
31
0.0
0
LINE
8
0
6
CONTINUOUS
10
23.000000
20
66.106000
30
0.0
11
24.100000
21
64.457000
31
0.0
0
LINE
8
0
6
CONTINUOUS
10
24.100000
20
64.457000
30
0.0
11
24.700000
21
62.808000
31
0.0
0
LINE
8
0
6
CONTINUOUS
10
24.700000
20
62.808000
30
0.0
11
25.000000
21
61.053000
31
0.0
0
LINE
8
0
6
CONTINUOUS
10
15.200000
20
71.584000
30
0.0
11
17.600000
21
70.414000
31
0.0
0
LINE
8
0
6
CONTINUOUS
10
12.400000
20
72.595000
30
0.0
11
15.200000
21
71.584000
31
0.0
0
LINE
8
0
6
CONTINUOUS
10
9.500000
20
73.286000
30
0.0
11
12.400000
21
72.595000
31
0.0
0
LINE
8
0
6
CONTINUOUS
10
3.300000
20
74.190000
30
0.0
11
6.400000
21
73.871000
31
0.0
0
LINE
8
0
6
CONTINUOUS
10
25.000000
20
61.053000
30
0.0
11
25.000000
21
38.259000
31
0.0
0
LINE
8
0
6
CONTINUOUS
10
-19.552000
20
-74.624840
30
0.0
11
-21.037000
21
-74.009150
31
0.0
0
LINE
8
0
6
CONTINUOUS
10
-23.435000
20
-71.791920
30
0.0
11
-24.204000
21
-70.564340
31
0.0
0
LINE
8
0
6
CONTINUOUS
10
-17.978000
20
-75.012362
30
0.0
11
-19.552000
21
-74.624840
31
0.0
0
LINE
8
0
6
CONTINUOUS
10
-11.287000
20
-75.327882
30
0.0
11
-15.044000
21
-75.222569
31
0.0
0
LINE
8
0
6
CONTINUOUS
10
-6.392000
20
-75.488820
30
0.0
11
-11.287000
21
-75.327882
31
0.0
0
LINE
8
0
6
CONTINUOUS
10
0.000000
20
-75.650000
30
0.0
11
-3.293000
21
-75.571111
31
0.0
0
LINE
8
0
6
CONTINUOUS
10
-25.000000
20
-67.207790
30
0.0
11
-25.000000
21
-53.238800
31
0.0
0
LINE
8
0
6
CONTINUOUS
10
-25.000000
20
-43.657300
30
0.0
11
-25.000000
21
-33.505500
31
0.0
0
LINE
8
0
6
CONTINUOUS
10
-25.000000
20
-33.505500
30
0.0
11
-25.000000
21
-25.349800
31
0.0
0
LINE
8
0
6
CONTINUOUS
10
-25.000000
20
-5.274300
30
0.0
11
-25.000000
21
3.793900
31
0.0
0
LINE
8
0
6
CONTINUOUS
10
-25.000000
20
3.793900
30
0.0
11
-25.000000
21
13.363900
31
0.0
0
LINE
8
0
6
CONTINUOUS
10
-25.000000
20
22.318000
30
0.0
11
-25.000000
21
27.035000
31
0.0
0
LINE
8
0
6
CONTINUOUS
10
-25.000000
20
38.259000
30
0.0
11
-25.000000
21
61.053000
31
0.0
0
LINE
8
0
6
CONTINUOUS
10
-19.800000
20
69.138000
30
0.0
11
-17.600000
21
70.414000
31
0.0
0
LINE
8
0
6
CONTINUOUS
10
-21.700000
20
67.648000
30
0.0
11
-19.800000
21
69.138000
31
0.0
0
LINE
8
0
6
CONTINUOUS
10
-23.000000
20
66.106000
30
0.0
11
-21.700000
21
67.648000
31
0.0
0
LINE
8
0
6
CONTINUOUS
10
-24.100000
20
64.457000
30
0.0
11
-23.000000
21
66.106000
31
0.0
0
LINE
8
0
6
CONTINUOUS
10
-24.700000
20
62.808000
30
0.0
11
-24.100000
21
64.457000
31
0.0
0
LINE
8
0
6
CONTINUOUS
10
-17.600000
20
70.414000
30
0.0
11
-15.200000
21
71.584000
31
0.0
0
LINE
8
0
6
CONTINUOUS
10
-15.200000
20
71.584000
30
0.0
11
-12.400000
21
72.595000
31
0.0
0
LINE
8
0
6
CONTINUOUS
10
-12.400000
20
72.595000
30
0.0
11
-9.500000
21
73.286000
31
0.0
0
LINE
8
0
6
CONTINUOUS
10
-9.500000
20
73.286000
30
0.0
11
-6.400000
21
73.871000
31
0.0
0
LINE
8
0
6
CONTINUOUS
10
-3.300000
20
74.190000
30
0.0
11
0.000000
21
74.350000
31
0.0
0
LINE
8
0
6
CONTINUOUS
10
-152.795600
20
36.150000
30
0.0
11
-159.966300
21
36.150000
31
0.0
0
LINE
8
0
6
CONTINUOUS
10
-147.877100
20
36.150000
30
0.0
11
-152.795600
21
36.150000
31
0.0
0
LINE
8
0
6
CONTINUOUS
10
-142.665800
20
36.150000
30
0.0
11
-147.877100
21
36.150000
31
0.0
0
LINE
8
0
6
CONTINUOUS
10
-133.238700
20
36.150000
30
0.0
11
-138.479300
21
36.150000
31
0.0
0
LINE
8
0
6
CONTINUOUS
10
-128.173800
20
36.150000
30
0.0
11
-133.238700
21
36.150000
31
0.0
0
LINE
8
0
6
CONTINUOUS
10
-123.518800
20
36.150000
30
0.0
11
-128.173800
21
36.150000
31
0.0
0
LINE
8
0
6
CONTINUOUS
10
-118.606200
20
36.150000
30
0.0
11
-122.112151
21
36.150000
31
0.0
0
LINE
8
0
6
CONTINUOUS
10
-114.009700
20
36.150000
30
0.0
11
-118.606200
21
36.150000
31
0.0
0
LINE
8
0
6
CONTINUOUS
10
-111.588600
20
36.150000
30
0.0
11
-114.009700
21
36.150000
31
0.0
0
LINE
8
0
6
CONTINUOUS
10
-105.826800
20
36.150000
30
0.0
11
-111.588600
21
36.150000
31
0.0
0
LINE
8
0
6
CONTINUOUS
10
-163.457700
20
38.290000
30
0.0
11
-163.773800
21
39.092000
31
0.0
0
LINE
8
0
6
CONTINUOUS
10
-162.888000
20
37.507000
30
0.0
11
-163.457700
21
38.290000
31
0.0
0
LINE
8
0
6
CONTINUOUS
10
-162.319500
20
36.995000
30
0.0
11
-162.888000
21
37.507000
31
0.0
0
LINE
8
0
6
CONTINUOUS
10
-161.689400
20
36.580000
30
0.0
11
-162.319500
21
36.995000
31
0.0
0
LINE
8
0
6
CONTINUOUS
10
-160.897000
20
36.271000
30
0.0
11
-161.689400
21
36.580000
31
0.0
0
LINE
8
0
6
CONTINUOUS
10
-159.966300
20
36.150000
30
0.0
11
-160.897000
21
36.271000
31
0.0
0
LINE
8
0
6
CONTINUOUS
10
-163.972700
20
39.942000
30
0.0
11
-164.080600
21
41.526000
31
0.0
0
LINE
8
0
6
CONTINUOUS
10
-164.080600
20
41.526000
30
0.0
11
-164.134600
21
43.555000
31
0.0
0
LINE
8
0
6
CONTINUOUS
10
-164.217300
20
46.198000
30
0.0
11
-164.259500
21
47.872000
31
0.0
0
LINE
8
0
6
CONTINUOUS
10
-164.259500
20
47.872000
30
0.0
11
-164.300000
21
49.650000
31
0.0
0
LINE
8
0
6
CONTINUOUS
10
-89.320400
20
40.146000
30
0.0
11
-89.975700
21
38.958000
31
0.0
0
LINE
8
0
6
CONTINUOUS
10
-89.975700
20
38.958000
30
0.0
11
-90.740100
21
37.932000
31
0.0
0
LINE
8
0
6
CONTINUOUS
10
-90.740100
20
37.932000
30
0.0
11
-91.531900
21
37.230000
31
0.0
0
LINE
8
0
6
CONTINUOUS
10
-91.531900
20
37.230000
30
0.0
11
-92.378300
21
36.636000
31
0.0
0
LINE
8
0
6
CONTINUOUS
10
-92.378300
20
36.636000
30
0.0
11
-93.224700
21
36.312000
31
0.0
0
LINE
8
0
6
CONTINUOUS
10
-93.224700
20
36.312000
30
0.0
11
-94.125700
21
36.150000
31
0.0
0
LINE
8
0
6
CONTINUOUS
10
-88.719700
20
41.442000
30
0.0
11
-89.320400
21
40.146000
31
0.0
0
LINE
8
0
6
CONTINUOUS
10
-88.201000
20
42.954000
30
0.0
11
-88.719700
21
41.442000
31
0.0
0
LINE
8
0
6
CONTINUOUS
10
-87.846100
20
44.520000
30
0.0
11
-88.201000
21
42.954000
31
0.0
0
LINE
8
0
6
CONTINUOUS
10
-87.545700
20
46.194000
30
0.0
11
-87.846100
21
44.520000
31
0.0
0
LINE
8
0
6
CONTINUOUS
10
-87.381900
20
47.868000
30
0.0
11
-87.545700
21
46.194000
31
0.0
0
LINE
8
0
6
CONTINUOUS
10
-87.300000
20
49.650000
30
0.0
11
-87.381900
21
47.868000
31
0.0
0
LINE
8
0
6
CONTINUOUS
10
-94.125700
20
36.150000
30
0.0
11
-105.826800
21
36.150000
31
0.0
0
LINE
8
0
6
CONTINUOUS
10
-163.773800
20
60.208000
30
0.0
11
-163.457700
21
61.010000
31
0.0
0
LINE
8
0
6
CONTINUOUS
10
-162.319500
20
62.305000
30
0.0
11
-161.689400
21
62.720000
31
0.0
0
LINE
8
0
6
CONTINUOUS
10
-161.689400
20
62.720000
30
0.0
11
-160.897000
21
63.029000
31
0.0
0
LINE
8
0
6
CONTINUOUS
10
-163.972700
20
59.358000
30
0.0
11
-163.773800
21
60.208000
31
0.0
0
LINE
8
0
6
CONTINUOUS
10
-164.134600
20
55.745000
30
0.0
11
-164.080600
21
57.774000
31
0.0
0
LINE
8
0
6
CONTINUOUS
10
-164.217300
20
53.102000
30
0.0
11
-164.134600
21
55.745000
31
0.0
0
LINE
8
0
6
CONTINUOUS
10
-164.259500
20
51.428000
30
0.0
11
-164.217300
21
53.102000
31
0.0
0
LINE
8
0
6
CONTINUOUS
10
-164.300000
20
49.650000
30
0.0
11
-164.259500
21
51.428000
31
0.0
0
LINE
8
0
6
CONTINUOUS
10
-159.966300
20
63.150000
30
0.0
11
-152.795600
21
63.150000
31
0.0
0
LINE
8
0
6
CONTINUOUS
10
-147.877100
20
63.150000
30
0.0
11
-142.665800
21
63.150000
31
0.0
0
LINE
8
0
6
CONTINUOUS
10
-142.665800
20
63.150000
30
0.0
11
-138.479300
21
63.150000
31
0.0
0
LINE
8
0
6
CONTINUOUS
10
-138.479300
20
63.150000
30
0.0
11
-133.238700
21
63.150000
31
0.0
0
LINE
8
0
6
CONTINUOUS
10
-133.238700
20
63.150000
30
0.0
11
-128.173800
21
63.150000
31
0.0
0
LINE
8
0
6
CONTINUOUS
10
-128.173800
20
63.150000
30
0.0
11
-123.518800
21
63.150000
31
0.0
0
LINE
8
0
6
CONTINUOUS
10
-123.518800
20
63.150000
30
0.0
11
-118.606200
21
63.150000
31
0.0
0
LINE
8
0
6
CONTINUOUS
10
-118.606200
20
63.150000
30
0.0
11
-114.009700
21
63.150000
31
0.0
0
LINE
8
0
6
CONTINUOUS
10
-114.009700
20
63.150000
30
0.0
11
-111.588600
21
63.150000
31
0.0
0
LINE
8
0
6
CONTINUOUS
10
-105.826800
20
63.150000
30
0.0
11
-94.125700
21
63.150000
31
0.0
0
LINE
8
0
6
CONTINUOUS
10
-89.975700
20
60.342000
30
0.0
11
-89.320400
21
59.154000
31
0.0
0
LINE
8
0
6
CONTINUOUS
10
-90.740100
20
61.368000
30
0.0
11
-89.975700
21
60.342000
31
0.0
0
LINE
8
0
6
CONTINUOUS
10
-91.531900
20
62.070000
30
0.0
11
-90.740100
21
61.368000
31
0.0
0
LINE
8
0
6
CONTINUOUS
10
-92.378300
20
62.664000
30
0.0
11
-91.531900
21
62.070000
31
0.0
0
LINE
8
0
6
CONTINUOUS
10
-93.224700
20
62.988000
30
0.0
11
-92.378300
21
62.664000
31
0.0
0
LINE
8
0
6
CONTINUOUS
10
-89.320400
20
59.154000
30
0.0
11
-88.719700
21
57.858000
31
0.0
0
LINE
8
0
6
CONTINUOUS
10
-88.719700
20
57.858000
30
0.0
11
-88.201000
21
56.346000
31
0.0
0
LINE
8
0
6
CONTINUOUS
10
-88.201000
20
56.346000
30
0.0
11
-87.846100
21
54.780000
31
0.0
0
LINE
8
0
6
CONTINUOUS
10
-87.846100
20
54.780000
30
0.0
11
-87.545700
21
53.106000
31
0.0
0
LINE
8
0
6
CONTINUOUS
10
-87.545700
20
53.106000
30
0.0
11
-87.381900
21
51.432000
31
0.0
0
LINE
8
0
6
CONTINUOUS
10
-87.381900
20
51.432000
30
0.0
11
-87.300000
21
49.650000
31
0.0
0
LINE
8
0
6
CONTINUOUS
10
142.666000
20
36.150000
30
0.0
11
138.479000
21
36.150000
31
0.0
0
LINE
8
0
6
CONTINUOUS
10
138.479000
20
36.150000
30
0.0
11
133.239000
21
36.150000
31
0.0
0
LINE
8
0
6
CONTINUOUS
10
133.239000
20
36.150000
30
0.0
11
128.174000
21
36.150000
31
0.0
0
LINE
8
0
6
CONTINUOUS
10
128.174000
20
36.150000
30
0.0
11
123.519000
21
36.150000
31
0.0
0
LINE
8
0
6
CONTINUOUS
10
161.994000
20
37.391000
30
0.0
11
161.427000
21
37.082000
31
0.0
0
LINE
8
0
6
CONTINUOUS
10
162.553000
20
37.836000
30
0.0
11
161.994000
21
37.391000
31
0.0
0
LINE
8
0
6
CONTINUOUS
10
163.373000
20
39.372000
30
0.0
11
163.084000
21
38.560000
31
0.0
0
LINE
8
0
6
CONTINUOUS
10
163.084000
20
38.560000
30
0.0
11
163.373000
21
39.372000
31
0.0
0
LINE
8
0
6
CONTINUOUS
10
162.553000
20
37.836000
30
0.0
11
163.084000
21
38.560000
31
0.0
0
LINE
8
0
6
CONTINUOUS
10
161.994000
20
37.391000
30
0.0
11
162.553000
21
37.836000
31
0.0
0
LINE
8
0
6
CONTINUOUS
10
161.427000
20
37.082000
30
0.0
11
161.994000
21
37.391000
31
0.0
0
LINE
8
0
6
CONTINUOUS
10
163.953000
20
41.546000
30
0.0
11
163.809000
21
39.990000
31
0.0
0
LINE
8
0
6
CONTINUOUS
10
164.008000
20
43.584000
30
0.0
11
163.953000
21
41.546000
31
0.0
0
LINE
8
0
6
CONTINUOUS
10
164.077000
20
46.306000
30
0.0
11
164.008000
21
43.584000
31
0.0
0
LINE
8
0
6
CONTINUOUS
10
164.129000
20
47.982000
30
0.0
11
164.077000
21
46.306000
31
0.0
0
LINE
8
0
6
CONTINUOUS
10
164.158000
20
49.650000
30
0.0
11
164.129000
21
47.982000
31
0.0
0
LINE
8
0
6
CONTINUOUS
10
163.774000
20
39.092000
30
0.0
11
163.458000
21
38.290000
31
0.0
0
LINE
8
0
6
CONTINUOUS
10
163.458000
20
38.290000
30
0.0
11
162.888000
21
37.507000
31
0.0
0
LINE
8
0
6
CONTINUOUS
10
162.888000
20
37.507000
30
0.0
11
162.319000
21
36.995000
31
0.0
0
LINE
8
0
6
CONTINUOUS
10
162.319000
20
36.995000
30
0.0
11
161.689000
21
36.580000
31
0.0
0
LINE
8
0
6
CONTINUOUS
10
161.689000
20
36.580000
30
0.0
11
160.897000
21
36.271000
31
0.0
0
LINE
8
0
6
CONTINUOUS
10
160.897000
20
36.271000
30
0.0
11
159.966000
21
36.150000
31
0.0
0
LINE
8
0
6
CONTINUOUS
10
159.991000
20
36.410000
30
0.0
11
160.841000
21
36.474000
31
0.0
0
LINE
8
0
6
CONTINUOUS
10
163.973000
20
39.942000
30
0.0
11
163.774000
21
39.092000
31
0.0
0
LINE
8
0
6
CONTINUOUS
10
163.809000
20
39.990000
30
0.0
11
163.953000
21
41.546000
31
0.0
0
LINE
8
0
6
CONTINUOUS
10
164.081000
20
41.526000
30
0.0
11
163.973000
21
39.942000
31
0.0
0
LINE
8
0
6
CONTINUOUS
10
163.953000
20
41.546000
30
0.0
11
164.008000
21
43.584000
31
0.0
0
LINE
8
0
6
CONTINUOUS
10
164.135000
20
43.555000
30
0.0
11
164.081000
21
41.526000
31
0.0
0
LINE
8
0
6
CONTINUOUS
10
164.008000
20
43.584000
30
0.0
11
164.077000
21
46.306000
31
0.0
0
LINE
8
0
6
CONTINUOUS
10
164.217000
20
46.198000
30
0.0
11
164.135000
21
43.555000
31
0.0
0
LINE
8
0
6
CONTINUOUS
10
164.077000
20
46.306000
30
0.0
11
164.129000
21
47.982000
31
0.0
0
LINE
8
0
6
CONTINUOUS
10
164.259000
20
47.872000
30
0.0
11
164.217000
21
46.198000
31
0.0
0
LINE
8
0
6
CONTINUOUS
10
164.129000
20
47.982000
30
0.0
11
164.158000
21
49.650000
31
0.0
0
LINE
8
0
6
CONTINUOUS
10
164.300000
20
49.650000
30
0.0
11
164.259000
21
47.872000
31
0.0
0
LINE
8
0
6
CONTINUOUS
10
159.966000
20
36.150000
30
0.0
11
152.796000
21
36.150000
31
0.0
0
LINE
8
0
6
CONTINUOUS
10
152.796000
20
36.150000
30
0.0
11
147.877000
21
36.150000
31
0.0
0
LINE
8
0
6
CONTINUOUS
10
147.877000
20
36.150000
30
0.0
11
142.666000
21
36.150000
31
0.0
0
LINE
8
0
6
CONTINUOUS
10
142.768000
20
36.410000
30
0.0
11
147.965000
21
36.410000
31
0.0
0
LINE
8
0
6
CONTINUOUS
10
87.789000
20
46.308000
30
0.0
11
87.640000
21
47.990000
31
0.0
0
LINE
8
0
6
CONTINUOUS
10
87.640000
20
47.990000
30
0.0
11
87.544000
21
49.650000
31
0.0
0
LINE
8
0
6
CONTINUOUS
10
89.976000
20
38.958000
30
0.0
11
89.320000
21
40.146000
31
0.0
0
LINE
8
0
6
CONTINUOUS
10
90.740000
20
37.932000
30
0.0
11
89.976000
21
38.958000
31
0.0
0
LINE
8
0
6
CONTINUOUS
10
91.532000
20
37.230000
30
0.0
11
90.740000
21
37.932000
31
0.0
0
LINE
8
0
6
CONTINUOUS
10
92.378000
20
36.636000
30
0.0
11
91.532000
21
37.230000
31
0.0
0
LINE
8
0
6
CONTINUOUS
10
93.225000
20
36.312000
30
0.0
11
92.378000
21
36.636000
31
0.0
0
LINE
8
0
6
CONTINUOUS
10
94.126000
20
36.150000
30
0.0
11
93.225000
21
36.312000
31
0.0
0
LINE
8
0
6
CONTINUOUS
10
89.320000
20
40.146000
30
0.0
11
88.720000
21
41.442000
31
0.0
0
LINE
8
0
6
CONTINUOUS
10
88.720000
20
41.442000
30
0.0
11
88.201000
21
42.954000
31
0.0
0
LINE
8
0
6
CONTINUOUS
10
88.201000
20
42.954000
30
0.0
11
87.846000
21
44.520000
31
0.0
0
LINE
8
0
6
CONTINUOUS
10
87.846000
20
44.520000
30
0.0
11
87.546000
21
46.194000
31
0.0
0
LINE
8
0
6
CONTINUOUS
10
87.546000
20
46.194000
30
0.0
11
87.382000
21
47.868000
31
0.0
0
LINE
8
0
6
CONTINUOUS
10
87.640000
20
47.990000
30
0.0
11
87.789000
21
46.308000
31
0.0
0
LINE
8
0
6
CONTINUOUS
10
87.382000
20
47.868000
30
0.0
11
87.300000
21
49.650000
31
0.0
0
LINE
8
0
6
CONTINUOUS
10
87.544000
20
49.650000
30
0.0
11
87.640000
21
47.990000
31
0.0
0
LINE
8
0
6
CONTINUOUS
10
105.827000
20
36.150000
30
0.0
11
94.126000
21
36.150000
31
0.0
0
LINE
8
0
6
CONTINUOUS
10
105.827000
20
36.410000
30
0.0
11
94.126000
21
36.410000
31
0.0
0
LINE
8
0
6
CONTINUOUS
10
123.519000
20
36.150000
30
0.0
11
118.606000
21
36.150000
31
0.0
0
LINE
8
0
6
CONTINUOUS
10
118.606000
20
36.150000
30
0.0
11
114.010000
21
36.150000
31
0.0
0
LINE
8
0
6
CONTINUOUS
10
114.010000
20
36.150000
30
0.0
11
111.589000
21
36.150000
31
0.0
0
LINE
8
0
6
CONTINUOUS
10
111.589000
20
36.150000
30
0.0
11
105.827000
21
36.150000
31
0.0
0
LINE
8
0
6
CONTINUOUS
10
161.994000
20
61.909000
30
0.0
11
162.553000
21
61.464000
31
0.0
0
LINE
8
0
6
CONTINUOUS
10
162.553000
20
61.464000
30
0.0
11
163.084000
21
60.740000
31
0.0
0
LINE
8
0
6
CONTINUOUS
10
163.084000
20
60.740000
30
0.0
11
163.373000
21
59.928000
31
0.0
0
LINE
8
0
6
CONTINUOUS
10
163.373000
20
59.928000
30
0.0
11
163.084000
21
60.740000
31
0.0
0
LINE
8
0
6
CONTINUOUS
10
163.084000
20
60.740000
30
0.0
11
162.553000
21
61.464000
31
0.0
0
LINE
8
0
6
CONTINUOUS
10
162.553000
20
61.464000
30
0.0
11
161.994000
21
61.909000
31
0.0
0
LINE
8
0
6
CONTINUOUS
10
161.994000
20
61.909000
30
0.0
11
161.427000
21
62.218000
31
0.0
0
LINE
8
0
6
CONTINUOUS
10
163.809000
20
59.310000
30
0.0
11
163.953000
21
57.754000
31
0.0
0
LINE
8
0
6
CONTINUOUS
10
163.953000
20
57.754000
30
0.0
11
164.008000
21
55.716000
31
0.0
0
LINE
8
0
6
CONTINUOUS
10
164.008000
20
55.716000
30
0.0
11
164.077000
21
52.994000
31
0.0
0
LINE
8
0
6
CONTINUOUS
10
164.077000
20
52.994000
30
0.0
11
164.129000
21
51.318000
31
0.0
0
LINE
8
0
6
CONTINUOUS
10
164.129000
20
51.318000
30
0.0
11
164.158000
21
49.650000
31
0.0
0
LINE
8
0
6
CONTINUOUS
10
163.458000
20
61.010000
30
0.0
11
163.774000
21
60.208000
31
0.0
0
LINE
8
0
6
CONTINUOUS
10
162.888000
20
61.793000
30
0.0
11
163.458000
21
61.010000
31
0.0
0
LINE
8
0
6
CONTINUOUS
10
162.319000
20
62.305000
30
0.0
11
162.888000
21
61.793000
31
0.0
0
LINE
8
0
6
CONTINUOUS
10
161.689000
20
62.720000
30
0.0
11
162.319000
21
62.305000
31
0.0
0
LINE
8
0
6
CONTINUOUS
10
160.897000
20
63.029000
30
0.0
11
161.689000
21
62.720000
31
0.0
0
LINE
8
0
6
CONTINUOUS
10
160.841000
20
62.826000
30
0.0
11
159.991000
21
62.890000
31
0.0
0
LINE
8
0
6
CONTINUOUS
10
159.966000
20
63.150000
30
0.0
11
160.897000
21
63.029000
31
0.0
0
LINE
8
0
6
CONTINUOUS
10
163.774000
20
60.208000
30
0.0
11
163.973000
21
59.358000
31
0.0
0
LINE
8
0
6
CONTINUOUS
10
163.973000
20
59.358000
30
0.0
11
164.081000
21
57.774000
31
0.0
0
LINE
8
0
6
CONTINUOUS
10
163.953000
20
57.754000
30
0.0
11
163.809000
21
59.310000
31
0.0
0
LINE
8
0
6
CONTINUOUS
10
164.081000
20
57.774000
30
0.0
11
164.135000
21
55.745000
31
0.0
0
LINE
8
0
6
CONTINUOUS
10
164.008000
20
55.716000
30
0.0
11
163.953000
21
57.754000
31
0.0
0
LINE
8
0
6
CONTINUOUS
10
164.135000
20
55.745000
30
0.0
11
164.217000
21
53.102000
31
0.0
0
LINE
8
0
6
CONTINUOUS
10
164.077000
20
52.994000
30
0.0
11
164.008000
21
55.716000
31
0.0
0
LINE
8
0
6
CONTINUOUS
10
164.217000
20
53.102000
30
0.0
11
164.259000
21
51.428000
31
0.0
0
LINE
8
0
6
CONTINUOUS
10
164.129000
20
51.318000
30
0.0
11
164.077000
21
52.994000
31
0.0
0
LINE
8
0
6
CONTINUOUS
10
164.259000
20
51.428000
30
0.0
11
164.300000
21
49.650000
31
0.0
0
LINE
8
0
6
CONTINUOUS
10
164.158000
20
49.650000
30
0.0
11
164.129000
21
51.318000
31
0.0
0
LINE
8
0
6
CONTINUOUS
10
138.479000
20
63.150000
30
0.0
11
142.666000
21
63.150000
31
0.0
0
LINE
8
0
6
CONTINUOUS
10
133.239000
20
63.150000
30
0.0
11
138.479000
21
63.150000
31
0.0
0
LINE
8
0
6
CONTINUOUS
10
128.174000
20
63.150000
30
0.0
11
133.239000
21
63.150000
31
0.0
0
LINE
8
0
6
CONTINUOUS
10
123.519000
20
63.150000
30
0.0
11
128.174000
21
63.150000
31
0.0
0
LINE
8
0
6
CONTINUOUS
10
152.796000
20
63.150000
30
0.0
11
159.966000
21
63.150000
31
0.0
0
LINE
8
0
6
CONTINUOUS
10
147.877000
20
63.150000
30
0.0
11
152.796000
21
63.150000
31
0.0
0
LINE
8
0
6
CONTINUOUS
10
142.666000
20
63.150000
30
0.0
11
147.877000
21
63.150000
31
0.0
0
LINE
8
0
6
CONTINUOUS
10
147.965000
20
62.890000
30
0.0
11
142.768000
21
62.890000
31
0.0
0
LINE
8
0
6
CONTINUOUS
10
105.827000
20
63.150000
30
0.0
11
111.589000
21
63.150000
31
0.0
0
LINE
8
0
6
CONTINUOUS
10
118.606000
20
63.150000
30
0.0
11
123.519000
21
63.150000
31
0.0
0
LINE
8
0
6
CONTINUOUS
10
114.010000
20
63.150000
30
0.0
11
118.606000
21
63.150000
31
0.0
0
LINE
8
0
6
CONTINUOUS
10
111.589000
20
63.150000
30
0.0
11
114.010000
21
63.150000
31
0.0
0
LINE
8
0
6
CONTINUOUS
10
94.126000
20
63.150000
30
0.0
11
105.827000
21
63.150000
31
0.0
0
LINE
8
0
6
CONTINUOUS
10
94.126000
20
62.890000
30
0.0
11
105.827000
21
62.890000
31
0.0
0
LINE
8
0
6
CONTINUOUS
10
87.640000
20
51.310000
30
0.0
11
87.789000
21
52.992000
31
0.0
0
LINE
8
0
6
CONTINUOUS
10
87.544000
20
49.650000
30
0.0
11
87.640000
21
51.310000
31
0.0
0
LINE
8
0
6
CONTINUOUS
10
89.320000
20
59.154000
30
0.0
11
89.976000
21
60.342000
31
0.0
0
LINE
8
0
6
CONTINUOUS
10
89.976000
20
60.342000
30
0.0
11
90.740000
21
61.368000
31
0.0
0
LINE
8
0
6
CONTINUOUS
10
90.740000
20
61.368000
30
0.0
11
91.532000
21
62.070000
31
0.0
0
LINE
8
0
6
CONTINUOUS
10
91.532000
20
62.070000
30
0.0
11
92.378000
21
62.664000
31
0.0
0
LINE
8
0
6
CONTINUOUS
10
92.378000
20
62.664000
30
0.0
11
93.225000
21
62.988000
31
0.0
0
LINE
8
0
6
CONTINUOUS
10
93.225000
20
62.988000
30
0.0
11
94.126000
21
63.150000
31
0.0
0
LINE
8
0
6
CONTINUOUS
10
88.720000
20
57.858000
30
0.0
11
89.320000
21
59.154000
31
0.0
0
LINE
8
0
6
CONTINUOUS
10
88.201000
20
56.346000
30
0.0
11
88.720000
21
57.858000
31
0.0
0
LINE
8
0
6
CONTINUOUS
10
87.846000
20
54.780000
30
0.0
11
88.201000
21
56.346000
31
0.0
0
LINE
8
0
6
CONTINUOUS
10
87.546000
20
53.106000
30
0.0
11
87.846000
21
54.780000
31
0.0
0
LINE
8
0
6
CONTINUOUS
10
87.789000
20
52.992000
30
0.0
11
87.640000
21
51.310000
31
0.0
0
LINE
8
0
6
CONTINUOUS
10
87.382000
20
51.432000
30
0.0
11
87.546000
21
53.106000
31
0.0
0
LINE
8
0
6
CONTINUOUS
10
87.640000
20
51.310000
30
0.0
11
87.544000
21
49.650000
31
0.0
0
LINE
8
0
6
CONTINUOUS
10
87.300000
20
49.650000
30
0.0
11
87.382000
21
51.432000
31
0.0
0
LINE
8
0
6
CONTINUOUS
10
25.000000
20
-33.505500
30
0.0
11
25.000000
21
-25.349800
31
0.0
0
LINE
8
0
6
CONTINUOUS
10
25.000000
20
-25.349800
30
0.0
11
25.000000
21
-15.141000
31
0.0
0
LINE
8
0
6
CONTINUOUS
10
25.000000
20
-15.141000
30
0.0
11
25.000000
21
-5.274300
31
0.0
0
LINE
8
0
6
CONTINUOUS
10
25.000000
20
-5.274300
30
0.0
11
25.000000
21
3.793900
31
0.0
0
LINE
8
0
6
CONTINUOUS
10
22.701000
20
-71.158410
30
0.0
11
23.274000
21
-70.052320
31
0.0
0
LINE
8
0
6
CONTINUOUS
10
21.878000
20
-72.246070
30
0.0
11
22.701000
21
-71.158410
31
0.0
0
LINE
8
0
6
CONTINUOUS
10
20.536000
20
-73.280640
30
0.0
11
19.034000
21
-73.844160
31
0.0
0
LINE
8
0
6
CONTINUOUS
10
21.878000
20
-72.246070
30
0.0
11
20.536000
21
-73.280640
31
0.0
0
LINE
8
0
6
CONTINUOUS
10
22.701000
20
-71.158410
30
0.0
11
21.878000
21
-72.246070
31
0.0
0
LINE
8
0
6
CONTINUOUS
10
23.274000
20
-70.052320
30
0.0
11
22.701000
21
-71.158410
31
0.0
0
LINE
8
0
6
CONTINUOUS
10
19.034000
20
-73.844160
30
0.0
11
17.585000
21
-74.002250
31
0.0
0
LINE
8
0
6
CONTINUOUS
10
15.008000
20
-74.974960
30
0.0
11
17.889000
21
-74.694209
31
0.0
0
LINE
8
0
6
CONTINUOUS
10
11.233000
20
-75.080279
30
0.0
11
15.008000
21
-74.974960
31
0.0
0
LINE
8
0
6
CONTINUOUS
10
6.192000
20
-75.215648
30
0.0
11
11.233000
21
-75.080279
31
0.0
0
LINE
8
0
6
CONTINUOUS
10
3.089000
20
-75.315976
30
0.0
11
6.192000
21
-75.215648
31
0.0
0
LINE
8
0
6
CONTINUOUS
10
0.000000
20
-75.373871
30
0.0
11
3.089000
21
-75.315976
31
0.0
0
LINE
8
0
6
CONTINUOUS
10
19.553000
20
-74.624840
30
0.0
11
21.037000
21
-74.009150
31
0.0
0
LINE
8
0
6
CONTINUOUS
10
21.037000
20
-74.009150
30
0.0
11
22.486000
21
-72.899250
31
0.0
0
LINE
8
0
6
CONTINUOUS
10
22.486000
20
-72.899250
30
0.0
11
23.435000
21
-71.791920
31
0.0
0
LINE
8
0
6
CONTINUOUS
10
23.435000
20
-71.791920
30
0.0
11
24.204000
21
-70.564340
31
0.0
0
LINE
8
0
6
CONTINUOUS
10
24.204000
20
-70.564340
30
0.0
11
24.777000
21
-69.020700
31
0.0
0
LINE
8
0
6
CONTINUOUS
10
24.777000
20
-69.020700
30
0.0
11
25.000000
21
-67.207790
31
0.0
0
LINE
8
0
6
CONTINUOUS
10
24.519000
20
-67.256400
30
0.0
11
24.401000
21
-68.911210
31
0.0
0
LINE
8
0
6
CONTINUOUS
10
17.978000
20
-75.012362
30
0.0
11
19.553000
21
-74.624840
31
0.0
0
LINE
8
0
6
CONTINUOUS
10
15.044000
20
-75.222569
30
0.0
11
17.978000
21
-75.012362
31
0.0
0
LINE
8
0
6
CONTINUOUS
10
15.008000
20
-74.974960
30
0.0
11
11.233000
21
-75.080279
31
0.0
0
LINE
8
0
6
CONTINUOUS
10
11.287000
20
-75.327882
30
0.0
11
15.044000
21
-75.222569
31
0.0
0
LINE
8
0
6
CONTINUOUS
10
11.233000
20
-75.080279
30
0.0
11
6.192000
21
-75.215648
31
0.0
0
LINE
8
0
6
CONTINUOUS
10
6.392000
20
-75.488820
30
0.0
11
11.287000
21
-75.327882
31
0.0
0
LINE
8
0
6
CONTINUOUS
10
6.192000
20
-75.215648
30
0.0
11
3.089000
21
-75.315976
31
0.0
0
LINE
8
0
6
CONTINUOUS
10
3.293000
20
-75.571111
30
0.0
11
6.392000
21
-75.488820
31
0.0
0
LINE
8
0
6
CONTINUOUS
10
3.089000
20
-75.315976
30
0.0
11
0.000000
21
-75.373871
31
0.0
0
LINE
8
0
6
CONTINUOUS
10
0.000000
20
-75.650000
30
0.0
11
3.293000
21
-75.571111
31
0.0
0
LINE
8
0
6
CONTINUOUS
10
25.000000
20
-67.207790
30
0.0
11
25.000000
21
-53.238800
31
0.0
0
LINE
8
0
6
CONTINUOUS
10
25.000000
20
-53.238800
30
0.0
11
25.000000
21
-43.657300
31
0.0
0
LINE
8
0
6
CONTINUOUS
10
25.000000
20
-43.657300
30
0.0
11
25.000000
21
-33.505500
31
0.0
0
LINE
8
0
6
CONTINUOUS
10
24.519000
20
-33.705200
30
0.0
11
24.519000
21
-43.828400
31
0.0
0
LINE
8
0
6
CONTINUOUS
10
9.019000
20
72.811000
30
0.0
11
6.188000
21
73.397000
31
0.0
0
LINE
8
0
6
CONTINUOUS
10
6.188000
20
73.397000
30
0.0
11
3.074000
21
73.688000
31
0.0
0
LINE
8
0
6
CONTINUOUS
10
3.074000
20
73.688000
30
0.0
11
0.000000
21
73.875000
31
0.0
0
LINE
8
0
6
CONTINUOUS
10
19.800000
20
69.138000
30
0.0
11
17.600000
21
70.414000
31
0.0
0
LINE
8
0
6
CONTINUOUS
10
21.700000
20
67.648000
30
0.0
11
19.800000
21
69.138000
31
0.0
0
LINE
8
0
6
CONTINUOUS
10
23.000000
20
66.106000
30
0.0
11
21.700000
21
67.648000
31
0.0
0
LINE
8
0
6
CONTINUOUS
10
24.100000
20
64.457000
30
0.0
11
23.000000
21
66.106000
31
0.0
0
LINE
8
0
6
CONTINUOUS
10
24.700000
20
62.808000
30
0.0
11
24.100000
21
64.457000
31
0.0
0
LINE
8
0
6
CONTINUOUS
10
25.000000
20
61.053000
30
0.0
11
24.700000
21
62.808000
31
0.0
0
LINE
8
0
6
CONTINUOUS
10
17.600000
20
70.414000
30
0.0
11
15.200000
21
71.584000
31
0.0
0
LINE
8
0
6
CONTINUOUS
10
15.200000
20
71.584000
30
0.0
11
12.400000
21
72.595000
31
0.0
0
LINE
8
0
6
CONTINUOUS
10
12.400000
20
72.595000
30
0.0
11
9.500000
21
73.286000
31
0.0
0
LINE
8
0
6
CONTINUOUS
10
9.500000
20
73.286000
30
0.0
11
6.400000
21
73.871000
31
0.0
0
LINE
8
0
6
CONTINUOUS
10
6.188000
20
73.397000
30
0.0
11
9.019000
21
72.811000
31
0.0
0
LINE
8
0
6
CONTINUOUS
10
6.400000
20
73.871000
30
0.0
11
3.300000
21
74.190000
31
0.0
0
LINE
8
0
6
CONTINUOUS
10
3.074000
20
73.688000
30
0.0
11
6.188000
21
73.397000
31
0.0
0
LINE
8
0
6
CONTINUOUS
10
3.300000
20
74.190000
30
0.0
11
0.000000
21
74.350000
31
0.0
0
LINE
8
0
6
CONTINUOUS
10
0.000000
20
73.875000
30
0.0
11
3.074000
21
73.688000
31
0.0
0
LINE
8
0
6
CONTINUOUS
10
25.000000
20
38.259000
30
0.0
11
25.000000
21
61.053000
31
0.0
0
LINE
8
0
6
CONTINUOUS
10
24.519000
20
38.259000
30
0.0
11
24.519000
21
61.053000
31
0.0
0
LINE
8
0
6
CONTINUOUS
10
25.000000
20
3.793900
30
0.0
11
25.000000
21
13.363900
31
0.0
0
LINE
8
0
6
CONTINUOUS
10
25.000000
20
13.363900
30
0.0
11
25.000000
21
22.318000
31
0.0
0
LINE
8
0
6
CONTINUOUS
10
25.000000
20
22.318000
30
0.0
11
25.000000
21
27.035000
31
0.0
0
LINE
8
0
6
CONTINUOUS
10
25.000000
20
27.035000
30
0.0
11
25.000000
21
38.259000
31
0.0
0
LINE
8
0
6
CONTINUOUS
10
-22.701000
20
-71.158410
30
0.0
11
-21.878000
21
-72.246070
31
0.0
0
LINE
8
0
6
CONTINUOUS
10
-21.878000
20
-72.246070
30
0.0
11
-20.536000
21
-73.280640
31
0.0
0
LINE
8
0
6
CONTINUOUS
10
-20.536000
20
-73.280640
30
0.0
11
-19.034000
21
-73.844160
31
0.0
0
LINE
8
0
6
CONTINUOUS
10
-19.034000
20
-73.844160
30
0.0
11
-17.585000
21
-74.002250
31
0.0
0
LINE
8
0
6
CONTINUOUS
10
-19.034000
20
-73.844160
30
0.0
11
-20.536000
21
-73.280640
31
0.0
0
LINE
8
0
6
CONTINUOUS
10
-20.536000
20
-73.280640
30
0.0
11
-21.878000
21
-72.246070
31
0.0
0
LINE
8
0
6
CONTINUOUS
10
-21.878000
20
-72.246070
30
0.0
11
-22.701000
21
-71.158410
31
0.0
0
LINE
8
0
6
CONTINUOUS
10
-22.701000
20
-71.158410
30
0.0
11
-23.274000
21
-70.052320
31
0.0
0
LINE
8
0
6
CONTINUOUS
10
-17.585000
20
-74.002250
30
0.0
11
-19.034000
21
-73.844160
31
0.0
0
LINE
8
0
6
CONTINUOUS
10
-17.889000
20
-74.694209
30
0.0
11
-15.008000
21
-74.974960
31
0.0
0
LINE
8
0
6
CONTINUOUS
10
-15.008000
20
-74.974960
30
0.0
11
-11.233000
21
-75.080279
31
0.0
0
LINE
8
0
6
CONTINUOUS
10
-11.233000
20
-75.080279
30
0.0
11
-6.192000
21
-75.215648
31
0.0
0
LINE
8
0
6
CONTINUOUS
10
-6.192000
20
-75.215648
30
0.0
11
-3.089000
21
-75.315976
31
0.0
0
LINE
8
0
6
CONTINUOUS
10
-3.089000
20
-75.315976
30
0.0
11
0.000000
21
-75.373871
31
0.0
0
LINE
8
0
6
CONTINUOUS
10
-21.037000
20
-74.009150
30
0.0
11
-19.552000
21
-74.624840
31
0.0
0
LINE
8
0
6
CONTINUOUS
10
-22.487000
20
-72.899250
30
0.0
11
-21.037000
21
-74.009150
31
0.0
0
LINE
8
0
6
CONTINUOUS
10
-23.435000
20
-71.791920
30
0.0
11
-22.487000
21
-72.899250
31
0.0
0
LINE
8
0
6
CONTINUOUS
10
-24.204000
20
-70.564340
30
0.0
11
-23.435000
21
-71.791920
31
0.0
0
LINE
8
0
6
CONTINUOUS
10
-24.776000
20
-69.020700
30
0.0
11
-24.204000
21
-70.564340
31
0.0
0
LINE
8
0
6
CONTINUOUS
10
-24.401000
20
-68.911210
30
0.0
11
-24.519000
21
-67.256400
31
0.0
0
LINE
8
0
6
CONTINUOUS
10
-25.000000
20
-67.207790
30
0.0
11
-24.776000
21
-69.020700
31
0.0
0
LINE
8
0
6
CONTINUOUS
10
-19.552000
20
-74.624840
30
0.0
11
-17.978000
21
-75.012362
31
0.0
0
LINE
8
0
6
CONTINUOUS
10
-17.978000
20
-75.012362
30
0.0
11
-15.044000
21
-75.222569
31
0.0
0
LINE
8
0
6
CONTINUOUS
10
-15.008000
20
-74.974960
30
0.0
11
-17.889000
21
-74.694209
31
0.0
0
LINE
8
0
6
CONTINUOUS
10
-15.044000
20
-75.222569
30
0.0
11
-11.287000
21
-75.327882
31
0.0
0
LINE
8
0
6
CONTINUOUS
10
-11.233000
20
-75.080279
30
0.0
11
-15.008000
21
-74.974960
31
0.0
0
LINE
8
0
6
CONTINUOUS
10
-11.287000
20
-75.327882
30
0.0
11
-6.392000
21
-75.488820
31
0.0
0
LINE
8
0
6
CONTINUOUS
10
-6.192000
20
-75.215648
30
0.0
11
-11.233000
21
-75.080279
31
0.0
0
LINE
8
0
6
CONTINUOUS
10
-6.392000
20
-75.488820
30
0.0
11
-3.293000
21
-75.571111
31
0.0
0
LINE
8
0
6
CONTINUOUS
10
-3.089000
20
-75.315976
30
0.0
11
-6.192000
21
-75.215648
31
0.0
0
LINE
8
0
6
CONTINUOUS
10
-3.293000
20
-75.571111
30
0.0
11
0.000000
21
-75.650000
31
0.0
0
LINE
8
0
6
CONTINUOUS
10
0.000000
20
-75.373871
30
0.0
11
-3.089000
21
-75.315976
31
0.0
0
LINE
8
0
6
CONTINUOUS
10
-25.000000
20
-25.349800
30
0.0
11
-25.000000
21
-33.505500
31
0.0
0
LINE
8
0
6
CONTINUOUS
10
-25.000000
20
-15.141000
30
0.0
11
-25.000000
21
-25.349800
31
0.0
0
LINE
8
0
6
CONTINUOUS
10
-25.000000
20
-5.274300
30
0.0
11
-25.000000
21
-15.141000
31
0.0
0
LINE
8
0
6
CONTINUOUS
10
-25.000000
20
3.793900
30
0.0
11
-25.000000
21
-5.274300
31
0.0
0
LINE
8
0
6
CONTINUOUS
10
-25.000000
20
-53.238800
30
0.0
11
-25.000000
21
-67.207790
31
0.0
0
LINE
8
0
6
CONTINUOUS
10
-25.000000
20
-43.657300
30
0.0
11
-25.000000
21
-53.238800
31
0.0
0
LINE
8
0
6
CONTINUOUS
10
-25.000000
20
-33.505500
30
0.0
11
-25.000000
21
-43.657300
31
0.0
0
LINE
8
0
6
CONTINUOUS
10
-24.519000
20
-43.828400
30
0.0
11
-24.519000
21
-33.705200
31
0.0
0
LINE
8
0
6
CONTINUOUS
10
-25.000000
20
38.259000
30
0.0
11
-25.000000
21
27.035000
31
0.0
0
LINE
8
0
6
CONTINUOUS
10
-25.000000
20
13.363900
30
0.0
11
-25.000000
21
3.793900
31
0.0
0
LINE
8
0
6
CONTINUOUS
10
-25.000000
20
22.318000
30
0.0
11
-25.000000
21
13.363900
31
0.0
0
LINE
8
0
6
CONTINUOUS
10
-25.000000
20
27.035000
30
0.0
11
-25.000000
21
22.318000
31
0.0
0
LINE
8
0
6
CONTINUOUS
10
-25.000000
20
61.053000
30
0.0
11
-25.000000
21
38.259000
31
0.0
0
LINE
8
0
6
CONTINUOUS
10
-24.519000
20
61.053000
30
0.0
11
-24.519000
21
38.259000
31
0.0
0
LINE
8
0
6
CONTINUOUS
10
-6.188000
20
73.397000
30
0.0
11
-9.019000
21
72.811000
31
0.0
0
LINE
8
0
6
CONTINUOUS
10
-3.074000
20
73.688000
30
0.0
11
-6.188000
21
73.397000
31
0.0
0
LINE
8
0
6
CONTINUOUS
10
0.000000
20
73.875000
30
0.0
11
-3.074000
21
73.688000
31
0.0
0
LINE
8
0
6
CONTINUOUS
10
-17.600000
20
70.414000
30
0.0
11
-19.800000
21
69.138000
31
0.0
0
LINE
8
0
6
CONTINUOUS
10
-19.800000
20
69.138000
30
0.0
11
-21.700000
21
67.648000
31
0.0
0
LINE
8
0
6
CONTINUOUS
10
-21.700000
20
67.648000
30
0.0
11
-23.000000
21
66.106000
31
0.0
0
LINE
8
0
6
CONTINUOUS
10
-23.000000
20
66.106000
30
0.0
11
-24.100000
21
64.457000
31
0.0
0
LINE
8
0
6
CONTINUOUS
10
-24.100000
20
64.457000
30
0.0
11
-24.700000
21
62.808000
31
0.0
0
LINE
8
0
6
CONTINUOUS
10
-24.700000
20
62.808000
30
0.0
11
-25.000000
21
61.053000
31
0.0
0
LINE
8
0
6
CONTINUOUS
10
-15.200000
20
71.584000
30
0.0
11
-17.600000
21
70.414000
31
0.0
0
LINE
8
0
6
CONTINUOUS
10
-12.400000
20
72.595000
30
0.0
11
-15.200000
21
71.584000
31
0.0
0
LINE
8
0
6
CONTINUOUS
10
-9.500000
20
73.286000
30
0.0
11
-12.400000
21
72.595000
31
0.0
0
LINE
8
0
6
CONTINUOUS
10
-9.019000
20
72.811000
30
0.0
11
-6.188000
21
73.397000
31
0.0
0
LINE
8
0
6
CONTINUOUS
10
-6.400000
20
73.871000
30
0.0
11
-9.500000
21
73.286000
31
0.0
0
LINE
8
0
6
CONTINUOUS
10
-6.188000
20
73.397000
30
0.0
11
-3.074000
21
73.688000
31
0.0
0
LINE
8
0
6
CONTINUOUS
10
-3.300000
20
74.190000
30
0.0
11
-6.400000
21
73.871000
31
0.0
0
LINE
8
0
6
CONTINUOUS
10
-3.074000
20
73.688000
30
0.0
11
0.000000
21
73.875000
31
0.0
0
LINE
8
0
6
CONTINUOUS
10
0.000000
20
74.350000
30
0.0
11
-3.300000
21
74.190000
31
0.0
0
LINE
8
0
6
CONTINUOUS
10
-142.665800
20
36.150000
30
0.0
11
-138.479300
21
36.150000
31
0.0
0
LINE
8
0
6
CONTINUOUS
10
-138.479300
20
36.150000
30
0.0
11
-133.238700
21
36.150000
31
0.0
0
LINE
8
0
6
CONTINUOUS
10
-133.238700
20
36.150000
30
0.0
11
-128.173800
21
36.150000
31
0.0
0
LINE
8
0
6
CONTINUOUS
10
-128.173800
20
36.150000
30
0.0
11
-123.518800
21
36.150000
31
0.0
0
LINE
8
0
6
CONTINUOUS
10
-161.994300
20
37.391000
30
0.0
11
-161.426500
21
37.082000
31
0.0
0
LINE
8
0
6
CONTINUOUS
10
-162.552700
20
37.836000
30
0.0
11
-161.994300
21
37.391000
31
0.0
0
LINE
8
0
6
CONTINUOUS
10
-163.373000
20
39.372000
30
0.0
11
-163.083700
21
38.560000
31
0.0
0
LINE
8
0
6
CONTINUOUS
10
-163.083700
20
38.560000
30
0.0
11
-163.373000
21
39.372000
31
0.0
0
LINE
8
0
6
CONTINUOUS
10
-162.552700
20
37.836000
30
0.0
11
-163.083700
21
38.560000
31
0.0
0
LINE
8
0
6
CONTINUOUS
10
-161.994300
20
37.391000
30
0.0
11
-162.552700
21
37.836000
31
0.0
0
LINE
8
0
6
CONTINUOUS
10
-161.426500
20
37.082000
30
0.0
11
-161.994300
21
37.391000
31
0.0
0
LINE
8
0
6
CONTINUOUS
10
-163.953500
20
41.546000
30
0.0
11
-163.809400
21
39.990000
31
0.0
0
LINE
8
0
6
CONTINUOUS
10
-164.007500
20
43.584000
30
0.0
11
-163.953500
21
41.546000
31
0.0
0
LINE
8
0
6
CONTINUOUS
10
-164.077000
20
46.306000
30
0.0
11
-164.007500
21
43.584000
31
0.0
0
LINE
8
0
6
CONTINUOUS
10
-164.128500
20
47.982000
30
0.0
11
-164.077000
21
46.306000
31
0.0
0
LINE
8
0
6
CONTINUOUS
10
-164.158300
20
49.650000
30
0.0
11
-164.128500
21
47.982000
31
0.0
0
LINE
8
0
6
CONTINUOUS
10
-163.773800
20
39.092000
30
0.0
11
-163.457700
21
38.290000
31
0.0
0
LINE
8
0
6
CONTINUOUS
10
-163.457700
20
38.290000
30
0.0
11
-162.888000
21
37.507000
31
0.0
0
LINE
8
0
6
CONTINUOUS
10
-162.888000
20
37.507000
30
0.0
11
-162.319500
21
36.995000
31
0.0
0
LINE
8
0
6
CONTINUOUS
10
-162.319500
20
36.995000
30
0.0
11
-161.689400
21
36.580000
31
0.0
0
LINE
8
0
6
CONTINUOUS
10
-161.689400
20
36.580000
30
0.0
11
-160.897000
21
36.271000
31
0.0
0
LINE
8
0
6
CONTINUOUS
10
-160.897000
20
36.271000
30
0.0
11
-159.966300
21
36.150000
31
0.0
0
LINE
8
0
6
CONTINUOUS
10
-159.991300
20
36.410000
30
0.0
11
-160.840800
21
36.474000
31
0.0
0
LINE
8
0
6
CONTINUOUS
10
-163.972700
20
39.942000
30
0.0
11
-163.773800
21
39.092000
31
0.0
0
LINE
8
0
6
CONTINUOUS
10
-163.809400
20
39.990000
30
0.0
11
-163.953500
21
41.546000
31
0.0
0
LINE
8
0
6
CONTINUOUS
10
-164.080600
20
41.526000
30
0.0
11
-163.972700
21
39.942000
31
0.0
0
LINE
8
0
6
CONTINUOUS
10
-163.953500
20
41.546000
30
0.0
11
-164.007500
21
43.584000
31
0.0
0
LINE
8
0
6
CONTINUOUS
10
-164.134600
20
43.555000
30
0.0
11
-164.080600
21
41.526000
31
0.0
0
LINE
8
0
6
CONTINUOUS
10
-164.007500
20
43.584000
30
0.0
11
-164.077000
21
46.306000
31
0.0
0
LINE
8
0
6
CONTINUOUS
10
-164.217300
20
46.198000
30
0.0
11
-164.134600
21
43.555000
31
0.0
0
LINE
8
0
6
CONTINUOUS
10
-164.077000
20
46.306000
30
0.0
11
-164.128500
21
47.982000
31
0.0
0
LINE
8
0
6
CONTINUOUS
10
-164.259500
20
47.872000
30
0.0
11
-164.217300
21
46.198000
31
0.0
0
LINE
8
0
6
CONTINUOUS
10
-164.128500
20
47.982000
30
0.0
11
-164.158300
21
49.650000
31
0.0
0
LINE
8
0
6
CONTINUOUS
10
-164.300000
20
49.650000
30
0.0
11
-164.259500
21
47.872000
31
0.0
0
LINE
8
0
6
CONTINUOUS
10
-159.966300
20
36.150000
30
0.0
11
-152.795600
21
36.150000
31
0.0
0
LINE
8
0
6
CONTINUOUS
10
-152.795600
20
36.150000
30
0.0
11
-147.877100
21
36.150000
31
0.0
0
LINE
8
0
6
CONTINUOUS
10
-147.877100
20
36.150000
30
0.0
11
-142.665800
21
36.150000
31
0.0
0
LINE
8
0
6
CONTINUOUS
10
-142.768300
20
36.410000
30
0.0
11
-147.964900
21
36.410000
31
0.0
0
LINE
8
0
6
CONTINUOUS
10
-87.789300
20
46.308000
30
0.0
11
-87.640100
21
47.990000
31
0.0
0
LINE
8
0
6
CONTINUOUS
10
-87.640100
20
47.990000
30
0.0
11
-87.543800
21
49.650000
31
0.0
0
LINE
8
0
6
CONTINUOUS
10
-89.975700
20
38.958000
30
0.0
11
-89.320400
21
40.146000
31
0.0
0
LINE
8
0
6
CONTINUOUS
10
-90.740100
20
37.932000
30
0.0
11
-89.975700
21
38.958000
31
0.0
0
LINE
8
0
6
CONTINUOUS
10
-91.531900
20
37.230000
30
0.0
11
-90.740100
21
37.932000
31
0.0
0
LINE
8
0
6
CONTINUOUS
10
-92.378300
20
36.636000
30
0.0
11
-91.531900
21
37.230000
31
0.0
0
LINE
8
0
6
CONTINUOUS
10
-93.224700
20
36.312000
30
0.0
11
-92.378300
21
36.636000
31
0.0
0
LINE
8
0
6
CONTINUOUS
10
-94.125700
20
36.150000
30
0.0
11
-93.224700
21
36.312000
31
0.0
0
LINE
8
0
6
CONTINUOUS
10
-89.320400
20
40.146000
30
0.0
11
-88.719700
21
41.442000
31
0.0
0
LINE
8
0
6
CONTINUOUS
10
-88.719700
20
41.442000
30
0.0
11
-88.201000
21
42.954000
31
0.0
0
LINE
8
0
6
CONTINUOUS
10
-88.201000
20
42.954000
30
0.0
11
-87.846100
21
44.520000
31
0.0
0
LINE
8
0
6
CONTINUOUS
10
-87.846100
20
44.520000
30
0.0
11
-87.545700
21
46.194000
31
0.0
0
LINE
8
0
6
CONTINUOUS
10
-87.545700
20
46.194000
30
0.0
11
-87.381900
21
47.868000
31
0.0
0
LINE
8
0
6
CONTINUOUS
10
-87.640100
20
47.990000
30
0.0
11
-87.789300
21
46.308000
31
0.0
0
LINE
8
0
6
CONTINUOUS
10
-87.381900
20
47.868000
30
0.0
11
-87.300000
21
49.650000
31
0.0
0
LINE
8
0
6
CONTINUOUS
10
-87.543800
20
49.650000
30
0.0
11
-87.640100
21
47.990000
31
0.0
0
LINE
8
0
6
CONTINUOUS
10
-105.826800
20
36.150000
30
0.0
11
-94.125700
21
36.150000
31
0.0
0
LINE
8
0
6
CONTINUOUS
10
-105.826800
20
36.410000
30
0.0
11
-94.125700
21
36.410000
31
0.0
0
LINE
8
0
6
CONTINUOUS
10
-123.518800
20
36.150000
30
0.0
11
-118.606200
21
36.150000
31
0.0
0
LINE
8
0
6
CONTINUOUS
10
-118.606200
20
36.150000
30
0.0
11
-114.009700
21
36.150000
31
0.0
0
LINE
8
0
6
CONTINUOUS
10
-114.009700
20
36.150000
30
0.0
11
-111.588600
21
36.150000
31
0.0
0
LINE
8
0
6
CONTINUOUS
10
-111.588600
20
36.150000
30
0.0
11
-105.826800
21
36.150000
31
0.0
0
LINE
8
0
6
CONTINUOUS
10
-161.994300
20
61.909000
30
0.0
11
-162.552700
21
61.464000
31
0.0
0
LINE
8
0
6
CONTINUOUS
10
-162.552700
20
61.464000
30
0.0
11
-163.083700
21
60.740000
31
0.0
0
LINE
8
0
6
CONTINUOUS
10
-163.083700
20
60.740000
30
0.0
11
-163.373000
21
59.928000
31
0.0
0
LINE
8
0
6
CONTINUOUS
10
-163.373000
20
59.928000
30
0.0
11
-163.083700
21
60.740000
31
0.0
0
LINE
8
0
6
CONTINUOUS
10
-163.083700
20
60.740000
30
0.0
11
-162.552700
21
61.464000
31
0.0
0
LINE
8
0
6
CONTINUOUS
10
-162.552700
20
61.464000
30
0.0
11
-161.994300
21
61.909000
31
0.0
0
LINE
8
0
6
CONTINUOUS
10
-161.994300
20
61.909000
30
0.0
11
-161.426500
21
62.218000
31
0.0
0
LINE
8
0
6
CONTINUOUS
10
-163.809400
20
59.310000
30
0.0
11
-163.953500
21
57.754000
31
0.0
0
LINE
8
0
6
CONTINUOUS
10
-163.953500
20
57.754000
30
0.0
11
-164.007500
21
55.716000
31
0.0
0
LINE
8
0
6
CONTINUOUS
10
-164.007500
20
55.716000
30
0.0
11
-164.077000
21
52.994000
31
0.0
0
LINE
8
0
6
CONTINUOUS
10
-164.077000
20
52.994000
30
0.0
11
-164.128500
21
51.318000
31
0.0
0
LINE
8
0
6
CONTINUOUS
10
-164.128500
20
51.318000
30
0.0
11
-164.158300
21
49.650000
31
0.0
0
LINE
8
0
6
CONTINUOUS
10
-163.457700
20
61.010000
30
0.0
11
-163.773800
21
60.208000
31
0.0
0
LINE
8
0
6
CONTINUOUS
10
-162.888000
20
61.793000
30
0.0
11
-163.457700
21
61.010000
31
0.0
0
LINE
8
0
6
CONTINUOUS
10
-162.319500
20
62.305000
30
0.0
11
-162.888000
21
61.793000
31
0.0
0
LINE
8
0
6
CONTINUOUS
10
-161.689400
20
62.720000
30
0.0
11
-162.319500
21
62.305000
31
0.0
0
LINE
8
0
6
CONTINUOUS
10
-160.897000
20
63.029000
30
0.0
11
-161.689400
21
62.720000
31
0.0
0
LINE
8
0
6
CONTINUOUS
10
-160.840800
20
62.826000
30
0.0
11
-159.991300
21
62.890000
31
0.0
0
LINE
8
0
6
CONTINUOUS
10
-159.966300
20
63.150000
30
0.0
11
-160.897000
21
63.029000
31
0.0
0
LINE
8
0
6
CONTINUOUS
10
-163.773800
20
60.208000
30
0.0
11
-163.972700
21
59.358000
31
0.0
0
LINE
8
0
6
CONTINUOUS
10
-163.972700
20
59.358000
30
0.0
11
-164.080600
21
57.774000
31
0.0
0
LINE
8
0
6
CONTINUOUS
10
-163.953500
20
57.754000
30
0.0
11
-163.809400
21
59.310000
31
0.0
0
LINE
8
0
6
CONTINUOUS
10
-164.080600
20
57.774000
30
0.0
11
-164.134600
21
55.745000
31
0.0
0
LINE
8
0
6
CONTINUOUS
10
-164.007500
20
55.716000
30
0.0
11
-163.953500
21
57.754000
31
0.0
0
LINE
8
0
6
CONTINUOUS
10
-164.134600
20
55.745000
30
0.0
11
-164.217300
21
53.102000
31
0.0
0
LINE
8
0
6
CONTINUOUS
10
-164.077000
20
52.994000
30
0.0
11
-164.007500
21
55.716000
31
0.0
0
LINE
8
0
6
CONTINUOUS
10
-164.217300
20
53.102000
30
0.0
11
-164.259500
21
51.428000
31
0.0
0
LINE
8
0
6
CONTINUOUS
10
-164.128500
20
51.318000
30
0.0
11
-164.077000
21
52.994000
31
0.0
0
LINE
8
0
6
CONTINUOUS
10
-164.259500
20
51.428000
30
0.0
11
-164.300000
21
49.650000
31
0.0
0
LINE
8
0
6
CONTINUOUS
10
-164.158300
20
49.650000
30
0.0
11
-164.128500
21
51.318000
31
0.0
0
LINE
8
0
6
CONTINUOUS
10
-138.479300
20
63.150000
30
0.0
11
-142.665800
21
63.150000
31
0.0
0
LINE
8
0
6
CONTINUOUS
10
-133.238700
20
63.150000
30
0.0
11
-138.479300
21
63.150000
31
0.0
0
LINE
8
0
6
CONTINUOUS
10
-128.173800
20
63.150000
30
0.0
11
-133.238700
21
63.150000
31
0.0
0
LINE
8
0
6
CONTINUOUS
10
-123.518800
20
63.150000
30
0.0
11
-128.173800
21
63.150000
31
0.0
0
LINE
8
0
6
CONTINUOUS
10
-152.795600
20
63.150000
30
0.0
11
-159.966300
21
63.150000
31
0.0
0
LINE
8
0
6
CONTINUOUS
10
-147.877100
20
63.150000
30
0.0
11
-152.795600
21
63.150000
31
0.0
0
LINE
8
0
6
CONTINUOUS
10
-142.665800
20
63.150000
30
0.0
11
-147.877100
21
63.150000
31
0.0
0
LINE
8
0
6
CONTINUOUS
10
-147.964900
20
62.890000
30
0.0
11
-142.768300
21
62.890000
31
0.0
0
LINE
8
0
6
CONTINUOUS
10
-105.826800
20
63.150000
30
0.0
11
-111.588600
21
63.150000
31
0.0
0
LINE
8
0
6
CONTINUOUS
10
-118.606200
20
63.150000
30
0.0
11
-123.518800
21
63.150000
31
0.0
0
LINE
8
0
6
CONTINUOUS
10
-114.009700
20
63.150000
30
0.0
11
-118.606200
21
63.150000
31
0.0
0
LINE
8
0
6
CONTINUOUS
10
-111.588600
20
63.150000
30
0.0
11
-114.009700
21
63.150000
31
0.0
0
LINE
8
0
6
CONTINUOUS
10
-94.125700
20
63.150000
30
0.0
11
-105.826800
21
63.150000
31
0.0
0
LINE
8
0
6
CONTINUOUS
10
-94.125700
20
62.890000
30
0.0
11
-105.826800
21
62.890000
31
0.0
0
LINE
8
0
6
CONTINUOUS
10
-87.640100
20
51.310000
30
0.0
11
-87.789300
21
52.992000
31
0.0
0
LINE
8
0
6
CONTINUOUS
10
-87.543800
20
49.650000
30
0.0
11
-87.640100
21
51.310000
31
0.0
0
LINE
8
0
6
CONTINUOUS
10
-89.320400
20
59.154000
30
0.0
11
-89.975700
21
60.342000
31
0.0
0
LINE
8
0
6
CONTINUOUS
10
-89.975700
20
60.342000
30
0.0
11
-90.740100
21
61.368000
31
0.0
0
LINE
8
0
6
CONTINUOUS
10
-90.740100
20
61.368000
30
0.0
11
-91.531900
21
62.070000
31
0.0
0
LINE
8
0
6
CONTINUOUS
10
-91.531900
20
62.070000
30
0.0
11
-92.378300
21
62.664000
31
0.0
0
LINE
8
0
6
CONTINUOUS
10
-92.378300
20
62.664000
30
0.0
11
-93.224700
21
62.988000
31
0.0
0
LINE
8
0
6
CONTINUOUS
10
-93.224700
20
62.988000
30
0.0
11
-94.125700
21
63.150000
31
0.0
0
LINE
8
0
6
CONTINUOUS
10
-88.719700
20
57.858000
30
0.0
11
-89.320400
21
59.154000
31
0.0
0
LINE
8
0
6
CONTINUOUS
10
-88.201000
20
56.346000
30
0.0
11
-88.719700
21
57.858000
31
0.0
0
LINE
8
0
6
CONTINUOUS
10
-87.846100
20
54.780000
30
0.0
11
-88.201000
21
56.346000
31
0.0
0
LINE
8
0
6
CONTINUOUS
10
-87.545700
20
53.106000
30
0.0
11
-87.846100
21
54.780000
31
0.0
0
LINE
8
0
6
CONTINUOUS
10
-87.789300
20
52.992000
30
0.0
11
-87.640100
21
51.310000
31
0.0
0
LINE
8
0
6
CONTINUOUS
10
-87.381900
20
51.432000
30
0.0
11
-87.545700
21
53.106000
31
0.0
0
LINE
8
0
6
CONTINUOUS
10
-87.640100
20
51.310000
30
0.0
11
-87.543800
21
49.650000
31
0.0
0
LINE
8
0
6
CONTINUOUS
10
-87.300000
20
49.650000
30
0.0
11
-87.381900
21
51.432000
31
0.0
0
LINE
8
0
6
CONTINUOUS
10
74.000000
20
49.650000
30
0.0
11
74.936000
21
56.306000
31
0.0
0
LINE
8
0
6
CONTINUOUS
10
74.936000
20
56.306000
30
0.0
11
77.432000
21
62.546000
31
0.0
0
LINE
8
0
6
CONTINUOUS
10
77.432000
20
62.546000
30
0.0
11
81.592000
21
68.058000
31
0.0
0
LINE
8
0
6
CONTINUOUS
10
81.592000
20
68.058000
30
0.0
11
87.104000
21
72.218000
31
0.0
0
LINE
8
0
6
CONTINUOUS
10
87.104000
20
72.218000
30
0.0
11
93.344000
21
74.714000
31
0.0
0
LINE
8
0
6
CONTINUOUS
10
93.344000
20
74.714000
30
0.0
11
100.000000
21
75.650000
31
0.0
0
LINE
8
0
6
CONTINUOUS
10
74.936000
20
56.306000
30
0.0
11
74.000000
21
49.650000
31
0.0
0
LINE
8
0
6
CONTINUOUS
10
77.432000
20
62.546000
30
0.0
11
74.936000
21
56.306000
31
0.0
0
LINE
8
0
6
CONTINUOUS
10
81.592000
20
68.058000
30
0.0
11
77.432000
21
62.546000
31
0.0
0
LINE
8
0
6
CONTINUOUS
10
87.104000
20
72.218000
30
0.0
11
81.592000
21
68.058000
31
0.0
0
LINE
8
0
6
CONTINUOUS
10
93.344000
20
74.714000
30
0.0
11
87.104000
21
72.218000
31
0.0
0
LINE
8
0
6
CONTINUOUS
10
100.000000
20
75.650000
30
0.0
11
93.344000
21
74.714000
31
0.0
0
LINE
8
0
6
CONTINUOUS
10
74.936000
20
42.994000
30
0.0
11
74.000000
21
49.650000
31
0.0
0
LINE
8
0
6
CONTINUOUS
10
77.432000
20
36.754000
30
0.0
11
74.936000
21
42.994000
31
0.0
0
LINE
8
0
6
CONTINUOUS
10
81.592000
20
31.242000
30
0.0
11
77.432000
21
36.754000
31
0.0
0
LINE
8
0
6
CONTINUOUS
10
87.104000
20
27.082000
30
0.0
11
81.592000
21
31.242000
31
0.0
0
LINE
8
0
6
CONTINUOUS
10
93.344000
20
24.586000
30
0.0
11
87.104000
21
27.082000
31
0.0
0
LINE
8
0
6
CONTINUOUS
10
100.000000
20
23.650000
30
0.0
11
93.344000
21
24.586000
31
0.0
0
LINE
8
0
6
CONTINUOUS
10
74.000000
20
49.650000
30
0.0
11
74.936000
21
42.994000
31
0.0
0
LINE
8
0
6
CONTINUOUS
10
74.936000
20
42.994000
30
0.0
11
77.432000
21
36.754000
31
0.0
0
LINE
8
0
6
CONTINUOUS
10
77.432000
20
36.754000
30
0.0
11
81.592000
21
31.242000
31
0.0
0
LINE
8
0
6
CONTINUOUS
10
81.592000
20
31.242000
30
0.0
11
87.104000
21
27.082000
31
0.0
0
LINE
8
0
6
CONTINUOUS
10
87.104000
20
27.082000
30
0.0
11
93.344000
21
24.586000
31
0.0
0
LINE
8
0
6
CONTINUOUS
10
93.344000
20
24.586000
30
0.0
11
100.000000
21
23.650000
31
0.0
0
LINE
8
0
6
CONTINUOUS
10
122.112151
20
36.150000
30
0.0
11
118.408000
21
31.242000
31
0.0
0
LINE
8
0
6
CONTINUOUS
10
118.408000
20
31.242000
30
0.0
11
112.896000
21
27.082000
31
0.0
0
LINE
8
0
6
CONTINUOUS
10
112.896000
20
27.082000
30
0.0
11
106.656000
21
24.586000
31
0.0
0
LINE
8
0
6
CONTINUOUS
10
106.656000
20
24.586000
30
0.0
11
100.000000
21
23.650000
31
0.0
0
LINE
8
0
6
CONTINUOUS
10
118.408000
20
31.242000
30
0.0
11
122.112151
21
36.150000
31
0.0
0
LINE
8
0
6
CONTINUOUS
10
112.896000
20
27.082000
30
0.0
11
118.408000
21
31.242000
31
0.0
0
LINE
8
0
6
CONTINUOUS
10
106.656000
20
24.586000
30
0.0
11
112.896000
21
27.082000
31
0.0
0
LINE
8
0
6
CONTINUOUS
10
100.000000
20
23.650000
30
0.0
11
106.656000
21
24.586000
31
0.0
0
LINE
8
0
6
CONTINUOUS
10
118.408000
20
68.058000
30
0.0
11
122.112151
21
63.150000
31
0.0
0
LINE
8
0
6
CONTINUOUS
10
112.896000
20
72.218000
30
0.0
11
118.408000
21
68.058000
31
0.0
0
LINE
8
0
6
CONTINUOUS
10
106.656000
20
74.714000
30
0.0
11
112.896000
21
72.218000
31
0.0
0
LINE
8
0
6
CONTINUOUS
10
100.000000
20
75.650000
30
0.0
11
106.656000
21
74.714000
31
0.0
0
LINE
8
0
6
CONTINUOUS
10
122.112151
20
63.150000
30
0.0
11
118.408000
21
68.058000
31
0.0
0
LINE
8
0
6
CONTINUOUS
10
118.408000
20
68.058000
30
0.0
11
112.896000
21
72.218000
31
0.0
0
LINE
8
0
6
CONTINUOUS
10
112.896000
20
72.218000
30
0.0
11
106.656000
21
74.714000
31
0.0
0
LINE
8
0
6
CONTINUOUS
10
106.656000
20
74.714000
30
0.0
11
100.000000
21
75.650000
31
0.0
0
LINE
8
0
6
CONTINUOUS
10
-74.000000
20
49.650000
30
0.0
11
-74.936000
21
56.306000
31
0.0
0
LINE
8
0
6
CONTINUOUS
10
-74.936000
20
56.306000
30
0.0
11
-77.432000
21
62.546000
31
0.0
0
LINE
8
0
6
CONTINUOUS
10
-77.432000
20
62.546000
30
0.0
11
-81.592000
21
68.058000
31
0.0
0
LINE
8
0
6
CONTINUOUS
10
-81.592000
20
68.058000
30
0.0
11
-87.104000
21
72.218000
31
0.0
0
LINE
8
0
6
CONTINUOUS
10
-87.104000
20
72.218000
30
0.0
11
-93.344000
21
74.714000
31
0.0
0
LINE
8
0
6
CONTINUOUS
10
-93.344000
20
74.714000
30
0.0
11
-100.000000
21
75.650000
31
0.0
0
LINE
8
0
6
CONTINUOUS
10
-74.936000
20
56.306000
30
0.0
11
-74.000000
21
49.650000
31
0.0
0
LINE
8
0
6
CONTINUOUS
10
-77.432000
20
62.546000
30
0.0
11
-74.936000
21
56.306000
31
0.0
0
LINE
8
0
6
CONTINUOUS
10
-81.592000
20
68.058000
30
0.0
11
-77.432000
21
62.546000
31
0.0
0
LINE
8
0
6
CONTINUOUS
10
-87.104000
20
72.218000
30
0.0
11
-81.592000
21
68.058000
31
0.0
0
LINE
8
0
6
CONTINUOUS
10
-93.344000
20
74.714000
30
0.0
11
-87.104000
21
72.218000
31
0.0
0
LINE
8
0
6
CONTINUOUS
10
-100.000000
20
75.650000
30
0.0
11
-93.344000
21
74.714000
31
0.0
0
LINE
8
0
6
CONTINUOUS
10
-74.936000
20
42.994000
30
0.0
11
-74.000000
21
49.650000
31
0.0
0
LINE
8
0
6
CONTINUOUS
10
-77.432000
20
36.754000
30
0.0
11
-74.936000
21
42.994000
31
0.0
0
LINE
8
0
6
CONTINUOUS
10
-81.592000
20
31.242000
30
0.0
11
-77.432000
21
36.754000
31
0.0
0
LINE
8
0
6
CONTINUOUS
10
-87.104000
20
27.082000
30
0.0
11
-81.592000
21
31.242000
31
0.0
0
LINE
8
0
6
CONTINUOUS
10
-93.344000
20
24.586000
30
0.0
11
-87.104000
21
27.082000
31
0.0
0
LINE
8
0
6
CONTINUOUS
10
-100.000000
20
23.650000
30
0.0
11
-93.344000
21
24.586000
31
0.0
0
LINE
8
0
6
CONTINUOUS
10
-74.000000
20
49.650000
30
0.0
11
-74.936000
21
42.994000
31
0.0
0
LINE
8
0
6
CONTINUOUS
10
-74.936000
20
42.994000
30
0.0
11
-77.432000
21
36.754000
31
0.0
0
LINE
8
0
6
CONTINUOUS
10
-77.432000
20
36.754000
30
0.0
11
-81.592000
21
31.242000
31
0.0
0
LINE
8
0
6
CONTINUOUS
10
-81.592000
20
31.242000
30
0.0
11
-87.104000
21
27.082000
31
0.0
0
LINE
8
0
6
CONTINUOUS
10
-87.104000
20
27.082000
30
0.0
11
-93.344000
21
24.586000
31
0.0
0
LINE
8
0
6
CONTINUOUS
10
-93.344000
20
24.586000
30
0.0
11
-100.000000
21
23.650000
31
0.0
0
LINE
8
0
6
CONTINUOUS
10
-122.112151
20
36.150000
30
0.0
11
-118.408000
21
31.242000
31
0.0
0
LINE
8
0
6
CONTINUOUS
10
-118.408000
20
31.242000
30
0.0
11
-112.896000
21
27.082000
31
0.0
0
LINE
8
0
6
CONTINUOUS
10
-112.896000
20
27.082000
30
0.0
11
-106.656000
21
24.586000
31
0.0
0
LINE
8
0
6
CONTINUOUS
10
-106.656000
20
24.586000
30
0.0
11
-100.000000
21
23.650000
31
0.0
0
LINE
8
0
6
CONTINUOUS
10
-118.408000
20
31.242000
30
0.0
11
-122.112151
21
36.150000
31
0.0
0
LINE
8
0
6
CONTINUOUS
10
-112.896000
20
27.082000
30
0.0
11
-118.408000
21
31.242000
31
0.0
0
LINE
8
0
6
CONTINUOUS
10
-106.656000
20
24.586000
30
0.0
11
-112.896000
21
27.082000
31
0.0
0
LINE
8
0
6
CONTINUOUS
10
-100.000000
20
23.650000
30
0.0
11
-106.656000
21
24.586000
31
0.0
0
LINE
8
0
6
CONTINUOUS
10
-118.408000
20
68.058000
30
0.0
11
-122.112151
21
63.150000
31
0.0
0
LINE
8
0
6
CONTINUOUS
10
-112.896000
20
72.218000
30
0.0
11
-118.408000
21
68.058000
31
0.0
0
LINE
8
0
6
CONTINUOUS
10
-106.656000
20
74.714000
30
0.0
11
-112.896000
21
72.218000
31
0.0
0
LINE
8
0
6
CONTINUOUS
10
-100.000000
20
75.650000
30
0.0
11
-106.656000
21
74.714000
31
0.0
0
LINE
8
0
6
CONTINUOUS
10
-122.112151
20
63.150000
30
0.0
11
-118.408000
21
68.058000
31
0.0
0
LINE
8
0
6
CONTINUOUS
10
-118.408000
20
68.058000
30
0.0
11
-112.896000
21
72.218000
31
0.0
0
LINE
8
0
6
CONTINUOUS
10
-112.896000
20
72.218000
30
0.0
11
-106.656000
21
74.714000
31
0.0
0
LINE
8
0
6
CONTINUOUS
10
-106.656000
20
74.714000
30
0.0
11
-100.000000
21
75.650000
31
0.0
0
LINE
8
0
6
CONTINUOUS
10
26.000000
20
49.650000
30
0.0
11
25.064000
21
56.306000
31
0.0
0
LINE
8
0
6
CONTINUOUS
10
12.896000
20
72.218000
30
0.0
11
6.656000
21
74.714000
31
0.0
0
LINE
8
0
6
CONTINUOUS
10
6.656000
20
74.714000
30
0.0
11
0.000000
21
75.650000
31
0.0
0
LINE
8
0
6
CONTINUOUS
10
25.064000
20
56.306000
30
0.0
11
26.000000
21
49.650000
31
0.0
0
LINE
8
0
6
CONTINUOUS
10
6.656000
20
74.714000
30
0.0
11
12.896000
21
72.218000
31
0.0
0
LINE
8
0
6
CONTINUOUS
10
0.000000
20
75.650000
30
0.0
11
6.656000
21
74.714000
31
0.0
0
LINE
8
0
6
CONTINUOUS
10
25.064000
20
42.994000
30
0.0
11
26.000000
21
49.650000
31
0.0
0
LINE
8
0
6
CONTINUOUS
10
26.000000
20
49.650000
30
0.0
11
25.064000
21
42.994000
31
0.0
0
LINE
8
0
6
CONTINUOUS
10
-26.000000
20
49.650000
30
0.0
11
-25.064000
21
42.994000
31
0.0
0
LINE
8
0
6
CONTINUOUS
10
-25.064000
20
42.994000
30
0.0
11
-25.000000
21
42.834000
31
0.0
0
LINE
8
0
6
CONTINUOUS
10
-25.064000
20
42.994000
30
0.0
11
-26.000000
21
49.650000
31
0.0
0
LINE
8
0
6
CONTINUOUS
10
-25.000000
20
42.834000
30
0.0
11
-25.064000
21
42.994000
31
0.0
0
LINE
8
0
6
CONTINUOUS
10
-25.064000
20
56.306000
30
0.0
11
-26.000000
21
49.650000
31
0.0
0
LINE
8
0
6
CONTINUOUS
10
-25.000000
20
56.466000
30
0.0
11
-25.064000
21
56.306000
31
0.0
0
LINE
8
0
6
CONTINUOUS
10
-6.656000
20
74.714000
30
0.0
11
-12.896000
21
72.218000
31
0.0
0
LINE
8
0
6
CONTINUOUS
10
0.000000
20
75.650000
30
0.0
11
-6.656000
21
74.714000
31
0.0
0
LINE
8
0
6
CONTINUOUS
10
-26.000000
20
49.650000
30
0.0
11
-25.064000
21
56.306000
31
0.0
0
LINE
8
0
6
CONTINUOUS
10
-12.896000
20
72.218000
30
0.0
11
-6.656000
21
74.714000
31
0.0
0
LINE
8
0
6
CONTINUOUS
10
-6.656000
20
74.714000
30
0.0
11
0.000000
21
75.650000
31
0.0
0
ENDSEC
0
EOF
