999
Erzeugt mit innoplus bad 
0
SECTION
2
HEADER
9
$ACADVER
1
AC1009
9
$DWGCODEPAGE
3
ISO8859-1
0
ENDSEC
0
SECTION
2
TABLES
0
TABLE
2
LAYER
70
1
0
LAYER
2
0
70
0
62
7
6
CONTINUOUS
0
ENDTAB
0
ENDSEC
0
SECTION
2
ENTITIES
0
LINE
8
0
6
CONTINUOUS
10
37.552000
20
-42.058000
30
0.0
11
37.448000
21
-48.036200
31
0.0
0
LINE
8
0
6
CONTINUOUS
10
39.769000
20
-58.000000
30
0.0
11
40.884000
21
-58.000000
31
0.0
0
LINE
8
0
6
CONTINUOUS
10
38.833000
20
-58.000000
30
0.0
11
39.769000
21
-58.000000
31
0.0
0
LINE
8
0
6
CONTINUOUS
10
38.185000
20
-58.000000
30
0.0
11
38.833000
21
-58.000000
31
0.0
0
LINE
8
0
6
CONTINUOUS
10
40.884000
20
-58.000000
30
0.0
11
42.073000
21
-58.000000
31
0.0
0
LINE
8
0
6
CONTINUOUS
10
42.073000
20
-58.000000
30
0.0
11
43.469000
21
-58.000000
31
0.0
0
LINE
8
0
6
CONTINUOUS
10
40.884000
20
-58.000000
30
0.0
11
39.769000
21
-58.000000
31
0.0
0
LINE
8
0
6
CONTINUOUS
10
39.769000
20
-58.000000
30
0.0
11
38.833000
21
-58.000000
31
0.0
0
LINE
8
0
6
CONTINUOUS
10
38.833000
20
-58.000000
30
0.0
11
38.185000
21
-58.000000
31
0.0
0
LINE
8
0
6
CONTINUOUS
10
42.073000
20
-58.000000
30
0.0
11
40.884000
21
-58.000000
31
0.0
0
LINE
8
0
6
CONTINUOUS
10
43.469000
20
-58.000000
30
0.0
11
42.073000
21
-58.000000
31
0.0
0
LINE
8
0
6
CONTINUOUS
10
37.344000
20
-54.014490
30
0.0
11
37.189000
21
-58.000000
31
0.0
0
LINE
8
0
6
CONTINUOUS
10
37.448000
20
-48.036200
30
0.0
11
37.344000
21
-54.014490
31
0.0
0
LINE
8
0
6
CONTINUOUS
10
37.604000
20
-30.101400
30
0.0
11
37.604000
21
-36.079700
31
0.0
0
LINE
8
0
6
CONTINUOUS
10
37.604000
20
-36.079700
30
0.0
11
37.552000
21
-42.058000
31
0.0
0
LINE
8
0
6
CONTINUOUS
10
36.150000
20
-5.462300
30
0.0
11
36.150000
21
-5.845000
31
0.0
0
LINE
8
0
6
CONTINUOUS
10
36.150000
20
-5.055600
30
0.0
11
36.150000
21
-5.462300
31
0.0
0
LINE
8
0
6
CONTINUOUS
10
36.150000
20
-4.385900
30
0.0
11
36.150000
21
-4.696800
31
0.0
0
LINE
8
0
6
CONTINUOUS
10
36.150000
20
-4.146700
30
0.0
11
36.150000
21
-4.385900
31
0.0
0
LINE
8
0
6
CONTINUOUS
10
36.150000
20
-3.979300
30
0.0
11
36.150000
21
-4.146700
31
0.0
0
LINE
8
0
6
CONTINUOUS
10
36.150000
20
-3.764000
30
0.0
11
36.150000
21
-3.859700
31
0.0
0
LINE
8
0
6
CONTINUOUS
10
36.150000
20
-3.597800
30
0.0
11
36.150000
21
-3.668300
31
0.0
0
LINE
8
0
6
CONTINUOUS
10
38.290000
20
-6.996300
30
0.0
11
39.092000
21
-7.023100
31
0.0
0
LINE
8
0
6
CONTINUOUS
10
37.507000
20
-6.961700
30
0.0
11
38.290000
21
-6.996300
31
0.0
0
LINE
8
0
6
CONTINUOUS
10
36.995000
20
-6.906200
30
0.0
11
37.507000
21
-6.961700
31
0.0
0
LINE
8
0
6
CONTINUOUS
10
36.580000
20
-6.822000
30
0.0
11
36.995000
21
-6.906200
31
0.0
0
LINE
8
0
6
CONTINUOUS
10
36.271000
20
-6.719400
30
0.0
11
36.580000
21
-6.822000
31
0.0
0
LINE
8
0
6
CONTINUOUS
10
36.150000
20
-6.601500
30
0.0
11
36.271000
21
-6.719400
31
0.0
0
LINE
8
0
6
CONTINUOUS
10
39.092000
20
-7.023100
30
0.0
11
39.942000
21
-7.035700
31
0.0
0
LINE
8
0
6
CONTINUOUS
10
39.942000
20
-7.035700
30
0.0
11
41.526000
21
-7.052000
31
0.0
0
LINE
8
0
6
CONTINUOUS
10
41.526000
20
-7.052000
30
0.0
11
43.555000
21
-7.058500
31
0.0
0
LINE
8
0
6
CONTINUOUS
10
43.555000
20
-7.058500
30
0.0
11
46.198000
21
-7.067200
31
0.0
0
LINE
8
0
6
CONTINUOUS
10
46.198000
20
-7.067200
30
0.0
11
47.872000
21
-7.074200
31
0.0
0
LINE
8
0
6
CONTINUOUS
10
47.872000
20
-7.074200
30
0.0
11
49.650000
21
-7.081000
31
0.0
0
LINE
8
0
6
CONTINUOUS
10
36.150000
20
-5.605400
30
0.0
11
36.150000
21
-5.896000
31
0.0
0
LINE
8
0
6
CONTINUOUS
10
37.230000
20
-8.480400
30
0.0
11
37.230000
21
-8.567300
31
0.0
0
LINE
8
0
6
CONTINUOUS
10
37.230000
20
-8.480400
30
0.0
11
36.636000
21
-7.842800
31
0.0
0
LINE
8
0
6
CONTINUOUS
10
36.312000
20
-7.295500
30
0.0
11
36.636000
21
-7.865100
31
0.0
0
LINE
8
0
6
CONTINUOUS
10
36.150000
20
-6.601500
30
0.0
11
36.312000
21
-7.295500
31
0.0
0
LINE
8
0
6
CONTINUOUS
10
40.146000
20
-10.776800
30
0.0
11
38.958000
21
-10.126400
31
0.0
0
LINE
8
0
6
CONTINUOUS
10
38.958000
20
-10.126400
30
0.0
11
37.932000
21
-9.367500
31
0.0
0
LINE
8
0
6
CONTINUOUS
10
37.932000
20
-9.367500
30
0.0
11
37.230000
21
-8.581600
31
0.0
0
LINE
8
0
6
CONTINUOUS
10
36.636000
20
-7.701400
30
0.0
11
37.230000
21
-8.540700
31
0.0
0
LINE
8
0
6
CONTINUOUS
10
41.442000
20
-11.373000
30
0.0
11
40.146000
21
-10.776800
31
0.0
0
LINE
8
0
6
CONTINUOUS
10
42.954000
20
-11.888000
30
0.0
11
41.442000
21
-11.373000
31
0.0
0
LINE
8
0
6
CONTINUOUS
10
44.520000
20
-12.240300
30
0.0
11
42.954000
21
-11.888000
31
0.0
0
LINE
8
0
6
CONTINUOUS
10
46.194000
20
-12.538400
30
0.0
11
44.520000
21
-12.240300
31
0.0
0
LINE
8
0
6
CONTINUOUS
10
47.868000
20
-12.701000
30
0.0
11
46.194000
21
-12.538400
31
0.0
0
LINE
8
0
6
CONTINUOUS
10
49.650000
20
-12.782300
30
0.0
11
47.868000
21
-12.701000
31
0.0
0
LINE
8
0
6
CONTINUOUS
10
36.150000
20
-3.875200
30
0.0
11
36.150000
21
-4.045500
31
0.0
0
LINE
8
0
6
CONTINUOUS
10
37.230000
20
-8.261200
30
0.0
11
38.074000
21
-10.021800
31
0.0
0
LINE
8
0
6
CONTINUOUS
10
37.552000
20
-21.206600
30
0.0
11
37.604000
21
-30.101400
31
0.0
0
LINE
8
0
6
CONTINUOUS
10
37.448000
20
-14.425700
30
0.0
11
37.344000
21
-10.435800
31
0.0
0
LINE
8
0
6
CONTINUOUS
10
37.344000
20
-10.435800
30
0.0
11
37.189000
21
-8.313600
31
0.0
0
LINE
8
0
6
CONTINUOUS
10
60.208000
20
-7.023100
30
0.0
11
61.010000
21
-6.996300
31
0.0
0
LINE
8
0
6
CONTINUOUS
10
61.010000
20
-6.996300
30
0.0
11
61.793000
21
-6.961700
31
0.0
0
LINE
8
0
6
CONTINUOUS
10
62.305000
20
-6.906200
30
0.0
11
62.720000
21
-6.822000
31
0.0
0
LINE
8
0
6
CONTINUOUS
10
62.720000
20
-6.822000
30
0.0
11
63.029000
21
-6.719400
31
0.0
0
LINE
8
0
6
CONTINUOUS
10
59.358000
20
-7.035700
30
0.0
11
60.208000
21
-7.023100
31
0.0
0
LINE
8
0
6
CONTINUOUS
10
57.774000
20
-7.052000
30
0.0
11
59.358000
21
-7.035700
31
0.0
0
LINE
8
0
6
CONTINUOUS
10
55.745000
20
-7.058500
30
0.0
11
57.774000
21
-7.052000
31
0.0
0
LINE
8
0
6
CONTINUOUS
10
53.102000
20
-7.067200
30
0.0
11
55.745000
21
-7.058500
31
0.0
0
LINE
8
0
6
CONTINUOUS
10
51.428000
20
-7.074200
30
0.0
11
53.102000
21
-7.067200
31
0.0
0
LINE
8
0
6
CONTINUOUS
10
49.650000
20
-7.081000
30
0.0
11
51.428000
21
-7.074200
31
0.0
0
LINE
8
0
6
CONTINUOUS
10
63.150000
20
-6.601500
30
0.0
11
63.150000
21
-5.845000
31
0.0
0
LINE
8
0
6
CONTINUOUS
10
63.150000
20
-5.462300
30
0.0
11
63.150000
21
-5.055600
31
0.0
0
LINE
8
0
6
CONTINUOUS
10
63.150000
20
-5.055600
30
0.0
11
63.150000
21
-4.696800
31
0.0
0
LINE
8
0
6
CONTINUOUS
10
63.150000
20
-4.146700
30
0.0
11
63.150000
21
-3.979300
31
0.0
0
LINE
8
0
6
CONTINUOUS
10
63.150000
20
-3.979300
30
0.0
11
63.150000
21
-3.859700
31
0.0
0
LINE
8
0
6
CONTINUOUS
10
63.150000
20
-3.764000
30
0.0
11
63.150000
21
-3.668300
31
0.0
0
LINE
8
0
6
CONTINUOUS
10
62.070000
20
-8.567300
30
0.0
11
62.070000
21
-8.480400
31
0.0
0
LINE
8
0
6
CONTINUOUS
10
63.150000
20
-4.904000
30
0.0
11
63.150000
21
-4.611200
31
0.0
0
LINE
8
0
6
CONTINUOUS
10
62.664000
20
-7.842800
30
0.0
11
62.070000
21
-8.480400
31
0.0
0
LINE
8
0
6
CONTINUOUS
10
62.664000
20
-7.865100
30
0.0
11
62.988000
21
-7.295500
31
0.0
0
LINE
8
0
6
CONTINUOUS
10
62.988000
20
-7.295500
30
0.0
11
63.150000
21
-6.601500
31
0.0
0
LINE
8
0
6
CONTINUOUS
10
60.342000
20
-10.126400
30
0.0
11
59.154000
21
-10.776800
31
0.0
0
LINE
8
0
6
CONTINUOUS
10
61.368000
20
-9.367500
30
0.0
11
60.342000
21
-10.126400
31
0.0
0
LINE
8
0
6
CONTINUOUS
10
62.070000
20
-8.581600
30
0.0
11
61.368000
21
-9.367500
31
0.0
0
LINE
8
0
6
CONTINUOUS
10
62.664000
20
-7.741400
30
0.0
11
62.070000
21
-8.581600
31
0.0
0
LINE
8
0
6
CONTINUOUS
10
63.150000
20
-6.013100
30
0.0
11
63.150000
21
-5.896000
31
0.0
0
LINE
8
0
6
CONTINUOUS
10
59.154000
20
-10.776800
30
0.0
11
57.858000
21
-11.373000
31
0.0
0
LINE
8
0
6
CONTINUOUS
10
57.858000
20
-11.373000
30
0.0
11
56.346000
21
-11.888000
31
0.0
0
LINE
8
0
6
CONTINUOUS
10
56.346000
20
-11.888000
30
0.0
11
54.780000
21
-12.240300
31
0.0
0
LINE
8
0
6
CONTINUOUS
10
54.780000
20
-12.240300
30
0.0
11
53.106000
21
-12.538400
31
0.0
0
LINE
8
0
6
CONTINUOUS
10
53.106000
20
-12.538400
30
0.0
11
51.432000
21
-12.701000
31
0.0
0
LINE
8
0
6
CONTINUOUS
10
51.432000
20
-12.701000
30
0.0
11
49.650000
21
-12.782300
31
0.0
0
LINE
8
0
6
CONTINUOUS
10
61.226000
20
-10.021800
30
0.0
11
62.070000
21
-8.261200
31
0.0
0
LINE
8
0
6
CONTINUOUS
10
61.226000
20
-10.021800
30
0.0
11
61.731000
21
-8.646900
31
0.0
0
LINE
8
0
6
CONTINUOUS
10
61.748000
20
-21.206600
30
0.0
11
61.852000
21
-14.425700
31
0.0
0
LINE
8
0
6
CONTINUOUS
10
61.852000
20
-14.425700
30
0.0
11
61.956000
21
-10.435800
31
0.0
0
LINE
8
0
6
CONTINUOUS
10
61.956000
20
-10.435800
30
0.0
11
62.112000
21
-8.313600
31
0.0
0
LINE
8
0
6
CONTINUOUS
10
61.696000
20
-30.101400
30
0.0
11
61.748000
21
-21.206600
31
0.0
0
LINE
8
0
6
CONTINUOUS
10
61.696000
20
-36.079700
30
0.0
11
61.696000
21
-30.101400
31
0.0
0
LINE
8
0
6
CONTINUOUS
10
61.748000
20
-42.058000
30
0.0
11
61.696000
21
-36.079700
31
0.0
0
LINE
8
0
6
CONTINUOUS
10
61.852000
20
-48.036200
30
0.0
11
61.748000
21
-42.058000
31
0.0
0
LINE
8
0
6
CONTINUOUS
10
61.956000
20
-54.014490
30
0.0
11
61.852000
21
-48.036200
31
0.0
0
LINE
8
0
6
CONTINUOUS
10
62.112000
20
-58.000000
30
0.0
11
61.956000
21
-54.014490
31
0.0
0
LINE
8
0
6
CONTINUOUS
10
-53.238800
20
56.741000
30
0.0
11
-67.207790
21
55.077000
31
0.0
0
LINE
8
0
6
CONTINUOUS
10
-43.657300
20
57.583000
30
0.0
11
-53.238800
21
56.741000
31
0.0
0
LINE
8
0
6
CONTINUOUS
10
-33.505500
20
58.478000
30
0.0
11
-43.657300
21
57.583000
31
0.0
0
LINE
8
0
6
CONTINUOUS
10
-15.141000
20
59.951000
30
0.0
11
-25.349800
21
59.267000
31
0.0
0
LINE
8
0
6
CONTINUOUS
10
-5.274300
20
60.477000
30
0.0
11
-15.141000
21
59.951000
31
0.0
0
LINE
8
0
6
CONTINUOUS
10
3.793900
20
60.846000
30
0.0
11
-5.274300
21
60.477000
31
0.0
0
LINE
8
0
6
CONTINUOUS
10
22.318000
20
61.319000
30
0.0
11
13.363900
21
61.109000
31
0.0
0
LINE
8
0
6
CONTINUOUS
10
27.035000
20
61.530000
30
0.0
11
22.318000
21
61.319000
31
0.0
0
LINE
8
0
6
CONTINUOUS
10
38.259000
20
61.685000
30
0.0
11
27.035000
21
61.530000
31
0.0
0
LINE
8
0
6
CONTINUOUS
10
-74.009150
20
54.208000
30
0.0
11
-74.624840
21
54.149000
31
0.0
0
LINE
8
0
6
CONTINUOUS
10
-72.899250
20
54.284000
30
0.0
11
-74.009150
21
54.208000
31
0.0
0
LINE
8
0
6
CONTINUOUS
10
-71.791920
20
54.406000
30
0.0
11
-72.899250
21
54.284000
31
0.0
0
LINE
8
0
6
CONTINUOUS
10
-70.564340
20
54.592000
30
0.0
11
-71.791920
21
54.406000
31
0.0
0
LINE
8
0
6
CONTINUOUS
10
-69.020700
20
54.817000
30
0.0
11
-70.564340
21
54.592000
31
0.0
0
LINE
8
0
6
CONTINUOUS
10
-67.207790
20
55.077000
30
0.0
11
-69.020700
21
54.817000
31
0.0
0
LINE
8
0
6
CONTINUOUS
10
-75.012362
20
54.122000
30
0.0
11
-75.222569
21
54.086000
31
0.0
0
LINE
8
0
6
CONTINUOUS
10
-75.222569
20
54.086000
30
0.0
11
-75.327882
21
54.071000
31
0.0
0
LINE
8
0
6
CONTINUOUS
10
-75.488820
20
54.052000
30
0.0
11
-75.571111
21
54.037000
31
0.0
0
LINE
8
0
6
CONTINUOUS
10
70.414000
20
61.685000
30
0.0
11
69.138000
21
61.685000
31
0.0
0
LINE
8
0
6
CONTINUOUS
10
69.138000
20
61.685000
30
0.0
11
67.648000
21
61.685000
31
0.0
0
LINE
8
0
6
CONTINUOUS
10
67.648000
20
61.685000
30
0.0
11
66.106000
21
61.685000
31
0.0
0
LINE
8
0
6
CONTINUOUS
10
66.106000
20
61.685000
30
0.0
11
64.457000
21
61.685000
31
0.0
0
LINE
8
0
6
CONTINUOUS
10
64.457000
20
61.685000
30
0.0
11
62.808000
21
61.685000
31
0.0
0
LINE
8
0
6
CONTINUOUS
10
62.808000
20
61.685000
30
0.0
11
61.053000
21
61.685000
31
0.0
0
LINE
8
0
6
CONTINUOUS
10
71.584000
20
61.685000
30
0.0
11
70.414000
21
61.685000
31
0.0
0
LINE
8
0
6
CONTINUOUS
10
72.595000
20
61.685000
30
0.0
11
71.584000
21
61.685000
31
0.0
0
LINE
8
0
6
CONTINUOUS
10
73.286000
20
61.685000
30
0.0
11
72.595000
21
61.685000
31
0.0
0
LINE
8
0
6
CONTINUOUS
10
74.190000
20
61.685000
30
0.0
11
73.871000
21
61.685000
31
0.0
0
LINE
8
0
6
CONTINUOUS
10
61.053000
20
61.685000
30
0.0
11
38.259000
21
61.685000
31
0.0
0
LINE
8
0
6
CONTINUOUS
10
-69.590410
20
46.923000
30
0.0
11
-72.282440
21
48.861000
31
0.0
0
LINE
8
0
6
CONTINUOUS
10
-72.282440
20
48.861000
30
0.0
11
-74.864957
21
51.709000
31
0.0
0
LINE
8
0
6
CONTINUOUS
10
-74.864957
20
51.709000
30
0.0
11
-75.650000
21
54.022000
31
0.0
0
LINE
8
0
6
CONTINUOUS
10
5.543600
20
38.069000
30
0.0
11
-2.646800
21
40.089000
31
0.0
0
LINE
8
0
6
CONTINUOUS
10
-2.646800
20
40.089000
30
0.0
11
-15.016800
21
41.529000
31
0.0
0
LINE
8
0
6
CONTINUOUS
10
11.141300
20
35.681900
30
0.0
11
5.543600
21
38.069000
31
0.0
0
LINE
8
0
6
CONTINUOUS
10
-24.906300
20
41.693000
30
0.0
11
-32.870400
21
41.693000
31
0.0
0
LINE
8
0
6
CONTINUOUS
10
-32.870400
20
41.693000
30
0.0
11
-43.288100
21
41.485000
31
0.0
0
LINE
8
0
6
CONTINUOUS
10
-43.288100
20
41.485000
30
0.0
11
-49.789200
21
41.479000
31
0.0
0
LINE
8
0
6
CONTINUOUS
10
-61.535200
20
43.058000
30
0.0
11
-65.477200
21
44.492000
31
0.0
0
LINE
8
0
6
CONTINUOUS
10
-55.440800
20
41.912000
30
0.0
11
-61.535200
21
43.058000
31
0.0
0
LINE
8
0
6
CONTINUOUS
10
-15.016800
20
41.529000
30
0.0
11
-24.906300
21
41.693000
31
0.0
0
LINE
8
0
6
CONTINUOUS
10
-65.477200
20
44.492000
30
0.0
11
-69.590410
21
46.923000
31
0.0
0
LINE
8
0
6
CONTINUOUS
10
-49.789200
20
41.479000
30
0.0
11
-55.440800
21
41.912000
31
0.0
0
LINE
8
0
6
CONTINUOUS
10
27.621000
20
-9.775400
30
0.0
11
27.621000
21
3.376800
31
0.0
0
LINE
8
0
6
CONTINUOUS
10
27.336000
20
-36.079700
30
0.0
11
27.526000
21
-22.927500
31
0.0
0
LINE
8
0
6
CONTINUOUS
10
27.526000
20
-22.927500
30
0.0
11
27.621000
21
-9.775400
31
0.0
0
LINE
8
0
6
CONTINUOUS
10
27.621000
20
3.376800
30
0.0
11
26.951000
21
16.604900
31
0.0
0
LINE
8
0
6
CONTINUOUS
10
26.951000
20
16.604900
30
0.0
11
24.997000
21
24.458000
31
0.0
0
LINE
8
0
6
CONTINUOUS
10
16.359600
20
32.834600
30
0.0
11
11.141300
21
35.681900
31
0.0
0
LINE
8
0
6
CONTINUOUS
10
27.146000
20
-49.231900
30
0.0
11
27.336000
21
-36.079700
31
0.0
0
LINE
8
0
6
CONTINUOUS
10
26.862000
20
-58.000000
30
0.0
11
27.146000
21
-49.231900
31
0.0
0
LINE
8
0
6
CONTINUOUS
10
24.997000
20
24.458000
30
0.0
11
21.151100
21
29.286200
31
0.0
0
LINE
8
0
6
CONTINUOUS
10
21.151100
20
29.286200
30
0.0
11
16.359600
21
32.834600
31
0.0
0
LINE
8
0
6
CONTINUOUS
10
71.976000
20
29.681200
30
0.0
11
71.786000
21
16.529000
31
0.0
0
LINE
8
0
6
CONTINUOUS
10
72.166000
20
42.833000
30
0.0
11
71.976000
21
29.681200
31
0.0
0
LINE
8
0
6
CONTINUOUS
10
72.450000
20
48.094000
30
0.0
11
72.166000
21
42.833000
31
0.0
0
LINE
8
0
6
CONTINUOUS
10
73.400000
20
55.986000
30
0.0
11
72.450000
21
48.094000
31
0.0
0
LINE
8
0
6
CONTINUOUS
10
74.350000
20
61.685000
30
0.0
11
73.400000
21
55.986000
31
0.0
0
LINE
8
0
6
CONTINUOUS
10
71.786000
20
16.529000
30
0.0
11
71.691000
21
3.376800
31
0.0
0
LINE
8
0
6
CONTINUOUS
10
71.691000
20
3.376800
30
0.0
11
71.691000
21
-9.775400
31
0.0
0
LINE
8
0
6
CONTINUOUS
10
71.691000
20
-9.775400
30
0.0
11
71.786000
21
-22.927500
31
0.0
0
LINE
8
0
6
CONTINUOUS
10
71.786000
20
-22.927500
30
0.0
11
71.976000
21
-36.079700
31
0.0
0
LINE
8
0
6
CONTINUOUS
10
71.976000
20
-36.079700
30
0.0
11
72.166000
21
-49.231900
31
0.0
0
LINE
8
0
6
CONTINUOUS
10
72.166000
20
-49.231900
30
0.0
11
72.450000
21
-58.000000
31
0.0
0
LINE
8
0
6
CONTINUOUS
10
36.150000
20
-5.056000
30
0.0
11
36.150000
21
-4.697000
31
0.0
0
LINE
8
0
6
CONTINUOUS
10
36.150000
20
-4.697000
30
0.0
11
36.150000
21
-4.386000
31
0.0
0
LINE
8
0
6
CONTINUOUS
10
36.150000
20
-4.386000
30
0.0
11
36.150000
21
-4.147000
31
0.0
0
LINE
8
0
6
CONTINUOUS
10
36.150000
20
-4.147000
30
0.0
11
36.150000
21
-3.979000
31
0.0
0
LINE
8
0
6
CONTINUOUS
10
37.391000
20
-6.205000
30
0.0
11
37.082000
21
-6.146000
31
0.0
0
LINE
8
0
6
CONTINUOUS
10
37.836000
20
-6.254000
30
0.0
11
37.391000
21
-6.205000
31
0.0
0
LINE
8
0
6
CONTINUOUS
10
39.372000
20
-6.328000
30
0.0
11
38.560000
21
-6.308000
31
0.0
0
LINE
8
0
6
CONTINUOUS
10
38.560000
20
-6.308000
30
0.0
11
39.372000
21
-6.328000
31
0.0
0
LINE
8
0
6
CONTINUOUS
10
37.836000
20
-6.254000
30
0.0
11
38.560000
21
-6.308000
31
0.0
0
LINE
8
0
6
CONTINUOUS
10
37.391000
20
-6.205000
30
0.0
11
37.836000
21
-6.254000
31
0.0
0
LINE
8
0
6
CONTINUOUS
10
37.082000
20
-6.146000
30
0.0
11
37.391000
21
-6.205000
31
0.0
0
LINE
8
0
6
CONTINUOUS
10
41.546000
20
-6.622000
30
0.0
11
39.990000
21
-6.605000
31
0.0
0
LINE
8
0
6
CONTINUOUS
10
43.584000
20
-6.629000
30
0.0
11
41.546000
21
-6.622000
31
0.0
0
LINE
8
0
6
CONTINUOUS
10
46.306000
20
-6.637000
30
0.0
11
43.584000
21
-6.629000
31
0.0
0
LINE
8
0
6
CONTINUOUS
10
47.982000
20
-6.646000
30
0.0
11
46.306000
21
-6.637000
31
0.0
0
LINE
8
0
6
CONTINUOUS
10
49.650000
20
-6.651000
30
0.0
11
47.982000
21
-6.646000
31
0.0
0
LINE
8
0
6
CONTINUOUS
10
39.092000
20
-7.023000
30
0.0
11
38.290000
21
-6.996000
31
0.0
0
LINE
8
0
6
CONTINUOUS
10
38.290000
20
-6.996000
30
0.0
11
37.507000
21
-6.962000
31
0.0
0
LINE
8
0
6
CONTINUOUS
10
37.507000
20
-6.962000
30
0.0
11
36.995000
21
-6.906000
31
0.0
0
LINE
8
0
6
CONTINUOUS
10
36.995000
20
-6.906000
30
0.0
11
36.580000
21
-6.822000
31
0.0
0
LINE
8
0
6
CONTINUOUS
10
36.580000
20
-6.822000
30
0.0
11
36.271000
21
-6.719000
31
0.0
0
LINE
8
0
6
CONTINUOUS
10
36.271000
20
-6.719000
30
0.0
11
36.150000
21
-6.602000
31
0.0
0
LINE
8
0
6
CONTINUOUS
10
36.410000
20
-6.208000
30
0.0
11
36.474000
21
-6.317000
31
0.0
0
LINE
8
0
6
CONTINUOUS
10
39.990000
20
-6.605000
30
0.0
11
41.546000
21
-6.622000
31
0.0
0
LINE
8
0
6
CONTINUOUS
10
41.526000
20
-7.052000
30
0.0
11
39.942000
21
-7.036000
31
0.0
0
LINE
8
0
6
CONTINUOUS
10
41.546000
20
-6.622000
30
0.0
11
43.584000
21
-6.629000
31
0.0
0
LINE
8
0
6
CONTINUOUS
10
43.555000
20
-7.059000
30
0.0
11
41.526000
21
-7.052000
31
0.0
0
LINE
8
0
6
CONTINUOUS
10
43.584000
20
-6.629000
30
0.0
11
46.306000
21
-6.637000
31
0.0
0
LINE
8
0
6
CONTINUOUS
10
46.198000
20
-7.067000
30
0.0
11
43.555000
21
-7.059000
31
0.0
0
LINE
8
0
6
CONTINUOUS
10
46.306000
20
-6.637000
30
0.0
11
47.982000
21
-6.646000
31
0.0
0
LINE
8
0
6
CONTINUOUS
10
47.872000
20
-7.074000
30
0.0
11
46.198000
21
-7.067000
31
0.0
0
LINE
8
0
6
CONTINUOUS
10
47.982000
20
-6.646000
30
0.0
11
49.650000
21
-6.651000
31
0.0
0
LINE
8
0
6
CONTINUOUS
10
49.650000
20
-7.081000
30
0.0
11
47.872000
21
-7.074000
31
0.0
0
LINE
8
0
6
CONTINUOUS
10
36.150000
20
-6.602000
30
0.0
11
36.150000
21
-5.845000
31
0.0
0
LINE
8
0
6
CONTINUOUS
10
36.150000
20
-5.845000
30
0.0
11
36.150000
21
-5.462000
31
0.0
0
LINE
8
0
6
CONTINUOUS
10
36.150000
20
-5.462000
30
0.0
11
36.150000
21
-5.056000
31
0.0
0
LINE
8
0
6
CONTINUOUS
10
36.410000
20
-4.649000
30
0.0
11
36.410000
21
-5.056000
31
0.0
0
LINE
8
0
6
CONTINUOUS
10
40.812000
20
-3.000000
30
0.0
11
39.660000
21
-3.000000
31
0.0
0
LINE
8
0
6
CONTINUOUS
10
39.660000
20
-3.000000
30
0.0
11
38.640000
21
-3.000000
31
0.0
0
LINE
8
0
6
CONTINUOUS
10
38.640000
20
-3.000000
30
0.0
11
37.938000
21
-3.000000
31
0.0
0
LINE
8
0
6
CONTINUOUS
10
37.938000
20
-3.000000
30
0.0
11
37.343000
21
-3.000000
31
0.0
0
LINE
8
0
6
CONTINUOUS
10
37.343000
20
-3.000000
30
0.0
11
37.038000
21
-3.000000
31
0.0
0
LINE
8
0
6
CONTINUOUS
10
37.038000
20
-3.000000
30
0.0
11
36.929000
21
-3.000000
31
0.0
0
LINE
8
0
6
CONTINUOUS
10
42.032000
20
-3.000000
30
0.0
11
40.812000
21
-3.000000
31
0.0
0
LINE
8
0
6
CONTINUOUS
10
43.462000
20
-3.000000
30
0.0
11
42.032000
21
-3.000000
31
0.0
0
LINE
8
0
6
CONTINUOUS
10
45.077000
20
-3.000000
30
0.0
11
43.462000
21
-3.000000
31
0.0
0
LINE
8
0
6
CONTINUOUS
10
46.653000
20
-3.000000
30
0.0
11
45.077000
21
-3.000000
31
0.0
0
LINE
8
0
6
CONTINUOUS
10
48.294000
20
-3.000000
30
0.0
11
46.653000
21
-3.000000
31
0.0
0
LINE
8
0
6
CONTINUOUS
10
49.650000
20
-3.000000
30
0.0
11
48.294000
21
-3.000000
31
0.0
0
LINE
8
0
6
CONTINUOUS
10
36.150000
20
-3.598000
30
0.0
11
36.410000
21
-3.199000
31
0.0
0
LINE
8
0
6
CONTINUOUS
10
36.150000
20
-3.979000
30
0.0
11
36.150000
21
-3.860000
31
0.0
0
LINE
8
0
6
CONTINUOUS
10
36.150000
20
-3.860000
30
0.0
11
36.150000
21
-3.764000
31
0.0
0
LINE
8
0
6
CONTINUOUS
10
36.150000
20
-3.764000
30
0.0
11
36.150000
21
-3.668000
31
0.0
0
LINE
8
0
6
CONTINUOUS
10
36.150000
20
-3.668000
30
0.0
11
36.150000
21
-3.598000
31
0.0
0
LINE
8
0
6
CONTINUOUS
10
61.909000
20
-6.205000
30
0.0
11
61.464000
21
-6.254000
31
0.0
0
LINE
8
0
6
CONTINUOUS
10
61.464000
20
-6.254000
30
0.0
11
60.740000
21
-6.308000
31
0.0
0
LINE
8
0
6
CONTINUOUS
10
60.740000
20
-6.308000
30
0.0
11
59.928000
21
-6.328000
31
0.0
0
LINE
8
0
6
CONTINUOUS
10
59.928000
20
-6.328000
30
0.0
11
60.740000
21
-6.308000
31
0.0
0
LINE
8
0
6
CONTINUOUS
10
60.740000
20
-6.308000
30
0.0
11
61.464000
21
-6.254000
31
0.0
0
LINE
8
0
6
CONTINUOUS
10
61.464000
20
-6.254000
30
0.0
11
61.909000
21
-6.205000
31
0.0
0
LINE
8
0
6
CONTINUOUS
10
61.909000
20
-6.205000
30
0.0
11
62.218000
21
-6.146000
31
0.0
0
LINE
8
0
6
CONTINUOUS
10
59.310000
20
-6.605000
30
0.0
11
57.754000
21
-6.622000
31
0.0
0
LINE
8
0
6
CONTINUOUS
10
57.754000
20
-6.622000
30
0.0
11
55.716000
21
-6.629000
31
0.0
0
LINE
8
0
6
CONTINUOUS
10
55.716000
20
-6.629000
30
0.0
11
52.994000
21
-6.637000
31
0.0
0
LINE
8
0
6
CONTINUOUS
10
52.994000
20
-6.637000
30
0.0
11
51.318000
21
-6.646000
31
0.0
0
LINE
8
0
6
CONTINUOUS
10
51.318000
20
-6.646000
30
0.0
11
49.650000
21
-6.651000
31
0.0
0
LINE
8
0
6
CONTINUOUS
10
61.010000
20
-6.996000
30
0.0
11
60.208000
21
-7.023000
31
0.0
0
LINE
8
0
6
CONTINUOUS
10
61.793000
20
-6.962000
30
0.0
11
61.010000
21
-6.996000
31
0.0
0
LINE
8
0
6
CONTINUOUS
10
62.305000
20
-6.906000
30
0.0
11
61.793000
21
-6.962000
31
0.0
0
LINE
8
0
6
CONTINUOUS
10
62.720000
20
-6.822000
30
0.0
11
62.305000
21
-6.906000
31
0.0
0
LINE
8
0
6
CONTINUOUS
10
62.826000
20
-6.317000
30
0.0
11
62.890000
21
-6.208000
31
0.0
0
LINE
8
0
6
CONTINUOUS
10
63.150000
20
-6.602000
30
0.0
11
63.029000
21
-6.719000
31
0.0
0
LINE
8
0
6
CONTINUOUS
10
60.208000
20
-7.023000
30
0.0
11
59.358000
21
-7.036000
31
0.0
0
LINE
8
0
6
CONTINUOUS
10
59.358000
20
-7.036000
30
0.0
11
57.774000
21
-7.052000
31
0.0
0
LINE
8
0
6
CONTINUOUS
10
57.754000
20
-6.622000
30
0.0
11
59.310000
21
-6.605000
31
0.0
0
LINE
8
0
6
CONTINUOUS
10
57.774000
20
-7.052000
30
0.0
11
55.745000
21
-7.059000
31
0.0
0
LINE
8
0
6
CONTINUOUS
10
55.716000
20
-6.629000
30
0.0
11
57.754000
21
-6.622000
31
0.0
0
LINE
8
0
6
CONTINUOUS
10
55.745000
20
-7.059000
30
0.0
11
53.102000
21
-7.067000
31
0.0
0
LINE
8
0
6
CONTINUOUS
10
52.994000
20
-6.637000
30
0.0
11
55.716000
21
-6.629000
31
0.0
0
LINE
8
0
6
CONTINUOUS
10
53.102000
20
-7.067000
30
0.0
11
51.428000
21
-7.074000
31
0.0
0
LINE
8
0
6
CONTINUOUS
10
51.318000
20
-6.646000
30
0.0
11
52.994000
21
-6.637000
31
0.0
0
LINE
8
0
6
CONTINUOUS
10
51.428000
20
-7.074000
30
0.0
11
49.650000
21
-7.081000
31
0.0
0
LINE
8
0
6
CONTINUOUS
10
49.650000
20
-6.651000
30
0.0
11
51.318000
21
-6.646000
31
0.0
0
LINE
8
0
6
CONTINUOUS
10
63.150000
20
-4.697000
30
0.0
11
63.150000
21
-5.056000
31
0.0
0
LINE
8
0
6
CONTINUOUS
10
63.150000
20
-4.386000
30
0.0
11
63.150000
21
-4.697000
31
0.0
0
LINE
8
0
6
CONTINUOUS
10
63.150000
20
-4.147000
30
0.0
11
63.150000
21
-4.386000
31
0.0
0
LINE
8
0
6
CONTINUOUS
10
63.150000
20
-3.979000
30
0.0
11
63.150000
21
-4.147000
31
0.0
0
LINE
8
0
6
CONTINUOUS
10
63.150000
20
-5.845000
30
0.0
11
63.150000
21
-6.602000
31
0.0
0
LINE
8
0
6
CONTINUOUS
10
63.150000
20
-5.462000
30
0.0
11
63.150000
21
-5.845000
31
0.0
0
LINE
8
0
6
CONTINUOUS
10
63.150000
20
-5.056000
30
0.0
11
63.150000
21
-5.462000
31
0.0
0
LINE
8
0
6
CONTINUOUS
10
62.890000
20
-5.056000
30
0.0
11
62.890000
21
-4.649000
31
0.0
0
LINE
8
0
6
CONTINUOUS
10
63.150000
20
-3.598000
30
0.0
11
63.150000
21
-3.668000
31
0.0
0
LINE
8
0
6
CONTINUOUS
10
63.150000
20
-3.860000
30
0.0
11
63.150000
21
-3.979000
31
0.0
0
LINE
8
0
6
CONTINUOUS
10
63.150000
20
-3.764000
30
0.0
11
63.150000
21
-3.860000
31
0.0
0
LINE
8
0
6
CONTINUOUS
10
63.150000
20
-3.668000
30
0.0
11
63.150000
21
-3.764000
31
0.0
0
LINE
8
0
6
CONTINUOUS
10
59.640000
20
-3.000000
30
0.0
11
58.488000
21
-3.000000
31
0.0
0
LINE
8
0
6
CONTINUOUS
10
60.660000
20
-3.000000
30
0.0
11
59.640000
21
-3.000000
31
0.0
0
LINE
8
0
6
CONTINUOUS
10
61.362000
20
-3.000000
30
0.0
11
60.660000
21
-3.000000
31
0.0
0
LINE
8
0
6
CONTINUOUS
10
61.958000
20
-3.000000
30
0.0
11
61.362000
21
-3.000000
31
0.0
0
LINE
8
0
6
CONTINUOUS
10
62.262000
20
-3.000000
30
0.0
11
61.958000
21
-3.000000
31
0.0
0
LINE
8
0
6
CONTINUOUS
10
62.890000
20
-3.199000
30
0.0
11
62.371000
21
-3.000000
31
0.0
0
LINE
8
0
6
CONTINUOUS
10
62.371000
20
-3.000000
30
0.0
11
62.262000
21
-3.000000
31
0.0
0
LINE
8
0
6
CONTINUOUS
10
58.488000
20
-3.000000
30
0.0
11
57.268000
21
-3.000000
31
0.0
0
LINE
8
0
6
CONTINUOUS
10
57.268000
20
-3.000000
30
0.0
11
55.838000
21
-3.000000
31
0.0
0
LINE
8
0
6
CONTINUOUS
10
55.838000
20
-3.000000
30
0.0
11
54.223000
21
-3.000000
31
0.0
0
LINE
8
0
6
CONTINUOUS
10
54.223000
20
-3.000000
30
0.0
11
52.647000
21
-3.000000
31
0.0
0
LINE
8
0
6
CONTINUOUS
10
52.647000
20
-3.000000
30
0.0
11
51.006000
21
-3.000000
31
0.0
0
LINE
8
0
6
CONTINUOUS
10
51.006000
20
-3.000000
30
0.0
11
49.650000
21
-3.000000
31
0.0
0
LINE
8
0
6
CONTINUOUS
10
-25.566600
20
60.582000
30
0.0
11
-33.717600
21
59.868000
31
0.0
0
LINE
8
0
6
CONTINUOUS
10
-33.505500
20
58.478000
30
0.0
11
-25.349800
21
59.267000
31
0.0
0
LINE
8
0
6
CONTINUOUS
10
-15.528800
20
61.372000
30
0.0
11
-25.566600
21
60.582000
31
0.0
0
LINE
8
0
6
CONTINUOUS
10
-25.349800
20
59.267000
30
0.0
11
-15.141000
21
59.951000
31
0.0
0
LINE
8
0
6
CONTINUOUS
10
-5.719200
20
61.951000
30
0.0
11
-15.528800
21
61.372000
31
0.0
0
LINE
8
0
6
CONTINUOUS
10
-15.141000
20
59.951000
30
0.0
11
-5.274300
21
60.477000
31
0.0
0
LINE
8
0
6
CONTINUOUS
10
3.463000
20
62.319000
30
0.0
11
-5.719200
21
61.951000
31
0.0
0
LINE
8
0
6
CONTINUOUS
10
-5.274300
20
60.477000
30
0.0
11
3.793900
21
60.846000
31
0.0
0
LINE
8
0
6
CONTINUOUS
10
-68.872490
20
56.199000
30
0.0
11
-67.280700
21
56.376000
31
0.0
0
LINE
8
0
6
CONTINUOUS
10
-70.052320
20
56.080000
30
0.0
11
-67.280700
21
56.376000
31
0.0
0
LINE
8
0
6
CONTINUOUS
10
-71.158410
20
55.949000
30
0.0
11
-70.052320
21
56.080000
31
0.0
0
LINE
8
0
6
CONTINUOUS
10
-71.158410
20
55.949000
30
0.0
11
-67.280700
21
56.376000
31
0.0
0
LINE
8
0
6
CONTINUOUS
10
-72.246070
20
55.841000
30
0.0
11
-71.158410
21
55.949000
31
0.0
0
LINE
8
0
6
CONTINUOUS
10
-73.844160
20
55.680000
30
0.0
11
-67.280700
21
56.376000
31
0.0
0
LINE
8
0
6
CONTINUOUS
10
-73.280640
20
55.723000
30
0.0
11
-73.844160
21
55.680000
31
0.0
0
LINE
8
0
6
CONTINUOUS
10
-72.246070
20
55.841000
30
0.0
11
-73.280640
21
55.723000
31
0.0
0
LINE
8
0
6
CONTINUOUS
10
-71.158410
20
55.949000
30
0.0
11
-72.246070
21
55.841000
31
0.0
0
LINE
8
0
6
CONTINUOUS
10
-70.052320
20
56.080000
30
0.0
11
-71.158410
21
55.949000
31
0.0
0
LINE
8
0
6
CONTINUOUS
10
-67.280700
20
56.376000
30
0.0
11
-68.872490
21
56.199000
31
0.0
0
LINE
8
0
6
CONTINUOUS
10
-73.844160
20
55.680000
30
0.0
11
-74.002250
21
55.660000
31
0.0
0
LINE
8
0
6
CONTINUOUS
10
-74.002250
20
55.660000
30
0.0
11
-74.195150
21
55.631000
31
0.0
0
LINE
8
0
6
CONTINUOUS
10
-74.974960
20
55.031000
30
0.0
11
-74.694209
21
55.070000
31
0.0
0
LINE
8
0
6
CONTINUOUS
10
-74.195150
20
55.631000
30
0.0
11
-74.318160
21
55.617000
31
0.0
0
LINE
8
0
6
CONTINUOUS
10
-75.080279
20
55.016000
30
0.0
11
-74.974960
21
55.031000
31
0.0
0
LINE
8
0
6
CONTINUOUS
10
-74.318160
20
55.617000
30
0.0
11
-74.423110
21
55.594000
31
0.0
0
LINE
8
0
6
CONTINUOUS
10
-74.423110
20
55.594000
30
0.0
11
-74.488940
21
55.582000
31
0.0
0
LINE
8
0
6
CONTINUOUS
10
-75.315976
20
54.979000
30
0.0
11
-75.215648
21
54.998000
31
0.0
0
LINE
8
0
6
CONTINUOUS
10
-74.488940
20
55.582000
30
0.0
11
-74.537760
21
55.573000
31
0.0
0
LINE
8
0
6
CONTINUOUS
10
-74.624840
20
54.149000
30
0.0
11
-74.009150
21
54.208000
31
0.0
0
LINE
8
0
6
CONTINUOUS
10
-74.009150
20
54.208000
30
0.0
11
-72.899250
21
54.284000
31
0.0
0
LINE
8
0
6
CONTINUOUS
10
-72.899250
20
54.284000
30
0.0
11
-71.791920
21
54.406000
31
0.0
0
LINE
8
0
6
CONTINUOUS
10
-71.791920
20
54.406000
30
0.0
11
-70.564340
21
54.592000
31
0.0
0
LINE
8
0
6
CONTINUOUS
10
-70.564340
20
54.592000
30
0.0
11
-69.020700
21
54.817000
31
0.0
0
LINE
8
0
6
CONTINUOUS
10
-69.020700
20
54.817000
30
0.0
11
-67.207790
21
55.077000
31
0.0
0
LINE
8
0
6
CONTINUOUS
10
-67.256400
20
55.943000
30
0.0
11
-68.911210
21
55.702000
31
0.0
0
LINE
8
0
6
CONTINUOUS
10
-74.694209
20
55.070000
30
0.0
11
-74.974960
21
55.031000
31
0.0
0
LINE
8
0
6
CONTINUOUS
10
-74.974960
20
55.031000
30
0.0
11
-75.080279
21
55.016000
31
0.0
0
LINE
8
0
6
CONTINUOUS
10
-75.327882
20
54.071000
30
0.0
11
-75.222569
21
54.086000
31
0.0
0
LINE
8
0
6
CONTINUOUS
10
-75.080279
20
55.016000
30
0.0
11
-75.215648
21
54.998000
31
0.0
0
LINE
8
0
6
CONTINUOUS
10
-75.215648
20
54.998000
30
0.0
11
-75.315976
21
54.979000
31
0.0
0
LINE
8
0
6
CONTINUOUS
10
-75.571111
20
54.037000
30
0.0
11
-75.488820
21
54.052000
31
0.0
0
LINE
8
0
6
CONTINUOUS
10
-75.315976
20
54.979000
30
0.0
11
-75.373871
21
54.968000
31
0.0
0
LINE
8
0
6
CONTINUOUS
10
-75.650000
20
54.022000
30
0.0
11
-75.571111
21
54.037000
31
0.0
0
LINE
8
0
6
CONTINUOUS
10
-53.565900
20
58.110000
30
0.0
11
-67.280700
21
56.376000
31
0.0
0
LINE
8
0
6
CONTINUOUS
10
-67.207790
20
55.077000
30
0.0
11
-53.238800
21
56.741000
31
0.0
0
LINE
8
0
6
CONTINUOUS
10
-43.954600
20
58.950000
30
0.0
11
-53.565900
21
58.110000
31
0.0
0
LINE
8
0
6
CONTINUOUS
10
-53.238800
20
56.741000
30
0.0
11
-43.657300
21
57.583000
31
0.0
0
LINE
8
0
6
CONTINUOUS
10
-33.717600
20
59.868000
30
0.0
11
-43.954600
21
58.950000
31
0.0
0
LINE
8
0
6
CONTINUOUS
10
-43.657300
20
57.583000
30
0.0
11
-33.505500
21
58.478000
31
0.0
0
LINE
8
0
6
CONTINUOUS
10
-33.705200
20
59.372000
30
0.0
11
-43.828400
21
58.478000
31
0.0
0
LINE
8
0
6
CONTINUOUS
10
69.047000
20
63.000000
30
0.0
11
67.726000
21
63.000000
31
0.0
0
LINE
8
0
6
CONTINUOUS
10
67.726000
20
63.000000
30
0.0
11
66.212000
21
63.000000
31
0.0
0
LINE
8
0
6
CONTINUOUS
10
66.212000
20
63.000000
30
0.0
11
64.891000
21
63.000000
31
0.0
0
LINE
8
0
6
CONTINUOUS
10
64.891000
20
63.000000
30
0.0
11
63.340000
21
63.000000
31
0.0
0
LINE
8
0
6
CONTINUOUS
10
63.340000
20
63.000000
30
0.0
11
61.959000
21
63.000000
31
0.0
0
LINE
8
0
6
CONTINUOUS
10
61.959000
20
63.000000
30
0.0
11
61.053000
21
63.000000
31
0.0
0
LINE
8
0
6
CONTINUOUS
10
70.222000
20
63.000000
30
0.0
11
69.047000
21
63.000000
31
0.0
0
LINE
8
0
6
CONTINUOUS
10
71.216000
20
63.000000
30
0.0
11
70.222000
21
63.000000
31
0.0
0
LINE
8
0
6
CONTINUOUS
10
71.943000
20
63.000000
30
0.0
11
71.216000
21
63.000000
31
0.0
0
LINE
8
0
6
CONTINUOUS
10
72.811000
20
62.562000
30
0.0
11
73.397000
21
62.562000
31
0.0
0
LINE
8
0
6
CONTINUOUS
10
72.476000
20
63.000000
30
0.0
11
71.943000
21
63.000000
31
0.0
0
LINE
8
0
6
CONTINUOUS
10
73.397000
20
62.562000
30
0.0
11
73.688000
21
62.562000
31
0.0
0
LINE
8
0
6
CONTINUOUS
10
72.767000
20
63.000000
30
0.0
11
72.476000
21
63.000000
31
0.0
0
LINE
8
0
6
CONTINUOUS
10
73.688000
20
62.562000
30
0.0
11
73.875000
21
62.562000
31
0.0
0
LINE
8
0
6
CONTINUOUS
10
72.925000
20
63.000000
30
0.0
11
72.767000
21
63.000000
31
0.0
0
LINE
8
0
6
CONTINUOUS
10
69.138000
20
61.685000
30
0.0
11
70.414000
21
61.685000
31
0.0
0
LINE
8
0
6
CONTINUOUS
10
67.648000
20
61.685000
30
0.0
11
69.138000
21
61.685000
31
0.0
0
LINE
8
0
6
CONTINUOUS
10
66.106000
20
61.685000
30
0.0
11
67.648000
21
61.685000
31
0.0
0
LINE
8
0
6
CONTINUOUS
10
64.457000
20
61.685000
30
0.0
11
66.106000
21
61.685000
31
0.0
0
LINE
8
0
6
CONTINUOUS
10
62.808000
20
61.685000
30
0.0
11
64.457000
21
61.685000
31
0.0
0
LINE
8
0
6
CONTINUOUS
10
61.053000
20
61.685000
30
0.0
11
62.808000
21
61.685000
31
0.0
0
LINE
8
0
6
CONTINUOUS
10
70.414000
20
61.685000
30
0.0
11
71.584000
21
61.685000
31
0.0
0
LINE
8
0
6
CONTINUOUS
10
71.584000
20
61.685000
30
0.0
11
72.595000
21
61.685000
31
0.0
0
LINE
8
0
6
CONTINUOUS
10
72.595000
20
61.685000
30
0.0
11
73.286000
21
61.685000
31
0.0
0
LINE
8
0
6
CONTINUOUS
10
73.286000
20
61.685000
30
0.0
11
73.871000
21
61.685000
31
0.0
0
LINE
8
0
6
CONTINUOUS
10
73.397000
20
62.562000
30
0.0
11
72.811000
21
62.562000
31
0.0
0
LINE
8
0
6
CONTINUOUS
10
73.871000
20
61.685000
30
0.0
11
74.190000
21
61.685000
31
0.0
0
LINE
8
0
6
CONTINUOUS
10
73.688000
20
62.562000
30
0.0
11
73.397000
21
62.562000
31
0.0
0
LINE
8
0
6
CONTINUOUS
10
74.190000
20
61.685000
30
0.0
11
74.350000
21
61.685000
31
0.0
0
LINE
8
0
6
CONTINUOUS
10
73.875000
20
62.562000
30
0.0
11
73.688000
21
62.562000
31
0.0
0
LINE
8
0
6
CONTINUOUS
10
38.259000
20
61.685000
30
0.0
11
61.053000
21
61.685000
31
0.0
0
LINE
8
0
6
CONTINUOUS
10
61.053000
20
63.000000
30
0.0
11
38.259000
21
63.000000
31
0.0
0
LINE
8
0
6
CONTINUOUS
10
38.259000
20
62.562000
30
0.0
11
61.053000
21
62.562000
31
0.0
0
LINE
8
0
6
CONTINUOUS
10
13.044500
20
62.582000
30
0.0
11
3.463000
21
62.319000
31
0.0
0
LINE
8
0
6
CONTINUOUS
10
3.793900
20
60.846000
30
0.0
11
13.363900
21
61.109000
31
0.0
0
LINE
8
0
6
CONTINUOUS
10
21.941600
20
62.740000
30
0.0
11
13.044500
21
62.582000
31
0.0
0
LINE
8
0
6
CONTINUOUS
10
13.363900
20
61.109000
30
0.0
11
22.318000
21
61.319000
31
0.0
0
LINE
8
0
6
CONTINUOUS
10
26.978000
20
62.845000
30
0.0
11
21.941600
21
62.740000
31
0.0
0
LINE
8
0
6
CONTINUOUS
10
22.318000
20
61.319000
30
0.0
11
27.035000
21
61.530000
31
0.0
0
LINE
8
0
6
CONTINUOUS
10
38.259000
20
63.000000
30
0.0
11
26.978000
21
62.845000
31
0.0
0
LINE
8
0
6
CONTINUOUS
10
-74.537760
20
55.573000
30
0.0
11
-67.280700
21
56.376000
31
0.0
0
LINE
8
0
6
CONTINUOUS
10
-75.373871
20
54.968000
30
0.0
11
-74.537760
21
55.573000
31
0.0
0
LINE
8
0
6
CONTINUOUS
10
-75.650000
20
54.022000
30
0.0
11
-75.373871
21
54.968000
31
0.0
0
LINE
8
0
6
CONTINUOUS
10
73.688000
20
62.562000
30
0.0
11
73.397000
21
62.562000
31
0.0
0
LINE
8
0
6
CONTINUOUS
10
72.925000
20
63.000000
30
0.0
11
73.875000
21
62.562000
31
0.0
0
LINE
8
0
6
CONTINUOUS
10
73.875000
20
62.562000
30
0.0
11
73.688000
21
62.562000
31
0.0
0
LINE
8
0
6
CONTINUOUS
10
73.875000
20
62.562000
30
0.0
11
74.350000
21
61.685000
31
0.0
0
LINE
8
0
6
CONTINUOUS
10
71.594000
20
-58.000000
30
0.0
11
67.538000
21
-58.000000
31
0.0
0
LINE
8
0
6
CONTINUOUS
10
74.090000
20
-58.000000
30
0.0
11
71.594000
21
-58.000000
31
0.0
0
LINE
8
0
6
CONTINUOUS
10
75.026000
20
-58.000000
30
0.0
11
74.090000
21
-58.000000
31
0.0
0
LINE
8
0
6
CONTINUOUS
10
37.066000
20
-58.000000
30
0.0
11
31.762000
21
-58.000000
31
0.0
0
LINE
8
0
6
CONTINUOUS
10
49.650000
20
-58.300000
30
0.0
11
42.994000
21
-58.300000
31
0.0
0
LINE
8
0
6
CONTINUOUS
10
42.994000
20
-58.300000
30
0.0
11
36.754000
21
-58.300000
31
0.0
0
LINE
8
0
6
CONTINUOUS
10
36.754000
20
-58.300000
30
0.0
11
31.242000
21
-58.300000
31
0.0
0
LINE
8
0
6
CONTINUOUS
10
31.242000
20
-58.300000
30
0.0
11
27.082000
21
-58.300000
31
0.0
0
LINE
8
0
6
CONTINUOUS
10
27.082000
20
-58.300000
30
0.0
11
24.586000
21
-58.300000
31
0.0
0
LINE
8
0
6
CONTINUOUS
10
23.650000
20
-58.300000
30
0.0
11
24.274000
21
-58.000000
31
0.0
0
LINE
8
0
6
CONTINUOUS
10
24.586000
20
-58.300000
30
0.0
11
23.650000
21
-58.300000
31
0.0
0
LINE
8
0
6
CONTINUOUS
10
49.650000
20
-63.000000
30
0.0
11
42.994000
21
-63.000000
31
0.0
0
LINE
8
0
6
CONTINUOUS
10
42.994000
20
-58.300000
30
0.0
11
49.650000
21
-58.300000
31
0.0
0
LINE
8
0
6
CONTINUOUS
10
42.994000
20
-63.000000
30
0.0
11
36.754000
21
-63.000000
31
0.0
0
LINE
8
0
6
CONTINUOUS
10
36.754000
20
-58.300000
30
0.0
11
42.994000
21
-58.300000
31
0.0
0
LINE
8
0
6
CONTINUOUS
10
36.754000
20
-63.000000
30
0.0
11
31.242000
21
-63.000000
31
0.0
0
LINE
8
0
6
CONTINUOUS
10
31.242000
20
-58.300000
30
0.0
11
36.754000
21
-58.300000
31
0.0
0
LINE
8
0
6
CONTINUOUS
10
31.242000
20
-63.000000
30
0.0
11
27.082000
21
-63.000000
31
0.0
0
LINE
8
0
6
CONTINUOUS
10
27.082000
20
-58.300000
30
0.0
11
31.242000
21
-58.300000
31
0.0
0
LINE
8
0
6
CONTINUOUS
10
27.082000
20
-63.000000
30
0.0
11
24.586000
21
-63.000000
31
0.0
0
LINE
8
0
6
CONTINUOUS
10
24.586000
20
-58.300000
30
0.0
11
27.082000
21
-58.300000
31
0.0
0
LINE
8
0
6
CONTINUOUS
10
23.650000
20
-63.000000
30
0.0
11
23.650000
21
-58.300000
31
0.0
0
LINE
8
0
6
CONTINUOUS
10
24.586000
20
-63.000000
30
0.0
11
23.650000
21
-63.000000
31
0.0
0
LINE
8
0
6
CONTINUOUS
10
23.650000
20
-58.300000
30
0.0
11
24.586000
21
-58.300000
31
0.0
0
LINE
8
0
6
CONTINUOUS
10
42.994000
20
-63.000000
30
0.0
11
49.650000
21
-63.000000
31
0.0
0
LINE
8
0
6
CONTINUOUS
10
36.754000
20
-63.000000
30
0.0
11
42.994000
21
-63.000000
31
0.0
0
LINE
8
0
6
CONTINUOUS
10
31.242000
20
-63.000000
30
0.0
11
36.754000
21
-63.000000
31
0.0
0
LINE
8
0
6
CONTINUOUS
10
27.082000
20
-63.000000
30
0.0
11
31.242000
21
-63.000000
31
0.0
0
LINE
8
0
6
CONTINUOUS
10
24.586000
20
-63.000000
30
0.0
11
27.082000
21
-63.000000
31
0.0
0
LINE
8
0
6
CONTINUOUS
10
23.650000
20
-63.000000
30
0.0
11
24.586000
21
-63.000000
31
0.0
0
LINE
8
0
6
CONTINUOUS
10
56.306000
20
-58.300000
30
0.0
11
49.650000
21
-58.300000
31
0.0
0
LINE
8
0
6
CONTINUOUS
10
62.546000
20
-58.300000
30
0.0
11
56.306000
21
-58.300000
31
0.0
0
LINE
8
0
6
CONTINUOUS
10
68.058000
20
-58.300000
30
0.0
11
62.546000
21
-58.300000
31
0.0
0
LINE
8
0
6
CONTINUOUS
10
72.218000
20
-58.300000
30
0.0
11
68.058000
21
-58.300000
31
0.0
0
LINE
8
0
6
CONTINUOUS
10
74.714000
20
-58.300000
30
0.0
11
72.218000
21
-58.300000
31
0.0
0
LINE
8
0
6
CONTINUOUS
10
75.026000
20
-58.000000
30
0.0
11
75.650000
21
-58.300000
31
0.0
0
LINE
8
0
6
CONTINUOUS
10
75.650000
20
-58.300000
30
0.0
11
74.714000
21
-58.300000
31
0.0
0
LINE
8
0
6
CONTINUOUS
10
49.650000
20
-58.300000
30
0.0
11
56.306000
21
-58.300000
31
0.0
0
LINE
8
0
6
CONTINUOUS
10
56.306000
20
-63.000000
30
0.0
11
49.650000
21
-63.000000
31
0.0
0
LINE
8
0
6
CONTINUOUS
10
56.306000
20
-58.300000
30
0.0
11
62.546000
21
-58.300000
31
0.0
0
LINE
8
0
6
CONTINUOUS
10
62.546000
20
-63.000000
30
0.0
11
56.306000
21
-63.000000
31
0.0
0
LINE
8
0
6
CONTINUOUS
10
62.546000
20
-58.300000
30
0.0
11
68.058000
21
-58.300000
31
0.0
0
LINE
8
0
6
CONTINUOUS
10
68.058000
20
-63.000000
30
0.0
11
62.546000
21
-63.000000
31
0.0
0
LINE
8
0
6
CONTINUOUS
10
68.058000
20
-58.300000
30
0.0
11
72.218000
21
-58.300000
31
0.0
0
LINE
8
0
6
CONTINUOUS
10
72.218000
20
-63.000000
30
0.0
11
68.058000
21
-63.000000
31
0.0
0
LINE
8
0
6
CONTINUOUS
10
72.218000
20
-58.300000
30
0.0
11
74.714000
21
-58.300000
31
0.0
0
LINE
8
0
6
CONTINUOUS
10
74.714000
20
-63.000000
30
0.0
11
72.218000
21
-63.000000
31
0.0
0
LINE
8
0
6
CONTINUOUS
10
75.650000
20
-58.300000
30
0.0
11
75.650000
21
-63.000000
31
0.0
0
LINE
8
0
6
CONTINUOUS
10
74.714000
20
-58.300000
30
0.0
11
75.650000
21
-58.300000
31
0.0
0
LINE
8
0
6
CONTINUOUS
10
75.650000
20
-63.000000
30
0.0
11
74.714000
21
-63.000000
31
0.0
0
LINE
8
0
6
CONTINUOUS
10
49.650000
20
-63.000000
30
0.0
11
56.306000
21
-63.000000
31
0.0
0
LINE
8
0
6
CONTINUOUS
10
56.306000
20
-63.000000
30
0.0
11
62.546000
21
-63.000000
31
0.0
0
LINE
8
0
6
CONTINUOUS
10
62.546000
20
-63.000000
30
0.0
11
68.058000
21
-63.000000
31
0.0
0
LINE
8
0
6
CONTINUOUS
10
68.058000
20
-63.000000
30
0.0
11
72.218000
21
-63.000000
31
0.0
0
LINE
8
0
6
CONTINUOUS
10
72.218000
20
-63.000000
30
0.0
11
74.714000
21
-63.000000
31
0.0
0
LINE
8
0
6
CONTINUOUS
10
74.714000
20
-63.000000
30
0.0
11
75.650000
21
-63.000000
31
0.0
0
ENDSEC
0
EOF
