999
Erzeugt mit innoplus bad 
0
SECTION
2
HEADER
9
$ACADVER
1
AC1009
9
$DWGCODEPAGE
3
ISO8859-1
0
ENDSEC
0
SECTION
2
TABLES
0
TABLE
2
LAYER
70
1
0
LAYER
2
0
70
0
62
7
6
CONTINUOUS
0
ENDTAB
0
ENDSEC
0
SECTION
2
ENTITIES
0
LINE
8
0
6
CONTINUOUS
10
91.706000
20
-58.000000
30
0.0
11
92.837000
21
-58.000000
31
0.0
0
LINE
8
0
6
CONTINUOUS
10
92.837000
20
-58.000000
30
0.0
11
94.173000
21
-58.000000
31
0.0
0
LINE
8
0
6
CONTINUOUS
10
94.173000
20
-58.000000
30
0.0
11
95.530000
21
-58.000000
31
0.0
0
LINE
8
0
6
CONTINUOUS
10
95.530000
20
-58.000000
30
0.0
11
96.981000
21
-58.000000
31
0.0
0
LINE
8
0
6
CONTINUOUS
10
96.981000
20
-58.000000
30
0.0
11
98.432000
21
-58.000000
31
0.0
0
LINE
8
0
6
CONTINUOUS
10
98.432000
20
-58.000000
30
0.0
11
99.976000
21
-58.000000
31
0.0
0
LINE
8
0
6
CONTINUOUS
10
89.820000
20
-58.000000
30
0.0
11
90.709000
21
-58.000000
31
0.0
0
LINE
8
0
6
CONTINUOUS
10
89.211000
20
-58.000000
30
0.0
11
89.820000
21
-58.000000
31
0.0
0
LINE
8
0
6
CONTINUOUS
10
88.696000
20
-58.000000
30
0.0
11
89.211000
21
-58.000000
31
0.0
0
LINE
8
0
6
CONTINUOUS
10
88.415000
20
-58.000000
30
0.0
11
88.696000
21
-58.000000
31
0.0
0
LINE
8
0
6
CONTINUOUS
10
92.837000
20
-58.000000
30
0.0
11
91.706000
21
-58.000000
31
0.0
0
LINE
8
0
6
CONTINUOUS
10
94.173000
20
-58.000000
30
0.0
11
92.837000
21
-58.000000
31
0.0
0
LINE
8
0
6
CONTINUOUS
10
95.530000
20
-58.000000
30
0.0
11
94.173000
21
-58.000000
31
0.0
0
LINE
8
0
6
CONTINUOUS
10
96.981000
20
-58.000000
30
0.0
11
95.530000
21
-58.000000
31
0.0
0
LINE
8
0
6
CONTINUOUS
10
98.432000
20
-58.000000
30
0.0
11
96.981000
21
-58.000000
31
0.0
0
LINE
8
0
6
CONTINUOUS
10
99.976000
20
-58.000000
30
0.0
11
98.432000
21
-58.000000
31
0.0
0
LINE
8
0
6
CONTINUOUS
10
91.706000
20
-58.000000
30
0.0
11
90.709000
21
-58.000000
31
0.0
0
LINE
8
0
6
CONTINUOUS
10
90.709000
20
-58.000000
30
0.0
11
89.820000
21
-58.000000
31
0.0
0
LINE
8
0
6
CONTINUOUS
10
89.820000
20
-58.000000
30
0.0
11
89.211000
21
-58.000000
31
0.0
0
LINE
8
0
6
CONTINUOUS
10
89.211000
20
-58.000000
30
0.0
11
88.696000
21
-58.000000
31
0.0
0
LINE
8
0
6
CONTINUOUS
10
88.696000
20
-58.000000
30
0.0
11
88.415000
21
-58.000000
31
0.0
0
LINE
8
0
6
CONTINUOUS
10
88.415000
20
-58.000000
30
0.0
11
88.275000
21
-58.000000
31
0.0
0
LINE
8
0
6
CONTINUOUS
10
152.796000
20
-5.845000
30
0.0
11
159.966000
21
-6.601500
31
0.0
0
LINE
8
0
6
CONTINUOUS
10
147.877000
20
-5.462300
30
0.0
11
152.796000
21
-5.845000
31
0.0
0
LINE
8
0
6
CONTINUOUS
10
142.666000
20
-5.055600
30
0.0
11
147.877000
21
-5.462300
31
0.0
0
LINE
8
0
6
CONTINUOUS
10
138.479000
20
-4.696800
30
0.0
11
142.666000
21
-5.055600
31
0.0
0
LINE
8
0
6
CONTINUOUS
10
133.239000
20
-4.385900
30
0.0
11
138.479000
21
-4.696800
31
0.0
0
LINE
8
0
6
CONTINUOUS
10
128.174000
20
-4.146700
30
0.0
11
133.239000
21
-4.385900
31
0.0
0
LINE
8
0
6
CONTINUOUS
10
123.519000
20
-3.979300
30
0.0
11
128.174000
21
-4.146700
31
0.0
0
LINE
8
0
6
CONTINUOUS
10
118.606000
20
-3.859700
30
0.0
11
123.519000
21
-3.979300
31
0.0
0
LINE
8
0
6
CONTINUOUS
10
114.010000
20
-3.764000
30
0.0
11
118.606000
21
-3.859700
31
0.0
0
LINE
8
0
6
CONTINUOUS
10
111.589000
20
-3.668300
30
0.0
11
114.010000
21
-3.764000
31
0.0
0
LINE
8
0
6
CONTINUOUS
10
105.827000
20
-3.597800
30
0.0
11
111.589000
21
-3.668300
31
0.0
0
LINE
8
0
6
CONTINUOUS
10
163.458000
20
-6.996300
30
0.0
11
163.774000
21
-7.023100
31
0.0
0
LINE
8
0
6
CONTINUOUS
10
162.888000
20
-6.961700
30
0.0
11
163.458000
21
-6.996300
31
0.0
0
LINE
8
0
6
CONTINUOUS
10
162.319000
20
-6.906200
30
0.0
11
162.888000
21
-6.961700
31
0.0
0
LINE
8
0
6
CONTINUOUS
10
161.689000
20
-6.822000
30
0.0
11
162.319000
21
-6.906200
31
0.0
0
LINE
8
0
6
CONTINUOUS
10
160.897000
20
-6.719400
30
0.0
11
161.689000
21
-6.822000
31
0.0
0
LINE
8
0
6
CONTINUOUS
10
159.966000
20
-6.601500
30
0.0
11
160.897000
21
-6.719400
31
0.0
0
LINE
8
0
6
CONTINUOUS
10
163.973000
20
-7.035700
30
0.0
11
164.081000
21
-7.052000
31
0.0
0
LINE
8
0
6
CONTINUOUS
10
164.081000
20
-7.052000
30
0.0
11
164.135000
21
-7.058500
31
0.0
0
LINE
8
0
6
CONTINUOUS
10
164.217000
20
-7.067200
30
0.0
11
164.259000
21
-7.074200
31
0.0
0
LINE
8
0
6
CONTINUOUS
10
89.320000
20
-3.597800
30
0.0
11
89.976000
21
-3.597800
31
0.0
0
LINE
8
0
6
CONTINUOUS
10
89.976000
20
-3.597800
30
0.0
11
90.740000
21
-3.597800
31
0.0
0
LINE
8
0
6
CONTINUOUS
10
90.740000
20
-3.597800
30
0.0
11
91.532000
21
-3.597800
31
0.0
0
LINE
8
0
6
CONTINUOUS
10
91.532000
20
-3.597800
30
0.0
11
92.378000
21
-3.597800
31
0.0
0
LINE
8
0
6
CONTINUOUS
10
92.378000
20
-3.597800
30
0.0
11
93.225000
21
-3.597800
31
0.0
0
LINE
8
0
6
CONTINUOUS
10
93.225000
20
-3.597800
30
0.0
11
94.126000
21
-3.597800
31
0.0
0
LINE
8
0
6
CONTINUOUS
10
88.720000
20
-3.597800
30
0.0
11
89.320000
21
-3.597800
31
0.0
0
LINE
8
0
6
CONTINUOUS
10
88.201000
20
-3.597800
30
0.0
11
88.720000
21
-3.597800
31
0.0
0
LINE
8
0
6
CONTINUOUS
10
87.846000
20
-3.597800
30
0.0
11
88.201000
21
-3.597800
31
0.0
0
LINE
8
0
6
CONTINUOUS
10
87.382000
20
-3.597800
30
0.0
11
87.546000
21
-3.597800
31
0.0
0
LINE
8
0
6
CONTINUOUS
10
94.126000
20
-3.597800
30
0.0
11
105.827000
21
-3.597800
31
0.0
0
LINE
8
0
6
CONTINUOUS
10
161.189000
20
-10.307600
30
0.0
11
162.571000
21
-9.426800
31
0.0
0
LINE
8
0
6
CONTINUOUS
10
162.571000
20
-9.426800
30
0.0
11
163.897000
21
-8.132300
31
0.0
0
LINE
8
0
6
CONTINUOUS
10
163.897000
20
-8.132300
30
0.0
11
164.300000
21
-7.081000
31
0.0
0
LINE
8
0
6
CONTINUOUS
10
122.621000
20
-14.332300
30
0.0
11
126.825000
21
-13.414300
31
0.0
0
LINE
8
0
6
CONTINUOUS
10
126.825000
20
-13.414300
30
0.0
11
133.175000
21
-12.759400
31
0.0
0
LINE
8
0
6
CONTINUOUS
10
119.747000
20
-15.417300
30
0.0
11
122.621000
21
-14.332300
31
0.0
0
LINE
8
0
6
CONTINUOUS
10
138.252000
20
-12.684800
30
0.0
11
142.340000
21
-12.685000
31
0.0
0
LINE
8
0
6
CONTINUOUS
10
142.340000
20
-12.685000
30
0.0
11
147.688000
21
-12.779300
31
0.0
0
LINE
8
0
6
CONTINUOUS
10
147.688000
20
-12.779300
30
0.0
11
151.025000
21
-12.782300
31
0.0
0
LINE
8
0
6
CONTINUOUS
10
157.054000
20
-12.064500
30
0.0
11
159.078000
21
-11.412600
31
0.0
0
LINE
8
0
6
CONTINUOUS
10
153.926000
20
-12.585600
30
0.0
11
157.054000
21
-12.064500
31
0.0
0
LINE
8
0
6
CONTINUOUS
10
133.175000
20
-12.759400
30
0.0
11
138.252000
21
-12.684800
31
0.0
0
LINE
8
0
6
CONTINUOUS
10
159.078000
20
-11.412600
30
0.0
11
161.189000
21
-10.307600
31
0.0
0
LINE
8
0
6
CONTINUOUS
10
151.025000
20
-12.782300
30
0.0
11
153.926000
21
-12.585600
31
0.0
0
LINE
8
0
6
CONTINUOUS
10
111.287000
20
-36.079700
30
0.0
11
111.287000
21
-30.101400
31
0.0
0
LINE
8
0
6
CONTINUOUS
10
111.434000
20
-48.036200
30
0.0
11
111.336000
21
-42.058000
31
0.0
0
LINE
8
0
6
CONTINUOUS
10
111.336000
20
-42.058000
30
0.0
11
111.287000
21
-36.079700
31
0.0
0
LINE
8
0
6
CONTINUOUS
10
111.287000
20
-30.101400
30
0.0
11
111.631000
21
-24.088700
31
0.0
0
LINE
8
0
6
CONTINUOUS
10
111.631000
20
-24.088700
30
0.0
11
112.635000
21
-20.519100
31
0.0
0
LINE
8
0
6
CONTINUOUS
10
117.068000
20
-16.711500
30
0.0
11
119.747000
21
-15.417300
31
0.0
0
LINE
8
0
6
CONTINUOUS
10
111.531000
20
-54.014490
30
0.0
11
111.434000
21
-48.036200
31
0.0
0
LINE
8
0
6
CONTINUOUS
10
111.677000
20
-58.000000
30
0.0
11
111.531000
21
-54.014490
31
0.0
0
LINE
8
0
6
CONTINUOUS
10
112.635000
20
-20.519100
30
0.0
11
114.609000
21
-18.324500
31
0.0
0
LINE
8
0
6
CONTINUOUS
10
114.609000
20
-18.324500
30
0.0
11
117.068000
21
-16.711500
31
0.0
0
LINE
8
0
6
CONTINUOUS
10
88.519000
20
-18.144900
30
0.0
11
88.616000
21
-24.123200
31
0.0
0
LINE
8
0
6
CONTINUOUS
10
88.421000
20
-12.166700
30
0.0
11
88.519000
21
-18.144900
31
0.0
0
LINE
8
0
6
CONTINUOUS
10
88.275000
20
-9.775400
30
0.0
11
88.421000
21
-12.166700
31
0.0
0
LINE
8
0
6
CONTINUOUS
10
87.788000
20
-6.188400
30
0.0
11
88.275000
21
-9.775400
31
0.0
0
LINE
8
0
6
CONTINUOUS
10
87.300000
20
-3.597800
30
0.0
11
87.788000
21
-6.188400
31
0.0
0
LINE
8
0
6
CONTINUOUS
10
88.616000
20
-24.123200
30
0.0
11
88.665000
21
-30.101400
31
0.0
0
LINE
8
0
6
CONTINUOUS
10
88.665000
20
-30.101400
30
0.0
11
88.665000
21
-36.079700
31
0.0
0
LINE
8
0
6
CONTINUOUS
10
88.665000
20
-36.079700
30
0.0
11
88.616000
21
-42.058000
31
0.0
0
LINE
8
0
6
CONTINUOUS
10
88.616000
20
-42.058000
30
0.0
11
88.519000
21
-48.036200
31
0.0
0
LINE
8
0
6
CONTINUOUS
10
88.519000
20
-48.036200
30
0.0
11
88.421000
21
-54.014490
31
0.0
0
LINE
8
0
6
CONTINUOUS
10
88.421000
20
-54.014490
30
0.0
11
88.275000
21
-58.000000
31
0.0
0
LINE
8
0
6
CONTINUOUS
10
22.404000
20
-22.927500
30
0.0
11
22.596000
21
-36.079700
31
0.0
0
LINE
8
0
6
CONTINUOUS
10
16.233000
20
-58.000000
30
0.0
11
14.031000
21
-58.000000
31
0.0
0
LINE
8
0
6
CONTINUOUS
10
14.031000
20
-58.000000
30
0.0
11
11.446000
21
-58.000000
31
0.0
0
LINE
8
0
6
CONTINUOUS
10
11.446000
20
-58.000000
30
0.0
11
8.769000
21
-58.000000
31
0.0
0
LINE
8
0
6
CONTINUOUS
10
8.769000
20
-58.000000
30
0.0
11
5.908000
21
-58.000000
31
0.0
0
LINE
8
0
6
CONTINUOUS
10
5.908000
20
-58.000000
30
0.0
11
3.046000
21
-58.000000
31
0.0
0
LINE
8
0
6
CONTINUOUS
10
3.046000
20
-58.000000
30
0.0
11
0.000000
21
-58.000000
31
0.0
0
LINE
8
0
6
CONTINUOUS
10
14.031000
20
-58.000000
30
0.0
11
16.233000
21
-58.000000
31
0.0
0
LINE
8
0
6
CONTINUOUS
10
11.446000
20
-58.000000
30
0.0
11
14.031000
21
-58.000000
31
0.0
0
LINE
8
0
6
CONTINUOUS
10
8.769000
20
-58.000000
30
0.0
11
11.446000
21
-58.000000
31
0.0
0
LINE
8
0
6
CONTINUOUS
10
5.908000
20
-58.000000
30
0.0
11
8.769000
21
-58.000000
31
0.0
0
LINE
8
0
6
CONTINUOUS
10
3.046000
20
-58.000000
30
0.0
11
5.908000
21
-58.000000
31
0.0
0
LINE
8
0
6
CONTINUOUS
10
0.000000
20
-58.000000
30
0.0
11
3.046000
21
-58.000000
31
0.0
0
LINE
8
0
6
CONTINUOUS
10
22.788000
20
-49.231900
30
0.0
11
23.077000
21
-58.000000
31
0.0
0
LINE
8
0
6
CONTINUOUS
10
22.596000
20
-36.079700
30
0.0
11
22.788000
21
-49.231900
31
0.0
0
LINE
8
0
6
CONTINUOUS
10
22.308000
20
3.376800
30
0.0
11
22.308000
21
-9.775400
31
0.0
0
LINE
8
0
6
CONTINUOUS
10
22.308000
20
-9.775400
30
0.0
11
22.404000
21
-22.927500
31
0.0
0
LINE
8
0
6
CONTINUOUS
10
25.000000
20
57.583000
30
0.0
11
25.000000
21
56.741000
31
0.0
0
LINE
8
0
6
CONTINUOUS
10
25.000000
20
58.478000
30
0.0
11
25.000000
21
57.583000
31
0.0
0
LINE
8
0
6
CONTINUOUS
10
25.000000
20
59.951000
30
0.0
11
25.000000
21
59.267000
31
0.0
0
LINE
8
0
6
CONTINUOUS
10
25.000000
20
60.477000
30
0.0
11
25.000000
21
59.951000
31
0.0
0
LINE
8
0
6
CONTINUOUS
10
25.000000
20
60.846000
30
0.0
11
25.000000
21
60.477000
31
0.0
0
LINE
8
0
6
CONTINUOUS
10
25.000000
20
61.319000
30
0.0
11
25.000000
21
61.109000
31
0.0
0
LINE
8
0
6
CONTINUOUS
10
25.000000
20
61.685000
30
0.0
11
25.000000
21
61.530000
31
0.0
0
LINE
8
0
6
CONTINUOUS
10
21.037000
20
54.208000
30
0.0
11
19.553000
21
54.149000
31
0.0
0
LINE
8
0
6
CONTINUOUS
10
22.486000
20
54.284000
30
0.0
11
21.037000
21
54.208000
31
0.0
0
LINE
8
0
6
CONTINUOUS
10
23.435000
20
54.406000
30
0.0
11
22.486000
21
54.284000
31
0.0
0
LINE
8
0
6
CONTINUOUS
10
24.204000
20
54.592000
30
0.0
11
23.435000
21
54.406000
31
0.0
0
LINE
8
0
6
CONTINUOUS
10
24.777000
20
54.817000
30
0.0
11
24.204000
21
54.592000
31
0.0
0
LINE
8
0
6
CONTINUOUS
10
25.000000
20
55.077000
30
0.0
11
24.777000
21
54.817000
31
0.0
0
LINE
8
0
6
CONTINUOUS
10
17.978000
20
54.122000
30
0.0
11
15.044000
21
54.086000
31
0.0
0
LINE
8
0
6
CONTINUOUS
10
15.044000
20
54.086000
30
0.0
11
11.287000
21
54.071000
31
0.0
0
LINE
8
0
6
CONTINUOUS
10
11.287000
20
54.071000
30
0.0
11
6.392000
21
54.052000
31
0.0
0
LINE
8
0
6
CONTINUOUS
10
6.392000
20
54.052000
30
0.0
11
3.293000
21
54.037000
31
0.0
0
LINE
8
0
6
CONTINUOUS
10
3.293000
20
54.037000
30
0.0
11
0.000000
21
54.022000
31
0.0
0
LINE
8
0
6
CONTINUOUS
10
23.000000
20
50.943000
30
0.0
11
23.000000
21
50.752000
31
0.0
0
LINE
8
0
6
CONTINUOUS
10
23.000000
20
50.943000
30
0.0
11
24.100000
21
52.346000
31
0.0
0
LINE
8
0
6
CONTINUOUS
10
24.700000
20
53.550000
30
0.0
11
24.100000
21
52.297000
31
0.0
0
LINE
8
0
6
CONTINUOUS
10
25.000000
20
55.077000
30
0.0
11
24.700000
21
53.550000
31
0.0
0
LINE
8
0
6
CONTINUOUS
10
17.600000
20
45.891000
30
0.0
11
19.800000
21
47.322000
31
0.0
0
LINE
8
0
6
CONTINUOUS
10
19.800000
20
47.322000
30
0.0
11
21.700000
21
48.991000
31
0.0
0
LINE
8
0
6
CONTINUOUS
10
21.700000
20
48.991000
30
0.0
11
23.000000
21
50.721000
31
0.0
0
LINE
8
0
6
CONTINUOUS
10
24.100000
20
52.657000
30
0.0
11
23.000000
21
50.811000
31
0.0
0
LINE
8
0
6
CONTINUOUS
10
15.200000
20
44.579000
30
0.0
11
17.600000
21
45.891000
31
0.0
0
LINE
8
0
6
CONTINUOUS
10
12.400000
20
43.447000
30
0.0
11
15.200000
21
44.579000
31
0.0
0
LINE
8
0
6
CONTINUOUS
10
9.500000
20
42.671000
30
0.0
11
12.400000
21
43.447000
31
0.0
0
LINE
8
0
6
CONTINUOUS
10
6.400000
20
42.016000
30
0.0
11
9.500000
21
42.671000
31
0.0
0
LINE
8
0
6
CONTINUOUS
10
3.300000
20
41.658000
30
0.0
11
6.400000
21
42.016000
31
0.0
0
LINE
8
0
6
CONTINUOUS
10
0.000000
20
41.479000
30
0.0
11
3.300000
21
41.658000
31
0.0
0
LINE
8
0
6
CONTINUOUS
10
23.000000
20
51.425000
30
0.0
11
21.437000
21
47.552000
31
0.0
0
LINE
8
0
6
CONTINUOUS
10
22.404000
20
22.945500
30
0.0
11
22.308000
21
3.376800
31
0.0
0
LINE
8
0
6
CONTINUOUS
10
22.596000
20
37.864000
30
0.0
11
22.788000
21
46.641000
31
0.0
0
LINE
8
0
6
CONTINUOUS
10
22.788000
20
46.641000
30
0.0
11
23.077000
21
51.310000
31
0.0
0
LINE
8
0
6
CONTINUOUS
10
-19.552000
20
54.149000
30
0.0
11
-21.037000
21
54.208000
31
0.0
0
LINE
8
0
6
CONTINUOUS
10
-23.435000
20
54.406000
30
0.0
11
-24.204000
21
54.592000
31
0.0
0
LINE
8
0
6
CONTINUOUS
10
-17.978000
20
54.122000
30
0.0
11
-19.552000
21
54.149000
31
0.0
0
LINE
8
0
6
CONTINUOUS
10
-11.287000
20
54.071000
30
0.0
11
-15.044000
21
54.086000
31
0.0
0
LINE
8
0
6
CONTINUOUS
10
-6.392000
20
54.052000
30
0.0
11
-11.287000
21
54.071000
31
0.0
0
LINE
8
0
6
CONTINUOUS
10
-3.293000
20
54.037000
30
0.0
11
-6.392000
21
54.052000
31
0.0
0
LINE
8
0
6
CONTINUOUS
10
0.000000
20
54.022000
30
0.0
11
-3.293000
21
54.037000
31
0.0
0
LINE
8
0
6
CONTINUOUS
10
-20.031000
20
-58.000000
30
0.0
11
-21.231000
21
-58.000000
31
0.0
0
LINE
8
0
6
CONTINUOUS
10
-21.231000
20
-58.000000
30
0.0
11
-22.246000
21
-58.000000
31
0.0
0
LINE
8
0
6
CONTINUOUS
10
-22.800000
20
-58.000000
30
0.0
11
-23.077000
21
-58.000000
31
0.0
0
LINE
8
0
6
CONTINUOUS
10
-25.000000
20
55.077000
30
0.0
11
-25.000000
21
56.741000
31
0.0
0
LINE
8
0
6
CONTINUOUS
10
-25.000000
20
57.583000
30
0.0
11
-25.000000
21
58.478000
31
0.0
0
LINE
8
0
6
CONTINUOUS
10
-25.000000
20
58.478000
30
0.0
11
-25.000000
21
59.267000
31
0.0
0
LINE
8
0
6
CONTINUOUS
10
-25.000000
20
60.477000
30
0.0
11
-25.000000
21
60.846000
31
0.0
0
LINE
8
0
6
CONTINUOUS
10
-25.000000
20
60.846000
30
0.0
11
-25.000000
21
61.109000
31
0.0
0
LINE
8
0
6
CONTINUOUS
10
-25.000000
20
61.319000
30
0.0
11
-25.000000
21
61.530000
31
0.0
0
LINE
8
0
6
CONTINUOUS
10
-23.000000
20
50.752000
30
0.0
11
-23.000000
21
50.943000
31
0.0
0
LINE
8
0
6
CONTINUOUS
10
-23.000000
20
50.811000
30
0.0
11
-23.000000
21
50.752000
31
0.0
0
LINE
8
0
6
CONTINUOUS
10
-24.100000
20
52.346000
30
0.0
11
-23.000000
21
50.943000
31
0.0
0
LINE
8
0
6
CONTINUOUS
10
-24.100000
20
52.297000
30
0.0
11
-24.700000
21
53.550000
31
0.0
0
LINE
8
0
6
CONTINUOUS
10
-24.700000
20
53.550000
30
0.0
11
-25.000000
21
55.077000
31
0.0
0
LINE
8
0
6
CONTINUOUS
10
-19.800000
20
47.322000
30
0.0
11
-17.600000
21
45.891000
31
0.0
0
LINE
8
0
6
CONTINUOUS
10
-21.700000
20
48.991000
30
0.0
11
-19.800000
21
47.322000
31
0.0
0
LINE
8
0
6
CONTINUOUS
10
-23.000000
20
50.721000
30
0.0
11
-21.700000
21
48.991000
31
0.0
0
LINE
8
0
6
CONTINUOUS
10
-24.100000
20
52.569000
30
0.0
11
-23.000000
21
50.721000
31
0.0
0
LINE
8
0
6
CONTINUOUS
10
-17.600000
20
45.891000
30
0.0
11
-15.200000
21
44.579000
31
0.0
0
LINE
8
0
6
CONTINUOUS
10
-15.200000
20
44.579000
30
0.0
11
-12.400000
21
43.447000
31
0.0
0
LINE
8
0
6
CONTINUOUS
10
-12.400000
20
43.447000
30
0.0
11
-9.500000
21
42.671000
31
0.0
0
LINE
8
0
6
CONTINUOUS
10
-9.500000
20
42.671000
30
0.0
11
-6.400000
21
42.016000
31
0.0
0
LINE
8
0
6
CONTINUOUS
10
-6.400000
20
42.016000
30
0.0
11
-3.300000
21
41.658000
31
0.0
0
LINE
8
0
6
CONTINUOUS
10
-3.300000
20
41.658000
30
0.0
11
0.000000
21
41.479000
31
0.0
0
LINE
8
0
6
CONTINUOUS
10
-21.437000
20
47.552000
30
0.0
11
-23.000000
21
51.425000
31
0.0
0
LINE
8
0
6
CONTINUOUS
10
-21.231000
20
-58.000000
30
0.0
11
-20.031000
21
-58.000000
31
0.0
0
LINE
8
0
6
CONTINUOUS
10
-22.246000
20
-58.000000
30
0.0
11
-21.231000
21
-58.000000
31
0.0
0
LINE
8
0
6
CONTINUOUS
10
-23.077000
20
-58.000000
30
0.0
11
-22.800000
21
-58.000000
31
0.0
0
LINE
8
0
6
CONTINUOUS
10
-21.437000
20
47.552000
30
0.0
11
-22.373000
21
50.577000
31
0.0
0
LINE
8
0
6
CONTINUOUS
10
-22.404000
20
22.945500
30
0.0
11
-22.596000
21
37.864000
31
0.0
0
LINE
8
0
6
CONTINUOUS
10
-22.596000
20
37.864000
30
0.0
11
-22.788000
21
46.641000
31
0.0
0
LINE
8
0
6
CONTINUOUS
10
-22.788000
20
46.641000
30
0.0
11
-23.077000
21
51.310000
31
0.0
0
LINE
8
0
6
CONTINUOUS
10
-22.308000
20
3.376800
30
0.0
11
-22.404000
21
22.945500
31
0.0
0
LINE
8
0
6
CONTINUOUS
10
-22.308000
20
-9.775400
30
0.0
11
-22.308000
21
3.376800
31
0.0
0
LINE
8
0
6
CONTINUOUS
10
-22.404000
20
-22.927500
30
0.0
11
-22.308000
21
-9.775400
31
0.0
0
LINE
8
0
6
CONTINUOUS
10
-22.596000
20
-36.079700
30
0.0
11
-22.404000
21
-22.927500
31
0.0
0
LINE
8
0
6
CONTINUOUS
10
-22.788000
20
-49.231900
30
0.0
11
-22.596000
21
-36.079700
31
0.0
0
LINE
8
0
6
CONTINUOUS
10
-23.077000
20
-58.000000
30
0.0
11
-22.788000
21
-49.231900
31
0.0
0
LINE
8
0
6
CONTINUOUS
10
-91.705900
20
-58.000000
30
0.0
11
-92.837300
21
-58.000000
31
0.0
0
LINE
8
0
6
CONTINUOUS
10
-92.837300
20
-58.000000
30
0.0
11
-94.172500
21
-58.000000
31
0.0
0
LINE
8
0
6
CONTINUOUS
10
-94.172500
20
-58.000000
30
0.0
11
-95.529800
21
-58.000000
31
0.0
0
LINE
8
0
6
CONTINUOUS
10
-95.529800
20
-58.000000
30
0.0
11
-96.980800
21
-58.000000
31
0.0
0
LINE
8
0
6
CONTINUOUS
10
-96.980800
20
-58.000000
30
0.0
11
-98.431700
21
-58.000000
31
0.0
0
LINE
8
0
6
CONTINUOUS
10
-98.431700
20
-58.000000
30
0.0
11
-99.976300
21
-58.000000
31
0.0
0
LINE
8
0
6
CONTINUOUS
10
-89.819700
20
-58.000000
30
0.0
11
-90.708900
21
-58.000000
31
0.0
0
LINE
8
0
6
CONTINUOUS
10
-89.211200
20
-58.000000
30
0.0
11
-89.819700
21
-58.000000
31
0.0
0
LINE
8
0
6
CONTINUOUS
10
-88.696300
20
-58.000000
30
0.0
11
-89.211200
21
-58.000000
31
0.0
0
LINE
8
0
6
CONTINUOUS
10
-88.415500
20
-58.000000
30
0.0
11
-88.696300
21
-58.000000
31
0.0
0
LINE
8
0
6
CONTINUOUS
10
-92.837300
20
-58.000000
30
0.0
11
-91.705900
21
-58.000000
31
0.0
0
LINE
8
0
6
CONTINUOUS
10
-94.172500
20
-58.000000
30
0.0
11
-92.837300
21
-58.000000
31
0.0
0
LINE
8
0
6
CONTINUOUS
10
-95.529800
20
-58.000000
30
0.0
11
-94.172500
21
-58.000000
31
0.0
0
LINE
8
0
6
CONTINUOUS
10
-96.980800
20
-58.000000
30
0.0
11
-95.529800
21
-58.000000
31
0.0
0
LINE
8
0
6
CONTINUOUS
10
-98.431700
20
-58.000000
30
0.0
11
-96.980800
21
-58.000000
31
0.0
0
LINE
8
0
6
CONTINUOUS
10
-99.976300
20
-58.000000
30
0.0
11
-98.431700
21
-58.000000
31
0.0
0
LINE
8
0
6
CONTINUOUS
10
-91.705900
20
-58.000000
30
0.0
11
-90.708900
21
-58.000000
31
0.0
0
LINE
8
0
6
CONTINUOUS
10
-90.708900
20
-58.000000
30
0.0
11
-89.819700
21
-58.000000
31
0.0
0
LINE
8
0
6
CONTINUOUS
10
-89.819700
20
-58.000000
30
0.0
11
-89.211200
21
-58.000000
31
0.0
0
LINE
8
0
6
CONTINUOUS
10
-89.211200
20
-58.000000
30
0.0
11
-88.696300
21
-58.000000
31
0.0
0
LINE
8
0
6
CONTINUOUS
10
-88.696300
20
-58.000000
30
0.0
11
-88.415500
21
-58.000000
31
0.0
0
LINE
8
0
6
CONTINUOUS
10
-88.415500
20
-58.000000
30
0.0
11
-88.275100
21
-58.000000
31
0.0
0
LINE
8
0
6
CONTINUOUS
10
-152.795600
20
-5.845000
30
0.0
11
-159.966300
21
-6.601500
31
0.0
0
LINE
8
0
6
CONTINUOUS
10
-147.877100
20
-5.462300
30
0.0
11
-152.795600
21
-5.845000
31
0.0
0
LINE
8
0
6
CONTINUOUS
10
-142.665800
20
-5.055600
30
0.0
11
-147.877100
21
-5.462300
31
0.0
0
LINE
8
0
6
CONTINUOUS
10
-138.479300
20
-4.696800
30
0.0
11
-142.665800
21
-5.055600
31
0.0
0
LINE
8
0
6
CONTINUOUS
10
-133.238700
20
-4.385900
30
0.0
11
-138.479300
21
-4.696800
31
0.0
0
LINE
8
0
6
CONTINUOUS
10
-128.173800
20
-4.146700
30
0.0
11
-133.238700
21
-4.385900
31
0.0
0
LINE
8
0
6
CONTINUOUS
10
-123.518800
20
-3.979300
30
0.0
11
-128.173800
21
-4.146700
31
0.0
0
LINE
8
0
6
CONTINUOUS
10
-118.606200
20
-3.859700
30
0.0
11
-123.518800
21
-3.979300
31
0.0
0
LINE
8
0
6
CONTINUOUS
10
-114.009700
20
-3.764000
30
0.0
11
-118.606200
21
-3.859700
31
0.0
0
LINE
8
0
6
CONTINUOUS
10
-111.588600
20
-3.668300
30
0.0
11
-114.009700
21
-3.764000
31
0.0
0
LINE
8
0
6
CONTINUOUS
10
-105.826800
20
-3.597800
30
0.0
11
-111.588600
21
-3.668300
31
0.0
0
LINE
8
0
6
CONTINUOUS
10
-163.457700
20
-6.996300
30
0.0
11
-163.773800
21
-7.023100
31
0.0
0
LINE
8
0
6
CONTINUOUS
10
-162.888000
20
-6.961700
30
0.0
11
-163.457700
21
-6.996300
31
0.0
0
LINE
8
0
6
CONTINUOUS
10
-162.319500
20
-6.906200
30
0.0
11
-162.888000
21
-6.961700
31
0.0
0
LINE
8
0
6
CONTINUOUS
10
-161.689400
20
-6.822000
30
0.0
11
-162.319500
21
-6.906200
31
0.0
0
LINE
8
0
6
CONTINUOUS
10
-160.897000
20
-6.719400
30
0.0
11
-161.689400
21
-6.822000
31
0.0
0
LINE
8
0
6
CONTINUOUS
10
-159.966300
20
-6.601500
30
0.0
11
-160.897000
21
-6.719400
31
0.0
0
LINE
8
0
6
CONTINUOUS
10
-163.972700
20
-7.035700
30
0.0
11
-164.080600
21
-7.052000
31
0.0
0
LINE
8
0
6
CONTINUOUS
10
-164.080600
20
-7.052000
30
0.0
11
-164.134600
21
-7.058500
31
0.0
0
LINE
8
0
6
CONTINUOUS
10
-164.217300
20
-7.067200
30
0.0
11
-164.259500
21
-7.074200
31
0.0
0
LINE
8
0
6
CONTINUOUS
10
-89.320400
20
-3.597800
30
0.0
11
-89.975700
21
-3.597800
31
0.0
0
LINE
8
0
6
CONTINUOUS
10
-89.975700
20
-3.597800
30
0.0
11
-90.740100
21
-3.597800
31
0.0
0
LINE
8
0
6
CONTINUOUS
10
-90.740100
20
-3.597800
30
0.0
11
-91.531900
21
-3.597800
31
0.0
0
LINE
8
0
6
CONTINUOUS
10
-91.531900
20
-3.597800
30
0.0
11
-92.378300
21
-3.597800
31
0.0
0
LINE
8
0
6
CONTINUOUS
10
-92.378300
20
-3.597800
30
0.0
11
-93.224700
21
-3.597800
31
0.0
0
LINE
8
0
6
CONTINUOUS
10
-93.224700
20
-3.597800
30
0.0
11
-94.125700
21
-3.597800
31
0.0
0
LINE
8
0
6
CONTINUOUS
10
-88.719700
20
-3.597800
30
0.0
11
-89.320400
21
-3.597800
31
0.0
0
LINE
8
0
6
CONTINUOUS
10
-88.201000
20
-3.597800
30
0.0
11
-88.719700
21
-3.597800
31
0.0
0
LINE
8
0
6
CONTINUOUS
10
-87.846100
20
-3.597800
30
0.0
11
-88.201000
21
-3.597800
31
0.0
0
LINE
8
0
6
CONTINUOUS
10
-87.381900
20
-3.597800
30
0.0
11
-87.545700
21
-3.597800
31
0.0
0
LINE
8
0
6
CONTINUOUS
10
-94.125700
20
-3.597800
30
0.0
11
-105.826800
21
-3.597800
31
0.0
0
LINE
8
0
6
CONTINUOUS
10
-161.189400
20
-10.307600
30
0.0
11
-162.571300
21
-9.426800
31
0.0
0
LINE
8
0
6
CONTINUOUS
10
-162.571300
20
-9.426800
30
0.0
11
-163.897000
21
-8.132300
31
0.0
0
LINE
8
0
6
CONTINUOUS
10
-163.897000
20
-8.132300
30
0.0
11
-164.300000
21
-7.081000
31
0.0
0
LINE
8
0
6
CONTINUOUS
10
-122.620600
20
-14.332300
30
0.0
11
-126.825000
21
-13.414300
31
0.0
0
LINE
8
0
6
CONTINUOUS
10
-126.825000
20
-13.414300
30
0.0
11
-133.175000
21
-12.759400
31
0.0
0
LINE
8
0
6
CONTINUOUS
10
-119.747100
20
-15.417300
30
0.0
11
-122.620600
21
-14.332300
31
0.0
0
LINE
8
0
6
CONTINUOUS
10
-138.251600
20
-12.684800
30
0.0
11
-142.339800
21
-12.685000
31
0.0
0
LINE
8
0
6
CONTINUOUS
10
-142.339800
20
-12.685000
30
0.0
11
-147.687600
21
-12.779300
31
0.0
0
LINE
8
0
6
CONTINUOUS
10
-147.687600
20
-12.779300
30
0.0
11
-151.024800
21
-12.782300
31
0.0
0
LINE
8
0
6
CONTINUOUS
10
-157.054400
20
-12.064500
30
0.0
11
-159.078000
21
-11.412600
31
0.0
0
LINE
8
0
6
CONTINUOUS
10
-153.926000
20
-12.585600
30
0.0
11
-157.054400
21
-12.064500
31
0.0
0
LINE
8
0
6
CONTINUOUS
10
-133.175000
20
-12.759400
30
0.0
11
-138.251600
21
-12.684800
31
0.0
0
LINE
8
0
6
CONTINUOUS
10
-159.078000
20
-11.412600
30
0.0
11
-161.189400
21
-10.307600
31
0.0
0
LINE
8
0
6
CONTINUOUS
10
-151.024800
20
-12.782300
30
0.0
11
-153.926000
21
-12.585600
31
0.0
0
LINE
8
0
6
CONTINUOUS
10
-111.287400
20
-36.079700
30
0.0
11
-111.287400
21
-30.101400
31
0.0
0
LINE
8
0
6
CONTINUOUS
10
-111.433600
20
-48.036200
30
0.0
11
-111.336100
21
-42.058000
31
0.0
0
LINE
8
0
6
CONTINUOUS
10
-111.336100
20
-42.058000
30
0.0
11
-111.287400
21
-36.079700
31
0.0
0
LINE
8
0
6
CONTINUOUS
10
-111.287400
20
-30.101400
30
0.0
11
-111.631300
21
-24.088700
31
0.0
0
LINE
8
0
6
CONTINUOUS
10
-111.631300
20
-24.088700
30
0.0
11
-112.634600
21
-20.519100
31
0.0
0
LINE
8
0
6
CONTINUOUS
10
-117.068400
20
-16.711500
30
0.0
11
-119.747100
21
-15.417300
31
0.0
0
LINE
8
0
6
CONTINUOUS
10
-111.531200
20
-54.014490
30
0.0
11
-111.433600
21
-48.036200
31
0.0
0
LINE
8
0
6
CONTINUOUS
10
-111.677400
20
-58.000000
30
0.0
11
-111.531200
21
-54.014490
31
0.0
0
LINE
8
0
6
CONTINUOUS
10
-112.634600
20
-20.519100
30
0.0
11
-114.608800
21
-18.324500
31
0.0
0
LINE
8
0
6
CONTINUOUS
10
-114.608800
20
-18.324500
30
0.0
11
-117.068400
21
-16.711500
31
0.0
0
LINE
8
0
6
CONTINUOUS
10
-88.518900
20
-18.144900
30
0.0
11
-88.616400
21
-24.123200
31
0.0
0
LINE
8
0
6
CONTINUOUS
10
-88.421400
20
-12.166700
30
0.0
11
-88.518900
21
-18.144900
31
0.0
0
LINE
8
0
6
CONTINUOUS
10
-88.275100
20
-9.775400
30
0.0
11
-88.421400
21
-12.166700
31
0.0
0
LINE
8
0
6
CONTINUOUS
10
-87.787500
20
-6.188400
30
0.0
11
-88.275100
21
-9.775400
31
0.0
0
LINE
8
0
6
CONTINUOUS
10
-87.300000
20
-3.597800
30
0.0
11
-87.787500
21
-6.188400
31
0.0
0
LINE
8
0
6
CONTINUOUS
10
-88.616400
20
-24.123200
30
0.0
11
-88.665100
21
-30.101400
31
0.0
0
LINE
8
0
6
CONTINUOUS
10
-88.665100
20
-30.101400
30
0.0
11
-88.665100
21
-36.079700
31
0.0
0
LINE
8
0
6
CONTINUOUS
10
-88.665100
20
-36.079700
30
0.0
11
-88.616400
21
-42.058000
31
0.0
0
LINE
8
0
6
CONTINUOUS
10
-88.616400
20
-42.058000
30
0.0
11
-88.518900
21
-48.036200
31
0.0
0
LINE
8
0
6
CONTINUOUS
10
-88.518900
20
-48.036200
30
0.0
11
-88.421400
21
-54.014490
31
0.0
0
LINE
8
0
6
CONTINUOUS
10
-88.421400
20
-54.014490
30
0.0
11
-88.275100
21
-58.000000
31
0.0
0
LINE
8
0
6
CONTINUOUS
10
142.666000
20
-5.056000
30
0.0
11
138.479000
21
-4.697000
31
0.0
0
LINE
8
0
6
CONTINUOUS
10
138.479000
20
-4.697000
30
0.0
11
133.239000
21
-4.386000
31
0.0
0
LINE
8
0
6
CONTINUOUS
10
133.239000
20
-4.386000
30
0.0
11
128.174000
21
-4.147000
31
0.0
0
LINE
8
0
6
CONTINUOUS
10
128.174000
20
-4.147000
30
0.0
11
123.519000
21
-3.979000
31
0.0
0
LINE
8
0
6
CONTINUOUS
10
161.427000
20
-6.146000
30
0.0
11
160.004000
21
-6.011000
31
0.0
0
LINE
8
0
6
CONTINUOUS
10
161.994000
20
-6.205000
30
0.0
11
161.427000
21
-6.146000
31
0.0
0
LINE
8
0
6
CONTINUOUS
10
161.994000
20
-6.205000
30
0.0
11
160.004000
21
-6.011000
31
0.0
0
LINE
8
0
6
CONTINUOUS
10
162.553000
20
-6.254000
30
0.0
11
161.994000
21
-6.205000
31
0.0
0
LINE
8
0
6
CONTINUOUS
10
163.373000
20
-6.328000
30
0.0
11
160.004000
21
-6.011000
31
0.0
0
LINE
8
0
6
CONTINUOUS
10
163.084000
20
-6.308000
30
0.0
11
163.373000
21
-6.328000
31
0.0
0
LINE
8
0
6
CONTINUOUS
10
162.553000
20
-6.254000
30
0.0
11
163.084000
21
-6.308000
31
0.0
0
LINE
8
0
6
CONTINUOUS
10
161.994000
20
-6.205000
30
0.0
11
162.553000
21
-6.254000
31
0.0
0
LINE
8
0
6
CONTINUOUS
10
161.427000
20
-6.146000
30
0.0
11
161.994000
21
-6.205000
31
0.0
0
LINE
8
0
6
CONTINUOUS
10
163.373000
20
-6.328000
30
0.0
11
163.454000
21
-6.336000
31
0.0
0
LINE
8
0
6
CONTINUOUS
10
163.454000
20
-6.336000
30
0.0
11
163.553000
21
-6.349000
31
0.0
0
LINE
8
0
6
CONTINUOUS
10
163.953000
20
-6.622000
30
0.0
11
163.809000
21
-6.605000
31
0.0
0
LINE
8
0
6
CONTINUOUS
10
163.553000
20
-6.349000
30
0.0
11
163.616000
21
-6.356000
31
0.0
0
LINE
8
0
6
CONTINUOUS
10
164.008000
20
-6.629000
30
0.0
11
163.953000
21
-6.622000
31
0.0
0
LINE
8
0
6
CONTINUOUS
10
163.616000
20
-6.356000
30
0.0
11
163.670000
21
-6.366000
31
0.0
0
LINE
8
0
6
CONTINUOUS
10
164.129000
20
-6.646000
30
0.0
11
164.077000
21
-6.637000
31
0.0
0
LINE
8
0
6
CONTINUOUS
10
163.774000
20
-7.023000
30
0.0
11
163.458000
21
-6.996000
31
0.0
0
LINE
8
0
6
CONTINUOUS
10
163.458000
20
-6.996000
30
0.0
11
162.888000
21
-6.962000
31
0.0
0
LINE
8
0
6
CONTINUOUS
10
162.888000
20
-6.962000
30
0.0
11
162.319000
21
-6.906000
31
0.0
0
LINE
8
0
6
CONTINUOUS
10
162.319000
20
-6.906000
30
0.0
11
161.689000
21
-6.822000
31
0.0
0
LINE
8
0
6
CONTINUOUS
10
161.689000
20
-6.822000
30
0.0
11
160.897000
21
-6.719000
31
0.0
0
LINE
8
0
6
CONTINUOUS
10
160.897000
20
-6.719000
30
0.0
11
159.966000
21
-6.602000
31
0.0
0
LINE
8
0
6
CONTINUOUS
10
159.991000
20
-6.208000
30
0.0
11
160.841000
21
-6.317000
31
0.0
0
LINE
8
0
6
CONTINUOUS
10
163.809000
20
-6.605000
30
0.0
11
163.953000
21
-6.622000
31
0.0
0
LINE
8
0
6
CONTINUOUS
10
164.081000
20
-7.052000
30
0.0
11
163.973000
21
-7.036000
31
0.0
0
LINE
8
0
6
CONTINUOUS
10
163.953000
20
-6.622000
30
0.0
11
164.008000
21
-6.629000
31
0.0
0
LINE
8
0
6
CONTINUOUS
10
164.135000
20
-7.059000
30
0.0
11
164.081000
21
-7.052000
31
0.0
0
LINE
8
0
6
CONTINUOUS
10
164.259000
20
-7.074000
30
0.0
11
164.217000
21
-7.067000
31
0.0
0
LINE
8
0
6
CONTINUOUS
10
164.300000
20
-7.081000
30
0.0
11
164.259000
21
-7.074000
31
0.0
0
LINE
8
0
6
CONTINUOUS
10
159.966000
20
-6.602000
30
0.0
11
152.796000
21
-5.845000
31
0.0
0
LINE
8
0
6
CONTINUOUS
10
152.796000
20
-5.845000
30
0.0
11
147.877000
21
-5.462000
31
0.0
0
LINE
8
0
6
CONTINUOUS
10
147.877000
20
-5.462000
30
0.0
11
142.666000
21
-5.056000
31
0.0
0
LINE
8
0
6
CONTINUOUS
10
142.768000
20
-4.649000
30
0.0
11
147.965000
21
-5.056000
31
0.0
0
LINE
8
0
6
CONTINUOUS
10
87.789000
20
-3.199000
30
0.0
11
87.640000
21
-3.199000
31
0.0
0
LINE
8
0
6
CONTINUOUS
10
89.976000
20
-3.598000
30
0.0
11
89.320000
21
-3.598000
31
0.0
0
LINE
8
0
6
CONTINUOUS
10
90.740000
20
-3.598000
30
0.0
11
89.976000
21
-3.598000
31
0.0
0
LINE
8
0
6
CONTINUOUS
10
91.532000
20
-3.598000
30
0.0
11
90.740000
21
-3.598000
31
0.0
0
LINE
8
0
6
CONTINUOUS
10
92.378000
20
-3.598000
30
0.0
11
91.532000
21
-3.598000
31
0.0
0
LINE
8
0
6
CONTINUOUS
10
93.225000
20
-3.598000
30
0.0
11
92.378000
21
-3.598000
31
0.0
0
LINE
8
0
6
CONTINUOUS
10
94.126000
20
-3.598000
30
0.0
11
93.225000
21
-3.598000
31
0.0
0
LINE
8
0
6
CONTINUOUS
10
89.320000
20
-3.598000
30
0.0
11
88.720000
21
-3.598000
31
0.0
0
LINE
8
0
6
CONTINUOUS
10
88.720000
20
-3.598000
30
0.0
11
88.201000
21
-3.598000
31
0.0
0
LINE
8
0
6
CONTINUOUS
10
88.201000
20
-3.598000
30
0.0
11
87.846000
21
-3.598000
31
0.0
0
LINE
8
0
6
CONTINUOUS
10
87.846000
20
-3.598000
30
0.0
11
87.546000
21
-3.598000
31
0.0
0
LINE
8
0
6
CONTINUOUS
10
87.546000
20
-3.598000
30
0.0
11
87.382000
21
-3.598000
31
0.0
0
LINE
8
0
6
CONTINUOUS
10
87.382000
20
-3.598000
30
0.0
11
87.300000
21
-3.598000
31
0.0
0
LINE
8
0
6
CONTINUOUS
10
105.827000
20
-3.199000
30
0.0
11
94.126000
21
-3.199000
31
0.0
0
LINE
8
0
6
CONTINUOUS
10
123.519000
20
-3.979000
30
0.0
11
118.606000
21
-3.860000
31
0.0
0
LINE
8
0
6
CONTINUOUS
10
118.606000
20
-3.860000
30
0.0
11
114.010000
21
-3.764000
31
0.0
0
LINE
8
0
6
CONTINUOUS
10
114.010000
20
-3.764000
30
0.0
11
111.589000
21
-3.668000
31
0.0
0
LINE
8
0
6
CONTINUOUS
10
163.729000
20
-6.376000
30
0.0
11
160.004000
21
-6.011000
31
0.0
0
LINE
8
0
6
CONTINUOUS
10
164.158000
20
-6.651000
30
0.0
11
163.729000
21
-6.376000
31
0.0
0
LINE
8
0
6
CONTINUOUS
10
164.300000
20
-7.081000
30
0.0
11
164.158000
21
-6.651000
31
0.0
0
LINE
8
0
6
CONTINUOUS
10
138.591000
20
-4.099000
30
0.0
11
133.438000
21
-3.740000
31
0.0
0
LINE
8
0
6
CONTINUOUS
10
160.004000
20
-6.011000
30
0.0
11
152.964000
21
-5.223000
31
0.0
0
LINE
8
0
6
CONTINUOUS
10
123.689000
20
-3.310000
30
0.0
11
118.770000
21
-3.190000
31
0.0
0
LINE
8
0
6
CONTINUOUS
10
105.827000
20
-3.000000
30
0.0
11
94.126000
21
-3.000000
31
0.0
0
LINE
8
0
6
CONTINUOUS
10
90.700000
20
-3.000000
30
0.0
11
90.022000
21
-3.000000
31
0.0
0
LINE
8
0
6
CONTINUOUS
10
91.478000
20
-3.000000
30
0.0
11
90.700000
21
-3.000000
31
0.0
0
LINE
8
0
6
CONTINUOUS
10
92.156000
20
-3.000000
30
0.0
11
91.478000
21
-3.000000
31
0.0
0
LINE
8
0
6
CONTINUOUS
10
92.952000
20
-3.000000
30
0.0
11
92.156000
21
-3.000000
31
0.0
0
LINE
8
0
6
CONTINUOUS
10
93.661000
20
-3.000000
30
0.0
11
92.952000
21
-3.000000
31
0.0
0
LINE
8
0
6
CONTINUOUS
10
94.126000
20
-3.000000
30
0.0
11
93.661000
21
-3.000000
31
0.0
0
LINE
8
0
6
CONTINUOUS
10
90.022000
20
-3.000000
30
0.0
11
89.419000
21
-3.000000
31
0.0
0
LINE
8
0
6
CONTINUOUS
10
89.419000
20
-3.000000
30
0.0
11
88.909000
21
-3.000000
31
0.0
0
LINE
8
0
6
CONTINUOUS
10
88.909000
20
-3.000000
30
0.0
11
88.536000
21
-3.000000
31
0.0
0
LINE
8
0
6
CONTINUOUS
10
88.536000
20
-3.000000
30
0.0
11
88.262000
21
-3.000000
31
0.0
0
LINE
8
0
6
CONTINUOUS
10
88.262000
20
-3.000000
30
0.0
11
88.113000
21
-3.000000
31
0.0
0
LINE
8
0
6
CONTINUOUS
10
88.031000
20
-3.000000
30
0.0
11
87.544000
21
-3.199000
31
0.0
0
LINE
8
0
6
CONTINUOUS
10
88.113000
20
-3.000000
30
0.0
11
88.031000
21
-3.000000
31
0.0
0
LINE
8
0
6
CONTINUOUS
10
87.544000
20
-3.199000
30
0.0
11
87.300000
21
-3.598000
31
0.0
0
LINE
8
0
6
CONTINUOUS
10
25.000000
20
58.478000
30
0.0
11
25.000000
21
59.267000
31
0.0
0
LINE
8
0
6
CONTINUOUS
10
25.000000
20
59.267000
30
0.0
11
25.000000
21
59.951000
31
0.0
0
LINE
8
0
6
CONTINUOUS
10
25.000000
20
59.951000
30
0.0
11
25.000000
21
60.477000
31
0.0
0
LINE
8
0
6
CONTINUOUS
10
25.000000
20
60.477000
30
0.0
11
25.000000
21
60.846000
31
0.0
0
LINE
8
0
6
CONTINUOUS
10
22.701000
20
55.949000
30
0.0
11
23.274000
21
56.080000
31
0.0
0
LINE
8
0
6
CONTINUOUS
10
21.878000
20
55.841000
30
0.0
11
22.701000
21
55.949000
31
0.0
0
LINE
8
0
6
CONTINUOUS
10
20.536000
20
55.723000
30
0.0
11
19.034000
21
55.680000
31
0.0
0
LINE
8
0
6
CONTINUOUS
10
21.878000
20
55.841000
30
0.0
11
20.536000
21
55.723000
31
0.0
0
LINE
8
0
6
CONTINUOUS
10
22.701000
20
55.949000
30
0.0
11
21.878000
21
55.841000
31
0.0
0
LINE
8
0
6
CONTINUOUS
10
23.274000
20
56.080000
30
0.0
11
22.701000
21
55.949000
31
0.0
0
LINE
8
0
6
CONTINUOUS
10
19.034000
20
55.680000
30
0.0
11
17.585000
21
55.660000
31
0.0
0
LINE
8
0
6
CONTINUOUS
10
15.008000
20
55.031000
30
0.0
11
17.889000
21
55.070000
31
0.0
0
LINE
8
0
6
CONTINUOUS
10
11.233000
20
55.016000
30
0.0
11
15.008000
21
55.031000
31
0.0
0
LINE
8
0
6
CONTINUOUS
10
6.192000
20
54.998000
30
0.0
11
11.233000
21
55.016000
31
0.0
0
LINE
8
0
6
CONTINUOUS
10
3.089000
20
54.979000
30
0.0
11
6.192000
21
54.998000
31
0.0
0
LINE
8
0
6
CONTINUOUS
10
0.000000
20
54.968000
30
0.0
11
3.089000
21
54.979000
31
0.0
0
LINE
8
0
6
CONTINUOUS
10
19.553000
20
54.149000
30
0.0
11
21.037000
21
54.208000
31
0.0
0
LINE
8
0
6
CONTINUOUS
10
21.037000
20
54.208000
30
0.0
11
22.486000
21
54.284000
31
0.0
0
LINE
8
0
6
CONTINUOUS
10
22.486000
20
54.284000
30
0.0
11
23.435000
21
54.406000
31
0.0
0
LINE
8
0
6
CONTINUOUS
10
23.435000
20
54.406000
30
0.0
11
24.204000
21
54.592000
31
0.0
0
LINE
8
0
6
CONTINUOUS
10
24.204000
20
54.592000
30
0.0
11
24.777000
21
54.817000
31
0.0
0
LINE
8
0
6
CONTINUOUS
10
24.777000
20
54.817000
30
0.0
11
25.000000
21
55.077000
31
0.0
0
LINE
8
0
6
CONTINUOUS
10
24.519000
20
55.943000
30
0.0
11
24.401000
21
55.702000
31
0.0
0
LINE
8
0
6
CONTINUOUS
10
17.889000
20
55.070000
30
0.0
11
15.008000
21
55.031000
31
0.0
0
LINE
8
0
6
CONTINUOUS
10
15.044000
20
54.086000
30
0.0
11
17.978000
21
54.122000
31
0.0
0
LINE
8
0
6
CONTINUOUS
10
15.008000
20
55.031000
30
0.0
11
11.233000
21
55.016000
31
0.0
0
LINE
8
0
6
CONTINUOUS
10
11.287000
20
54.071000
30
0.0
11
15.044000
21
54.086000
31
0.0
0
LINE
8
0
6
CONTINUOUS
10
11.233000
20
55.016000
30
0.0
11
6.192000
21
54.998000
31
0.0
0
LINE
8
0
6
CONTINUOUS
10
6.392000
20
54.052000
30
0.0
11
11.287000
21
54.071000
31
0.0
0
LINE
8
0
6
CONTINUOUS
10
6.192000
20
54.998000
30
0.0
11
3.089000
21
54.979000
31
0.0
0
LINE
8
0
6
CONTINUOUS
10
3.293000
20
54.037000
30
0.0
11
6.392000
21
54.052000
31
0.0
0
LINE
8
0
6
CONTINUOUS
10
3.089000
20
54.979000
30
0.0
11
0.000000
21
54.968000
31
0.0
0
LINE
8
0
6
CONTINUOUS
10
0.000000
20
54.022000
30
0.0
11
3.293000
21
54.037000
31
0.0
0
LINE
8
0
6
CONTINUOUS
10
25.000000
20
55.077000
30
0.0
11
25.000000
21
56.741000
31
0.0
0
LINE
8
0
6
CONTINUOUS
10
25.000000
20
56.741000
30
0.0
11
25.000000
21
57.583000
31
0.0
0
LINE
8
0
6
CONTINUOUS
10
25.000000
20
57.583000
30
0.0
11
25.000000
21
58.478000
31
0.0
0
LINE
8
0
6
CONTINUOUS
10
24.519000
20
59.372000
30
0.0
11
24.519000
21
58.478000
31
0.0
0
LINE
8
0
6
CONTINUOUS
10
23.558000
20
63.000000
30
0.0
11
0.000000
21
63.000000
31
0.0
0
LINE
8
0
6
CONTINUOUS
10
25.000000
20
60.846000
30
0.0
11
25.000000
21
61.109000
31
0.0
0
LINE
8
0
6
CONTINUOUS
10
25.000000
20
61.109000
30
0.0
11
25.000000
21
61.319000
31
0.0
0
LINE
8
0
6
CONTINUOUS
10
25.000000
20
61.319000
30
0.0
11
25.000000
21
61.530000
31
0.0
0
LINE
8
0
6
CONTINUOUS
10
25.000000
20
61.685000
30
0.0
11
24.519000
21
62.562000
31
0.0
0
LINE
8
0
6
CONTINUOUS
10
25.000000
20
61.530000
30
0.0
11
25.000000
21
61.685000
31
0.0
0
LINE
8
0
6
CONTINUOUS
10
24.519000
20
62.562000
30
0.0
11
23.558000
21
63.000000
31
0.0
0
LINE
8
0
6
CONTINUOUS
10
-22.701000
20
55.949000
30
0.0
11
-21.878000
21
55.841000
31
0.0
0
LINE
8
0
6
CONTINUOUS
10
-21.878000
20
55.841000
30
0.0
11
-20.536000
21
55.723000
31
0.0
0
LINE
8
0
6
CONTINUOUS
10
-20.536000
20
55.723000
30
0.0
11
-19.034000
21
55.680000
31
0.0
0
LINE
8
0
6
CONTINUOUS
10
-19.034000
20
55.680000
30
0.0
11
-17.585000
21
55.660000
31
0.0
0
LINE
8
0
6
CONTINUOUS
10
-19.034000
20
55.680000
30
0.0
11
-20.536000
21
55.723000
31
0.0
0
LINE
8
0
6
CONTINUOUS
10
-20.536000
20
55.723000
30
0.0
11
-21.878000
21
55.841000
31
0.0
0
LINE
8
0
6
CONTINUOUS
10
-21.878000
20
55.841000
30
0.0
11
-22.701000
21
55.949000
31
0.0
0
LINE
8
0
6
CONTINUOUS
10
-22.701000
20
55.949000
30
0.0
11
-23.274000
21
56.080000
31
0.0
0
LINE
8
0
6
CONTINUOUS
10
-17.585000
20
55.660000
30
0.0
11
-19.034000
21
55.680000
31
0.0
0
LINE
8
0
6
CONTINUOUS
10
-15.008000
20
55.031000
30
0.0
11
-11.233000
21
55.016000
31
0.0
0
LINE
8
0
6
CONTINUOUS
10
-11.233000
20
55.016000
30
0.0
11
-6.192000
21
54.998000
31
0.0
0
LINE
8
0
6
CONTINUOUS
10
-6.192000
20
54.998000
30
0.0
11
-3.089000
21
54.979000
31
0.0
0
LINE
8
0
6
CONTINUOUS
10
-3.089000
20
54.979000
30
0.0
11
0.000000
21
54.968000
31
0.0
0
LINE
8
0
6
CONTINUOUS
10
-21.037000
20
54.208000
30
0.0
11
-19.552000
21
54.149000
31
0.0
0
LINE
8
0
6
CONTINUOUS
10
-23.435000
20
54.406000
30
0.0
11
-22.487000
21
54.284000
31
0.0
0
LINE
8
0
6
CONTINUOUS
10
-24.204000
20
54.592000
30
0.0
11
-23.435000
21
54.406000
31
0.0
0
LINE
8
0
6
CONTINUOUS
10
-24.776000
20
54.817000
30
0.0
11
-24.204000
21
54.592000
31
0.0
0
LINE
8
0
6
CONTINUOUS
10
-24.401000
20
55.702000
30
0.0
11
-24.519000
21
55.943000
31
0.0
0
LINE
8
0
6
CONTINUOUS
10
-25.000000
20
55.077000
30
0.0
11
-24.776000
21
54.817000
31
0.0
0
LINE
8
0
6
CONTINUOUS
10
-19.552000
20
54.149000
30
0.0
11
-17.978000
21
54.122000
31
0.0
0
LINE
8
0
6
CONTINUOUS
10
-17.978000
20
54.122000
30
0.0
11
-15.044000
21
54.086000
31
0.0
0
LINE
8
0
6
CONTINUOUS
10
-15.008000
20
55.031000
30
0.0
11
-17.889000
21
55.070000
31
0.0
0
LINE
8
0
6
CONTINUOUS
10
-15.044000
20
54.086000
30
0.0
11
-11.287000
21
54.071000
31
0.0
0
LINE
8
0
6
CONTINUOUS
10
-11.233000
20
55.016000
30
0.0
11
-15.008000
21
55.031000
31
0.0
0
LINE
8
0
6
CONTINUOUS
10
-11.287000
20
54.071000
30
0.0
11
-6.392000
21
54.052000
31
0.0
0
LINE
8
0
6
CONTINUOUS
10
-6.192000
20
54.998000
30
0.0
11
-11.233000
21
55.016000
31
0.0
0
LINE
8
0
6
CONTINUOUS
10
-6.392000
20
54.052000
30
0.0
11
-3.293000
21
54.037000
31
0.0
0
LINE
8
0
6
CONTINUOUS
10
-3.089000
20
54.979000
30
0.0
11
-6.192000
21
54.998000
31
0.0
0
LINE
8
0
6
CONTINUOUS
10
-3.293000
20
54.037000
30
0.0
11
0.000000
21
54.022000
31
0.0
0
LINE
8
0
6
CONTINUOUS
10
0.000000
20
54.968000
30
0.0
11
-3.089000
21
54.979000
31
0.0
0
LINE
8
0
6
CONTINUOUS
10
0.000000
20
63.000000
30
0.0
11
-23.558000
21
63.000000
31
0.0
0
LINE
8
0
6
CONTINUOUS
10
-25.000000
20
59.267000
30
0.0
11
-25.000000
21
58.478000
31
0.0
0
LINE
8
0
6
CONTINUOUS
10
-25.000000
20
59.951000
30
0.0
11
-25.000000
21
59.267000
31
0.0
0
LINE
8
0
6
CONTINUOUS
10
-25.000000
20
60.477000
30
0.0
11
-25.000000
21
59.951000
31
0.0
0
LINE
8
0
6
CONTINUOUS
10
-25.000000
20
60.846000
30
0.0
11
-25.000000
21
60.477000
31
0.0
0
LINE
8
0
6
CONTINUOUS
10
-25.000000
20
56.741000
30
0.0
11
-25.000000
21
55.077000
31
0.0
0
LINE
8
0
6
CONTINUOUS
10
-25.000000
20
57.583000
30
0.0
11
-25.000000
21
56.741000
31
0.0
0
LINE
8
0
6
CONTINUOUS
10
-25.000000
20
58.478000
30
0.0
11
-25.000000
21
57.583000
31
0.0
0
LINE
8
0
6
CONTINUOUS
10
-24.519000
20
58.478000
30
0.0
11
-24.519000
21
59.372000
31
0.0
0
LINE
8
0
6
CONTINUOUS
10
-25.000000
20
61.685000
30
0.0
11
-25.000000
21
61.530000
31
0.0
0
LINE
8
0
6
CONTINUOUS
10
-25.000000
20
61.109000
30
0.0
11
-25.000000
21
60.846000
31
0.0
0
LINE
8
0
6
CONTINUOUS
10
-25.000000
20
61.319000
30
0.0
11
-25.000000
21
61.109000
31
0.0
0
LINE
8
0
6
CONTINUOUS
10
-25.000000
20
61.530000
30
0.0
11
-25.000000
21
61.319000
31
0.0
0
LINE
8
0
6
CONTINUOUS
10
-25.000000
20
61.685000
30
0.0
11
-24.519000
21
62.562000
31
0.0
0
LINE
8
0
6
CONTINUOUS
10
-24.519000
20
62.562000
30
0.0
11
-23.558000
21
63.000000
31
0.0
0
LINE
8
0
6
CONTINUOUS
10
-138.590500
20
-4.099000
30
0.0
11
-142.774700
21
-4.423000
31
0.0
0
LINE
8
0
6
CONTINUOUS
10
-142.665800
20
-5.056000
30
0.0
11
-138.479300
21
-4.697000
31
0.0
0
LINE
8
0
6
CONTINUOUS
10
-133.437800
20
-3.740000
30
0.0
11
-138.590500
21
-4.099000
31
0.0
0
LINE
8
0
6
CONTINUOUS
10
-138.479300
20
-4.697000
30
0.0
11
-133.238700
21
-4.386000
31
0.0
0
LINE
8
0
6
CONTINUOUS
10
-128.402200
20
-3.477000
30
0.0
11
-133.437800
21
-3.740000
31
0.0
0
LINE
8
0
6
CONTINUOUS
10
-133.238700
20
-4.386000
30
0.0
11
-128.173800
21
-4.147000
31
0.0
0
LINE
8
0
6
CONTINUOUS
10
-123.688600
20
-3.310000
30
0.0
11
-128.402200
21
-3.477000
31
0.0
0
LINE
8
0
6
CONTINUOUS
10
-128.173800
20
-4.147000
30
0.0
11
-123.518800
21
-3.979000
31
0.0
0
LINE
8
0
6
CONTINUOUS
10
-160.820900
20
-6.091000
30
0.0
11
-160.003800
21
-6.011000
31
0.0
0
LINE
8
0
6
CONTINUOUS
10
-161.426500
20
-6.146000
30
0.0
11
-160.003800
21
-6.011000
31
0.0
0
LINE
8
0
6
CONTINUOUS
10
-161.994300
20
-6.205000
30
0.0
11
-161.426500
21
-6.146000
31
0.0
0
LINE
8
0
6
CONTINUOUS
10
-161.994300
20
-6.205000
30
0.0
11
-160.003800
21
-6.011000
31
0.0
0
LINE
8
0
6
CONTINUOUS
10
-162.552700
20
-6.254000
30
0.0
11
-161.994300
21
-6.205000
31
0.0
0
LINE
8
0
6
CONTINUOUS
10
-163.373000
20
-6.328000
30
0.0
11
-160.003800
21
-6.011000
31
0.0
0
LINE
8
0
6
CONTINUOUS
10
-163.083700
20
-6.308000
30
0.0
11
-163.373000
21
-6.328000
31
0.0
0
LINE
8
0
6
CONTINUOUS
10
-162.552700
20
-6.254000
30
0.0
11
-163.083700
21
-6.308000
31
0.0
0
LINE
8
0
6
CONTINUOUS
10
-161.994300
20
-6.205000
30
0.0
11
-162.552700
21
-6.254000
31
0.0
0
LINE
8
0
6
CONTINUOUS
10
-161.426500
20
-6.146000
30
0.0
11
-161.994300
21
-6.205000
31
0.0
0
LINE
8
0
6
CONTINUOUS
10
-160.003800
20
-6.011000
30
0.0
11
-160.820900
21
-6.091000
31
0.0
0
LINE
8
0
6
CONTINUOUS
10
-163.373000
20
-6.328000
30
0.0
11
-163.454200
21
-6.336000
31
0.0
0
LINE
8
0
6
CONTINUOUS
10
-163.454200
20
-6.336000
30
0.0
11
-163.553200
21
-6.349000
31
0.0
0
LINE
8
0
6
CONTINUOUS
10
-163.953500
20
-6.622000
30
0.0
11
-163.809400
21
-6.605000
31
0.0
0
LINE
8
0
6
CONTINUOUS
10
-163.553200
20
-6.349000
30
0.0
11
-163.616300
21
-6.356000
31
0.0
0
LINE
8
0
6
CONTINUOUS
10
-164.007500
20
-6.629000
30
0.0
11
-163.953500
21
-6.622000
31
0.0
0
LINE
8
0
6
CONTINUOUS
10
-163.616300
20
-6.356000
30
0.0
11
-163.670200
21
-6.366000
31
0.0
0
LINE
8
0
6
CONTINUOUS
10
-164.128500
20
-6.646000
30
0.0
11
-164.077000
21
-6.637000
31
0.0
0
LINE
8
0
6
CONTINUOUS
10
-163.773800
20
-7.023000
30
0.0
11
-163.457700
21
-6.996000
31
0.0
0
LINE
8
0
6
CONTINUOUS
10
-163.457700
20
-6.996000
30
0.0
11
-162.888000
21
-6.962000
31
0.0
0
LINE
8
0
6
CONTINUOUS
10
-162.888000
20
-6.962000
30
0.0
11
-162.319500
21
-6.906000
31
0.0
0
LINE
8
0
6
CONTINUOUS
10
-162.319500
20
-6.906000
30
0.0
11
-161.689400
21
-6.822000
31
0.0
0
LINE
8
0
6
CONTINUOUS
10
-161.689400
20
-6.822000
30
0.0
11
-160.897000
21
-6.719000
31
0.0
0
LINE
8
0
6
CONTINUOUS
10
-160.897000
20
-6.719000
30
0.0
11
-159.966300
21
-6.602000
31
0.0
0
LINE
8
0
6
CONTINUOUS
10
-159.991300
20
-6.208000
30
0.0
11
-160.840800
21
-6.317000
31
0.0
0
LINE
8
0
6
CONTINUOUS
10
-163.809400
20
-6.605000
30
0.0
11
-163.953500
21
-6.622000
31
0.0
0
LINE
8
0
6
CONTINUOUS
10
-164.080600
20
-7.052000
30
0.0
11
-163.972700
21
-7.036000
31
0.0
0
LINE
8
0
6
CONTINUOUS
10
-163.953500
20
-6.622000
30
0.0
11
-164.007500
21
-6.629000
31
0.0
0
LINE
8
0
6
CONTINUOUS
10
-164.134600
20
-7.059000
30
0.0
11
-164.080600
21
-7.052000
31
0.0
0
LINE
8
0
6
CONTINUOUS
10
-164.259500
20
-7.074000
30
0.0
11
-164.217300
21
-7.067000
31
0.0
0
LINE
8
0
6
CONTINUOUS
10
-164.300000
20
-7.081000
30
0.0
11
-164.259500
21
-7.074000
31
0.0
0
LINE
8
0
6
CONTINUOUS
10
-152.963500
20
-5.223000
30
0.0
11
-160.003800
21
-6.011000
31
0.0
0
LINE
8
0
6
CONTINUOUS
10
-159.966300
20
-6.602000
30
0.0
11
-152.795600
21
-5.845000
31
0.0
0
LINE
8
0
6
CONTINUOUS
10
-148.029700
20
-4.841000
30
0.0
11
-152.963500
21
-5.223000
31
0.0
0
LINE
8
0
6
CONTINUOUS
10
-152.795600
20
-5.845000
30
0.0
11
-147.877100
21
-5.462000
31
0.0
0
LINE
8
0
6
CONTINUOUS
10
-142.774700
20
-4.423000
30
0.0
11
-148.029700
21
-4.841000
31
0.0
0
LINE
8
0
6
CONTINUOUS
10
-147.877100
20
-5.462000
30
0.0
11
-142.665800
21
-5.056000
31
0.0
0
LINE
8
0
6
CONTINUOUS
10
-142.768300
20
-4.649000
30
0.0
11
-147.964900
21
-5.056000
31
0.0
0
LINE
8
0
6
CONTINUOUS
10
-90.022300
20
-3.000000
30
0.0
11
-90.700200
21
-3.000000
31
0.0
0
LINE
8
0
6
CONTINUOUS
10
-90.700200
20
-3.000000
30
0.0
11
-91.477700
21
-3.000000
31
0.0
0
LINE
8
0
6
CONTINUOUS
10
-91.477700
20
-3.000000
30
0.0
11
-92.155700
21
-3.000000
31
0.0
0
LINE
8
0
6
CONTINUOUS
10
-92.155700
20
-3.000000
30
0.0
11
-92.951800
21
-3.000000
31
0.0
0
LINE
8
0
6
CONTINUOUS
10
-92.951800
20
-3.000000
30
0.0
11
-93.660800
21
-3.000000
31
0.0
0
LINE
8
0
6
CONTINUOUS
10
-93.660800
20
-3.000000
30
0.0
11
-94.125700
21
-3.000000
31
0.0
0
LINE
8
0
6
CONTINUOUS
10
-89.418900
20
-3.000000
30
0.0
11
-90.022300
21
-3.000000
31
0.0
0
LINE
8
0
6
CONTINUOUS
10
-88.908900
20
-3.000000
30
0.0
11
-89.418900
21
-3.000000
31
0.0
0
LINE
8
0
6
CONTINUOUS
10
-88.535700
20
-3.000000
30
0.0
11
-88.908900
21
-3.000000
31
0.0
0
LINE
8
0
6
CONTINUOUS
10
-88.262100
20
-3.000000
30
0.0
11
-88.535700
21
-3.000000
31
0.0
0
LINE
8
0
6
CONTINUOUS
10
-87.789300
20
-3.199000
30
0.0
11
-87.640100
21
-3.199000
31
0.0
0
LINE
8
0
6
CONTINUOUS
10
-88.112800
20
-3.000000
30
0.0
11
-88.262100
21
-3.000000
31
0.0
0
LINE
8
0
6
CONTINUOUS
10
-88.031300
20
-3.000000
30
0.0
11
-88.112800
21
-3.000000
31
0.0
0
LINE
8
0
6
CONTINUOUS
10
-89.975700
20
-3.598000
30
0.0
11
-89.320400
21
-3.598000
31
0.0
0
LINE
8
0
6
CONTINUOUS
10
-90.740100
20
-3.598000
30
0.0
11
-89.975700
21
-3.598000
31
0.0
0
LINE
8
0
6
CONTINUOUS
10
-91.531900
20
-3.598000
30
0.0
11
-90.740100
21
-3.598000
31
0.0
0
LINE
8
0
6
CONTINUOUS
10
-92.378300
20
-3.598000
30
0.0
11
-91.531900
21
-3.598000
31
0.0
0
LINE
8
0
6
CONTINUOUS
10
-93.224700
20
-3.598000
30
0.0
11
-92.378300
21
-3.598000
31
0.0
0
LINE
8
0
6
CONTINUOUS
10
-94.125700
20
-3.598000
30
0.0
11
-93.224700
21
-3.598000
31
0.0
0
LINE
8
0
6
CONTINUOUS
10
-89.320400
20
-3.598000
30
0.0
11
-88.719700
21
-3.598000
31
0.0
0
LINE
8
0
6
CONTINUOUS
10
-88.719700
20
-3.598000
30
0.0
11
-88.201000
21
-3.598000
31
0.0
0
LINE
8
0
6
CONTINUOUS
10
-88.201000
20
-3.598000
30
0.0
11
-87.846100
21
-3.598000
31
0.0
0
LINE
8
0
6
CONTINUOUS
10
-87.846100
20
-3.598000
30
0.0
11
-87.545700
21
-3.598000
31
0.0
0
LINE
8
0
6
CONTINUOUS
10
-87.545700
20
-3.598000
30
0.0
11
-87.381900
21
-3.598000
31
0.0
0
LINE
8
0
6
CONTINUOUS
10
-87.381900
20
-3.598000
30
0.0
11
-87.300000
21
-3.598000
31
0.0
0
LINE
8
0
6
CONTINUOUS
10
-94.125700
20
-3.000000
30
0.0
11
-105.826800
21
-3.000000
31
0.0
0
LINE
8
0
6
CONTINUOUS
10
-105.826800
20
-3.199000
30
0.0
11
-94.125700
21
-3.199000
31
0.0
0
LINE
8
0
6
CONTINUOUS
10
-118.770100
20
-3.190000
30
0.0
11
-123.688600
21
-3.310000
31
0.0
0
LINE
8
0
6
CONTINUOUS
10
-123.518800
20
-3.979000
30
0.0
11
-118.606200
21
-3.860000
31
0.0
0
LINE
8
0
6
CONTINUOUS
10
-114.203000
20
-3.118000
30
0.0
11
-118.770100
21
-3.190000
31
0.0
0
LINE
8
0
6
CONTINUOUS
10
-118.606200
20
-3.860000
30
0.0
11
-114.009700
21
-3.764000
31
0.0
0
LINE
8
0
6
CONTINUOUS
10
-111.617900
20
-3.070000
30
0.0
11
-114.203000
21
-3.118000
31
0.0
0
LINE
8
0
6
CONTINUOUS
10
-114.009700
20
-3.764000
30
0.0
11
-111.588600
21
-3.668000
31
0.0
0
LINE
8
0
6
CONTINUOUS
10
-105.826800
20
-3.000000
30
0.0
11
-111.617900
21
-3.070000
31
0.0
0
LINE
8
0
6
CONTINUOUS
10
-163.729000
20
-6.376000
30
0.0
11
-160.003800
21
-6.011000
31
0.0
0
LINE
8
0
6
CONTINUOUS
10
-164.158300
20
-6.651000
30
0.0
11
-163.729000
21
-6.376000
31
0.0
0
LINE
8
0
6
CONTINUOUS
10
-164.300000
20
-7.081000
30
0.0
11
-164.158300
21
-6.651000
31
0.0
0
LINE
8
0
6
CONTINUOUS
10
-88.031300
20
-3.000000
30
0.0
11
-87.543800
21
-3.199000
31
0.0
0
LINE
8
0
6
CONTINUOUS
10
-87.543800
20
-3.199000
30
0.0
11
-87.300000
21
-3.598000
31
0.0
0
LINE
8
0
6
CONTINUOUS
10
87.416000
20
-58.000000
30
0.0
11
82.112000
21
-58.000000
31
0.0
0
LINE
8
0
6
CONTINUOUS
10
74.000000
20
-58.300000
30
0.0
11
74.624000
21
-58.000000
31
0.0
0
LINE
8
0
6
CONTINUOUS
10
74.936000
20
-58.300000
30
0.0
11
74.000000
21
-58.300000
31
0.0
0
LINE
8
0
6
CONTINUOUS
10
77.432000
20
-58.300000
30
0.0
11
74.936000
21
-58.300000
31
0.0
0
LINE
8
0
6
CONTINUOUS
10
81.592000
20
-58.300000
30
0.0
11
77.432000
21
-58.300000
31
0.0
0
LINE
8
0
6
CONTINUOUS
10
87.104000
20
-58.300000
30
0.0
11
81.592000
21
-58.300000
31
0.0
0
LINE
8
0
6
CONTINUOUS
10
93.344000
20
-58.300000
30
0.0
11
87.104000
21
-58.300000
31
0.0
0
LINE
8
0
6
CONTINUOUS
10
100.000000
20
-58.300000
30
0.0
11
93.344000
21
-58.300000
31
0.0
0
LINE
8
0
6
CONTINUOUS
10
74.000000
20
-63.000000
30
0.0
11
74.000000
21
-58.300000
31
0.0
0
LINE
8
0
6
CONTINUOUS
10
74.936000
20
-63.000000
30
0.0
11
74.000000
21
-63.000000
31
0.0
0
LINE
8
0
6
CONTINUOUS
10
74.936000
20
-58.300000
30
0.0
11
77.432000
21
-58.300000
31
0.0
0
LINE
8
0
6
CONTINUOUS
10
77.432000
20
-63.000000
30
0.0
11
74.936000
21
-63.000000
31
0.0
0
LINE
8
0
6
CONTINUOUS
10
77.432000
20
-58.300000
30
0.0
11
81.592000
21
-58.300000
31
0.0
0
LINE
8
0
6
CONTINUOUS
10
81.592000
20
-63.000000
30
0.0
11
77.432000
21
-63.000000
31
0.0
0
LINE
8
0
6
CONTINUOUS
10
81.592000
20
-58.300000
30
0.0
11
87.104000
21
-58.300000
31
0.0
0
LINE
8
0
6
CONTINUOUS
10
87.104000
20
-63.000000
30
0.0
11
81.592000
21
-63.000000
31
0.0
0
LINE
8
0
6
CONTINUOUS
10
87.104000
20
-58.300000
30
0.0
11
93.344000
21
-58.300000
31
0.0
0
LINE
8
0
6
CONTINUOUS
10
93.344000
20
-63.000000
30
0.0
11
87.104000
21
-63.000000
31
0.0
0
LINE
8
0
6
CONTINUOUS
10
93.344000
20
-58.300000
30
0.0
11
100.000000
21
-58.300000
31
0.0
0
LINE
8
0
6
CONTINUOUS
10
100.000000
20
-63.000000
30
0.0
11
93.344000
21
-63.000000
31
0.0
0
LINE
8
0
6
CONTINUOUS
10
74.000000
20
-63.000000
30
0.0
11
74.936000
21
-63.000000
31
0.0
0
LINE
8
0
6
CONTINUOUS
10
74.936000
20
-63.000000
30
0.0
11
77.432000
21
-63.000000
31
0.0
0
LINE
8
0
6
CONTINUOUS
10
77.432000
20
-63.000000
30
0.0
11
81.592000
21
-63.000000
31
0.0
0
LINE
8
0
6
CONTINUOUS
10
81.592000
20
-63.000000
30
0.0
11
87.104000
21
-63.000000
31
0.0
0
LINE
8
0
6
CONTINUOUS
10
87.104000
20
-63.000000
30
0.0
11
93.344000
21
-63.000000
31
0.0
0
LINE
8
0
6
CONTINUOUS
10
93.344000
20
-63.000000
30
0.0
11
100.000000
21
-63.000000
31
0.0
0
LINE
8
0
6
CONTINUOUS
10
126.000000
20
-58.300000
30
0.0
11
125.064000
21
-58.300000
31
0.0
0
LINE
8
0
6
CONTINUOUS
10
125.064000
20
-58.300000
30
0.0
11
122.568000
21
-58.300000
31
0.0
0
LINE
8
0
6
CONTINUOUS
10
122.568000
20
-58.300000
30
0.0
11
118.408000
21
-58.300000
31
0.0
0
LINE
8
0
6
CONTINUOUS
10
118.408000
20
-58.300000
30
0.0
11
112.896000
21
-58.300000
31
0.0
0
LINE
8
0
6
CONTINUOUS
10
112.896000
20
-58.300000
30
0.0
11
106.656000
21
-58.300000
31
0.0
0
LINE
8
0
6
CONTINUOUS
10
106.656000
20
-58.300000
30
0.0
11
100.000000
21
-58.300000
31
0.0
0
LINE
8
0
6
CONTINUOUS
10
126.000000
20
-63.000000
30
0.0
11
125.064000
21
-63.000000
31
0.0
0
LINE
8
0
6
CONTINUOUS
10
125.064000
20
-58.300000
30
0.0
11
126.000000
21
-58.300000
31
0.0
0
LINE
8
0
6
CONTINUOUS
10
125.064000
20
-63.000000
30
0.0
11
122.568000
21
-63.000000
31
0.0
0
LINE
8
0
6
CONTINUOUS
10
122.568000
20
-58.300000
30
0.0
11
125.064000
21
-58.300000
31
0.0
0
LINE
8
0
6
CONTINUOUS
10
122.568000
20
-63.000000
30
0.0
11
118.408000
21
-63.000000
31
0.0
0
LINE
8
0
6
CONTINUOUS
10
118.408000
20
-58.300000
30
0.0
11
122.568000
21
-58.300000
31
0.0
0
LINE
8
0
6
CONTINUOUS
10
118.408000
20
-63.000000
30
0.0
11
112.896000
21
-63.000000
31
0.0
0
LINE
8
0
6
CONTINUOUS
10
112.896000
20
-58.300000
30
0.0
11
118.408000
21
-58.300000
31
0.0
0
LINE
8
0
6
CONTINUOUS
10
112.896000
20
-63.000000
30
0.0
11
106.656000
21
-63.000000
31
0.0
0
LINE
8
0
6
CONTINUOUS
10
106.656000
20
-58.300000
30
0.0
11
112.896000
21
-58.300000
31
0.0
0
LINE
8
0
6
CONTINUOUS
10
106.656000
20
-63.000000
30
0.0
11
100.000000
21
-63.000000
31
0.0
0
LINE
8
0
6
CONTINUOUS
10
100.000000
20
-58.300000
30
0.0
11
106.656000
21
-58.300000
31
0.0
0
LINE
8
0
6
CONTINUOUS
10
125.064000
20
-63.000000
30
0.0
11
126.000000
21
-63.000000
31
0.0
0
LINE
8
0
6
CONTINUOUS
10
122.568000
20
-63.000000
30
0.0
11
125.064000
21
-63.000000
31
0.0
0
LINE
8
0
6
CONTINUOUS
10
118.408000
20
-63.000000
30
0.0
11
122.568000
21
-63.000000
31
0.0
0
LINE
8
0
6
CONTINUOUS
10
112.896000
20
-63.000000
30
0.0
11
118.408000
21
-63.000000
31
0.0
0
LINE
8
0
6
CONTINUOUS
10
106.656000
20
-63.000000
30
0.0
11
112.896000
21
-63.000000
31
0.0
0
LINE
8
0
6
CONTINUOUS
10
100.000000
20
-63.000000
30
0.0
11
106.656000
21
-63.000000
31
0.0
0
LINE
8
0
6
CONTINUOUS
10
126.000000
20
-58.300000
30
0.0
11
125.376000
21
-58.000000
31
0.0
0
LINE
8
0
6
CONTINUOUS
10
124.440000
20
-58.000000
30
0.0
11
121.944000
21
-58.000000
31
0.0
0
LINE
8
0
6
CONTINUOUS
10
121.944000
20
-58.000000
30
0.0
11
117.888000
21
-58.000000
31
0.0
0
LINE
8
0
6
CONTINUOUS
10
126.000000
20
-63.000000
30
0.0
11
126.000000
21
-58.300000
31
0.0
0
LINE
8
0
6
CONTINUOUS
10
-74.624000
20
-58.000000
30
0.0
11
-75.560000
21
-58.000000
31
0.0
0
LINE
8
0
6
CONTINUOUS
10
-74.000000
20
-58.300000
30
0.0
11
-74.624000
21
-58.000000
31
0.0
0
LINE
8
0
6
CONTINUOUS
10
-74.936000
20
-58.300000
30
0.0
11
-74.000000
21
-58.300000
31
0.0
0
LINE
8
0
6
CONTINUOUS
10
-75.560000
20
-58.000000
30
0.0
11
-78.056000
21
-58.000000
31
0.0
0
LINE
8
0
6
CONTINUOUS
10
-77.432000
20
-58.300000
30
0.0
11
-74.936000
21
-58.300000
31
0.0
0
LINE
8
0
6
CONTINUOUS
10
-78.056000
20
-58.000000
30
0.0
11
-82.112000
21
-58.000000
31
0.0
0
LINE
8
0
6
CONTINUOUS
10
-81.592000
20
-58.300000
30
0.0
11
-77.432000
21
-58.300000
31
0.0
0
LINE
8
0
6
CONTINUOUS
10
-82.112000
20
-58.000000
30
0.0
11
-87.416000
21
-58.000000
31
0.0
0
LINE
8
0
6
CONTINUOUS
10
-87.104000
20
-58.300000
30
0.0
11
-81.592000
21
-58.300000
31
0.0
0
LINE
8
0
6
CONTINUOUS
10
-87.416000
20
-58.000000
30
0.0
11
-93.448000
21
-58.000000
31
0.0
0
LINE
8
0
6
CONTINUOUS
10
-93.344000
20
-58.300000
30
0.0
11
-87.104000
21
-58.300000
31
0.0
0
LINE
8
0
6
CONTINUOUS
10
-93.448000
20
-58.000000
30
0.0
11
-100.000000
21
-58.000000
31
0.0
0
LINE
8
0
6
CONTINUOUS
10
-100.000000
20
-58.300000
30
0.0
11
-93.344000
21
-58.300000
31
0.0
0
LINE
8
0
6
CONTINUOUS
10
-74.000000
20
-63.000000
30
0.0
11
-74.000000
21
-58.300000
31
0.0
0
LINE
8
0
6
CONTINUOUS
10
-74.936000
20
-63.000000
30
0.0
11
-74.000000
21
-63.000000
31
0.0
0
LINE
8
0
6
CONTINUOUS
10
-74.936000
20
-58.300000
30
0.0
11
-77.432000
21
-58.300000
31
0.0
0
LINE
8
0
6
CONTINUOUS
10
-77.432000
20
-63.000000
30
0.0
11
-74.936000
21
-63.000000
31
0.0
0
LINE
8
0
6
CONTINUOUS
10
-77.432000
20
-58.300000
30
0.0
11
-81.592000
21
-58.300000
31
0.0
0
LINE
8
0
6
CONTINUOUS
10
-81.592000
20
-63.000000
30
0.0
11
-77.432000
21
-63.000000
31
0.0
0
LINE
8
0
6
CONTINUOUS
10
-81.592000
20
-58.300000
30
0.0
11
-87.104000
21
-58.300000
31
0.0
0
LINE
8
0
6
CONTINUOUS
10
-87.104000
20
-63.000000
30
0.0
11
-81.592000
21
-63.000000
31
0.0
0
LINE
8
0
6
CONTINUOUS
10
-87.104000
20
-58.300000
30
0.0
11
-93.344000
21
-58.300000
31
0.0
0
LINE
8
0
6
CONTINUOUS
10
-93.344000
20
-63.000000
30
0.0
11
-87.104000
21
-63.000000
31
0.0
0
LINE
8
0
6
CONTINUOUS
10
-93.344000
20
-58.300000
30
0.0
11
-100.000000
21
-58.300000
31
0.0
0
LINE
8
0
6
CONTINUOUS
10
-100.000000
20
-63.000000
30
0.0
11
-93.344000
21
-63.000000
31
0.0
0
LINE
8
0
6
CONTINUOUS
10
-74.000000
20
-63.000000
30
0.0
11
-74.936000
21
-63.000000
31
0.0
0
LINE
8
0
6
CONTINUOUS
10
-74.936000
20
-63.000000
30
0.0
11
-77.432000
21
-63.000000
31
0.0
0
LINE
8
0
6
CONTINUOUS
10
-77.432000
20
-63.000000
30
0.0
11
-81.592000
21
-63.000000
31
0.0
0
LINE
8
0
6
CONTINUOUS
10
-81.592000
20
-63.000000
30
0.0
11
-87.104000
21
-63.000000
31
0.0
0
LINE
8
0
6
CONTINUOUS
10
-87.104000
20
-63.000000
30
0.0
11
-93.344000
21
-63.000000
31
0.0
0
LINE
8
0
6
CONTINUOUS
10
-93.344000
20
-63.000000
30
0.0
11
-100.000000
21
-63.000000
31
0.0
0
LINE
8
0
6
CONTINUOUS
10
-126.000000
20
-58.300000
30
0.0
11
-125.064000
21
-58.300000
31
0.0
0
LINE
8
0
6
CONTINUOUS
10
-124.440000
20
-58.000000
30
0.0
11
-125.376000
21
-58.000000
31
0.0
0
LINE
8
0
6
CONTINUOUS
10
-125.064000
20
-58.300000
30
0.0
11
-122.568000
21
-58.300000
31
0.0
0
LINE
8
0
6
CONTINUOUS
10
-121.944000
20
-58.000000
30
0.0
11
-124.440000
21
-58.000000
31
0.0
0
LINE
8
0
6
CONTINUOUS
10
-122.568000
20
-58.300000
30
0.0
11
-118.408000
21
-58.300000
31
0.0
0
LINE
8
0
6
CONTINUOUS
10
-117.888000
20
-58.000000
30
0.0
11
-121.944000
21
-58.000000
31
0.0
0
LINE
8
0
6
CONTINUOUS
10
-118.408000
20
-58.300000
30
0.0
11
-112.896000
21
-58.300000
31
0.0
0
LINE
8
0
6
CONTINUOUS
10
-112.584000
20
-58.000000
30
0.0
11
-117.888000
21
-58.000000
31
0.0
0
LINE
8
0
6
CONTINUOUS
10
-112.896000
20
-58.300000
30
0.0
11
-106.656000
21
-58.300000
31
0.0
0
LINE
8
0
6
CONTINUOUS
10
-106.552000
20
-58.000000
30
0.0
11
-112.584000
21
-58.000000
31
0.0
0
LINE
8
0
6
CONTINUOUS
10
-106.656000
20
-58.300000
30
0.0
11
-100.000000
21
-58.300000
31
0.0
0
LINE
8
0
6
CONTINUOUS
10
-100.000000
20
-58.000000
30
0.0
11
-106.552000
21
-58.000000
31
0.0
0
LINE
8
0
6
CONTINUOUS
10
-126.000000
20
-63.000000
30
0.0
11
-125.064000
21
-63.000000
31
0.0
0
LINE
8
0
6
CONTINUOUS
10
-125.064000
20
-58.300000
30
0.0
11
-126.000000
21
-58.300000
31
0.0
0
LINE
8
0
6
CONTINUOUS
10
-125.064000
20
-63.000000
30
0.0
11
-122.568000
21
-63.000000
31
0.0
0
LINE
8
0
6
CONTINUOUS
10
-122.568000
20
-58.300000
30
0.0
11
-125.064000
21
-58.300000
31
0.0
0
LINE
8
0
6
CONTINUOUS
10
-122.568000
20
-63.000000
30
0.0
11
-118.408000
21
-63.000000
31
0.0
0
LINE
8
0
6
CONTINUOUS
10
-118.408000
20
-58.300000
30
0.0
11
-122.568000
21
-58.300000
31
0.0
0
LINE
8
0
6
CONTINUOUS
10
-118.408000
20
-63.000000
30
0.0
11
-112.896000
21
-63.000000
31
0.0
0
LINE
8
0
6
CONTINUOUS
10
-112.896000
20
-58.300000
30
0.0
11
-118.408000
21
-58.300000
31
0.0
0
LINE
8
0
6
CONTINUOUS
10
-112.896000
20
-63.000000
30
0.0
11
-106.656000
21
-63.000000
31
0.0
0
LINE
8
0
6
CONTINUOUS
10
-106.656000
20
-58.300000
30
0.0
11
-112.896000
21
-58.300000
31
0.0
0
LINE
8
0
6
CONTINUOUS
10
-106.656000
20
-63.000000
30
0.0
11
-100.000000
21
-63.000000
31
0.0
0
LINE
8
0
6
CONTINUOUS
10
-100.000000
20
-58.300000
30
0.0
11
-106.656000
21
-58.300000
31
0.0
0
LINE
8
0
6
CONTINUOUS
10
-125.064000
20
-63.000000
30
0.0
11
-126.000000
21
-63.000000
31
0.0
0
LINE
8
0
6
CONTINUOUS
10
-122.568000
20
-63.000000
30
0.0
11
-125.064000
21
-63.000000
31
0.0
0
LINE
8
0
6
CONTINUOUS
10
-118.408000
20
-63.000000
30
0.0
11
-122.568000
21
-63.000000
31
0.0
0
LINE
8
0
6
CONTINUOUS
10
-112.896000
20
-63.000000
30
0.0
11
-118.408000
21
-63.000000
31
0.0
0
LINE
8
0
6
CONTINUOUS
10
-106.656000
20
-63.000000
30
0.0
11
-112.896000
21
-63.000000
31
0.0
0
LINE
8
0
6
CONTINUOUS
10
-100.000000
20
-63.000000
30
0.0
11
-106.656000
21
-63.000000
31
0.0
0
LINE
8
0
6
CONTINUOUS
10
-126.000000
20
-58.300000
30
0.0
11
-125.376000
21
-58.000000
31
0.0
0
LINE
8
0
6
CONTINUOUS
10
-126.000000
20
-63.000000
30
0.0
11
-126.000000
21
-58.300000
31
0.0
0
LINE
8
0
6
CONTINUOUS
10
25.376000
20
-58.000000
30
0.0
11
24.440000
21
-58.000000
31
0.0
0
LINE
8
0
6
CONTINUOUS
10
26.000000
20
-58.300000
30
0.0
11
25.376000
21
-58.000000
31
0.0
0
LINE
8
0
6
CONTINUOUS
10
25.064000
20
-58.300000
30
0.0
11
26.000000
21
-58.300000
31
0.0
0
LINE
8
0
6
CONTINUOUS
10
24.440000
20
-58.000000
30
0.0
11
21.944000
21
-58.000000
31
0.0
0
LINE
8
0
6
CONTINUOUS
10
22.568000
20
-58.300000
30
0.0
11
25.064000
21
-58.300000
31
0.0
0
LINE
8
0
6
CONTINUOUS
10
21.944000
20
-58.000000
30
0.0
11
17.888000
21
-58.000000
31
0.0
0
LINE
8
0
6
CONTINUOUS
10
18.408000
20
-58.300000
30
0.0
11
22.568000
21
-58.300000
31
0.0
0
LINE
8
0
6
CONTINUOUS
10
17.888000
20
-58.000000
30
0.0
11
12.584000
21
-58.000000
31
0.0
0
LINE
8
0
6
CONTINUOUS
10
12.896000
20
-58.300000
30
0.0
11
18.408000
21
-58.300000
31
0.0
0
LINE
8
0
6
CONTINUOUS
10
12.584000
20
-58.000000
30
0.0
11
6.552000
21
-58.000000
31
0.0
0
LINE
8
0
6
CONTINUOUS
10
6.656000
20
-58.300000
30
0.0
11
12.896000
21
-58.300000
31
0.0
0
LINE
8
0
6
CONTINUOUS
10
6.552000
20
-58.000000
30
0.0
11
0.000000
21
-58.000000
31
0.0
0
LINE
8
0
6
CONTINUOUS
10
0.000000
20
-58.300000
30
0.0
11
6.656000
21
-58.300000
31
0.0
0
LINE
8
0
6
CONTINUOUS
10
26.000000
20
-63.000000
30
0.0
11
26.000000
21
-58.300000
31
0.0
0
LINE
8
0
6
CONTINUOUS
10
25.064000
20
-63.000000
30
0.0
11
26.000000
21
-63.000000
31
0.0
0
LINE
8
0
6
CONTINUOUS
10
25.064000
20
-58.300000
30
0.0
11
22.568000
21
-58.300000
31
0.0
0
LINE
8
0
6
CONTINUOUS
10
22.568000
20
-63.000000
30
0.0
11
25.064000
21
-63.000000
31
0.0
0
LINE
8
0
6
CONTINUOUS
10
22.568000
20
-58.300000
30
0.0
11
18.408000
21
-58.300000
31
0.0
0
LINE
8
0
6
CONTINUOUS
10
18.408000
20
-63.000000
30
0.0
11
22.568000
21
-63.000000
31
0.0
0
LINE
8
0
6
CONTINUOUS
10
18.408000
20
-58.300000
30
0.0
11
12.896000
21
-58.300000
31
0.0
0
LINE
8
0
6
CONTINUOUS
10
12.896000
20
-63.000000
30
0.0
11
18.408000
21
-63.000000
31
0.0
0
LINE
8
0
6
CONTINUOUS
10
12.896000
20
-58.300000
30
0.0
11
6.656000
21
-58.300000
31
0.0
0
LINE
8
0
6
CONTINUOUS
10
6.656000
20
-63.000000
30
0.0
11
12.896000
21
-63.000000
31
0.0
0
LINE
8
0
6
CONTINUOUS
10
6.656000
20
-58.300000
30
0.0
11
0.000000
21
-58.300000
31
0.0
0
LINE
8
0
6
CONTINUOUS
10
0.000000
20
-63.000000
30
0.0
11
6.656000
21
-63.000000
31
0.0
0
LINE
8
0
6
CONTINUOUS
10
26.000000
20
-63.000000
30
0.0
11
25.064000
21
-63.000000
31
0.0
0
LINE
8
0
6
CONTINUOUS
10
25.064000
20
-63.000000
30
0.0
11
22.568000
21
-63.000000
31
0.0
0
LINE
8
0
6
CONTINUOUS
10
22.568000
20
-63.000000
30
0.0
11
18.408000
21
-63.000000
31
0.0
0
LINE
8
0
6
CONTINUOUS
10
18.408000
20
-63.000000
30
0.0
11
12.896000
21
-63.000000
31
0.0
0
LINE
8
0
6
CONTINUOUS
10
12.896000
20
-63.000000
30
0.0
11
6.656000
21
-63.000000
31
0.0
0
LINE
8
0
6
CONTINUOUS
10
6.656000
20
-63.000000
30
0.0
11
0.000000
21
-63.000000
31
0.0
0
LINE
8
0
6
CONTINUOUS
10
-26.000000
20
-58.300000
30
0.0
11
-25.064000
21
-58.300000
31
0.0
0
LINE
8
0
6
CONTINUOUS
10
-24.440000
20
-58.000000
30
0.0
11
-25.376000
21
-58.000000
31
0.0
0
LINE
8
0
6
CONTINUOUS
10
-25.064000
20
-58.300000
30
0.0
11
-22.568000
21
-58.300000
31
0.0
0
LINE
8
0
6
CONTINUOUS
10
-21.944000
20
-58.000000
30
0.0
11
-24.440000
21
-58.000000
31
0.0
0
LINE
8
0
6
CONTINUOUS
10
-22.568000
20
-58.300000
30
0.0
11
-18.408000
21
-58.300000
31
0.0
0
LINE
8
0
6
CONTINUOUS
10
-17.888000
20
-58.000000
30
0.0
11
-21.944000
21
-58.000000
31
0.0
0
LINE
8
0
6
CONTINUOUS
10
-18.408000
20
-58.300000
30
0.0
11
-12.896000
21
-58.300000
31
0.0
0
LINE
8
0
6
CONTINUOUS
10
-12.584000
20
-58.000000
30
0.0
11
-17.888000
21
-58.000000
31
0.0
0
LINE
8
0
6
CONTINUOUS
10
-12.896000
20
-58.300000
30
0.0
11
-6.656000
21
-58.300000
31
0.0
0
LINE
8
0
6
CONTINUOUS
10
-6.552000
20
-58.000000
30
0.0
11
-12.584000
21
-58.000000
31
0.0
0
LINE
8
0
6
CONTINUOUS
10
-6.656000
20
-58.300000
30
0.0
11
0.000000
21
-58.300000
31
0.0
0
LINE
8
0
6
CONTINUOUS
10
0.000000
20
-58.000000
30
0.0
11
-6.552000
21
-58.000000
31
0.0
0
LINE
8
0
6
CONTINUOUS
10
-26.000000
20
-63.000000
30
0.0
11
-25.064000
21
-63.000000
31
0.0
0
LINE
8
0
6
CONTINUOUS
10
-25.064000
20
-58.300000
30
0.0
11
-26.000000
21
-58.300000
31
0.0
0
LINE
8
0
6
CONTINUOUS
10
-25.064000
20
-63.000000
30
0.0
11
-22.568000
21
-63.000000
31
0.0
0
LINE
8
0
6
CONTINUOUS
10
-22.568000
20
-58.300000
30
0.0
11
-25.064000
21
-58.300000
31
0.0
0
LINE
8
0
6
CONTINUOUS
10
-22.568000
20
-63.000000
30
0.0
11
-18.408000
21
-63.000000
31
0.0
0
LINE
8
0
6
CONTINUOUS
10
-18.408000
20
-58.300000
30
0.0
11
-22.568000
21
-58.300000
31
0.0
0
LINE
8
0
6
CONTINUOUS
10
-18.408000
20
-63.000000
30
0.0
11
-12.896000
21
-63.000000
31
0.0
0
LINE
8
0
6
CONTINUOUS
10
-12.896000
20
-58.300000
30
0.0
11
-18.408000
21
-58.300000
31
0.0
0
LINE
8
0
6
CONTINUOUS
10
-12.896000
20
-63.000000
30
0.0
11
-6.656000
21
-63.000000
31
0.0
0
LINE
8
0
6
CONTINUOUS
10
-6.656000
20
-58.300000
30
0.0
11
-12.896000
21
-58.300000
31
0.0
0
LINE
8
0
6
CONTINUOUS
10
-6.656000
20
-63.000000
30
0.0
11
0.000000
21
-63.000000
31
0.0
0
LINE
8
0
6
CONTINUOUS
10
0.000000
20
-58.300000
30
0.0
11
-6.656000
21
-58.300000
31
0.0
0
LINE
8
0
6
CONTINUOUS
10
-25.064000
20
-63.000000
30
0.0
11
-26.000000
21
-63.000000
31
0.0
0
LINE
8
0
6
CONTINUOUS
10
-22.568000
20
-63.000000
30
0.0
11
-25.064000
21
-63.000000
31
0.0
0
LINE
8
0
6
CONTINUOUS
10
-18.408000
20
-63.000000
30
0.0
11
-22.568000
21
-63.000000
31
0.0
0
LINE
8
0
6
CONTINUOUS
10
-12.896000
20
-63.000000
30
0.0
11
-18.408000
21
-63.000000
31
0.0
0
LINE
8
0
6
CONTINUOUS
10
-6.656000
20
-63.000000
30
0.0
11
-12.896000
21
-63.000000
31
0.0
0
LINE
8
0
6
CONTINUOUS
10
0.000000
20
-63.000000
30
0.0
11
-6.656000
21
-63.000000
31
0.0
0
LINE
8
0
6
CONTINUOUS
10
-26.000000
20
-58.300000
30
0.0
11
-25.376000
21
-58.000000
31
0.0
0
LINE
8
0
6
CONTINUOUS
10
-26.000000
20
-63.000000
30
0.0
11
-26.000000
21
-58.300000
31
0.0
0
ENDSEC
0
EOF
