999
Erzeugt mit innoplus bad 
0
SECTION
2
HEADER
9
$ACADVER
1
AC1009
9
$DWGCODEPAGE
3
ISO8859-1
0
ENDSEC
0
SECTION
2
TABLES
0
TABLE
2
LAYER
70
1
0
LAYER
2
0
70
0
62
7
6
CONTINUOUS
0
ENDTAB
0
ENDSEC
0
SECTION
2
ENTITIES
0
LINE
8
0
6
CONTINUOUS
10
0.000000
20
0.075473
30
0.0
11
0.016794
21
0.073581
31
0.0
0
LINE
8
0
6
CONTINUOUS
10
0.016794
20
0.073581
30
0.0
11
0.032746
21
0.067999
31
0.0
0
LINE
8
0
6
CONTINUOUS
10
0.047057
20
0.059007
30
0.0
11
0.032746
21
0.067999
31
0.0
0
LINE
8
0
6
CONTINUOUS
10
0.059007
20
0.047057
30
0.0
11
0.047057
21
0.059007
31
0.0
0
LINE
8
0
6
CONTINUOUS
10
0.059007
20
0.047057
30
0.0
11
0.067999
21
0.032747
31
0.0
0
LINE
8
0
6
CONTINUOUS
10
0.067999
20
0.032747
30
0.0
11
0.073581
21
0.016794
31
0.0
0
LINE
8
0
6
CONTINUOUS
10
0.073581
20
0.016794
30
0.0
11
0.075473
21
0.000000
31
0.0
0
LINE
8
0
6
CONTINUOUS
10
0.075473
20
0.000000
30
0.0
11
0.073581
21
-0.016794
31
0.0
0
LINE
8
0
6
CONTINUOUS
10
0.067999
20
-0.032746
30
0.0
11
0.073581
21
-0.016794
31
0.0
0
LINE
8
0
6
CONTINUOUS
10
0.059007
20
-0.047057
30
0.0
11
0.067999
21
-0.032746
31
0.0
0
LINE
8
0
6
CONTINUOUS
10
0.047057
20
-0.059007
30
0.0
11
0.059007
21
-0.047057
31
0.0
0
LINE
8
0
6
CONTINUOUS
10
0.032747
20
-0.067999
30
0.0
11
0.047057
21
-0.059007
31
0.0
0
LINE
8
0
6
CONTINUOUS
10
0.016794
20
-0.073581
30
0.0
11
0.032747
21
-0.067999
31
0.0
0
LINE
8
0
6
CONTINUOUS
10
0.000000
20
-0.075473
30
0.0
11
0.016794
21
-0.073581
31
0.0
0
LINE
8
0
6
CONTINUOUS
10
-0.016794
20
-0.073581
30
0.0
11
0.000000
21
-0.075473
31
0.0
0
LINE
8
0
6
CONTINUOUS
10
-0.032747
20
-0.067999
30
0.0
11
-0.016794
21
-0.073581
31
0.0
0
LINE
8
0
6
CONTINUOUS
10
-0.032747
20
-0.067999
30
0.0
11
-0.047057
21
-0.059007
31
0.0
0
LINE
8
0
6
CONTINUOUS
10
-0.059007
20
-0.047057
30
0.0
11
-0.047057
21
-0.059007
31
0.0
0
LINE
8
0
6
CONTINUOUS
10
-0.059007
20
-0.047057
30
0.0
11
-0.067999
21
-0.032747
31
0.0
0
LINE
8
0
6
CONTINUOUS
10
-0.073581
20
-0.016794
30
0.0
11
-0.067999
21
-0.032747
31
0.0
0
LINE
8
0
6
CONTINUOUS
10
-0.075473
20
0.000000
30
0.0
11
-0.073581
21
-0.016794
31
0.0
0
LINE
8
0
6
CONTINUOUS
10
-0.075473
20
0.000000
30
0.0
11
-0.073581
21
0.016794
31
0.0
0
LINE
8
0
6
CONTINUOUS
10
-0.067999
20
0.032747
30
0.0
11
-0.073581
21
0.016794
31
0.0
0
LINE
8
0
6
CONTINUOUS
10
-0.059007
20
0.047057
30
0.0
11
-0.067999
21
0.032747
31
0.0
0
LINE
8
0
6
CONTINUOUS
10
-0.047057
20
0.059007
30
0.0
11
-0.059007
21
0.047057
31
0.0
0
LINE
8
0
6
CONTINUOUS
10
-0.032747
20
0.067999
30
0.0
11
-0.047057
21
0.059007
31
0.0
0
LINE
8
0
6
CONTINUOUS
10
-0.016794
20
0.073581
30
0.0
11
-0.032747
21
0.067999
31
0.0
0
LINE
8
0
6
CONTINUOUS
10
-0.016794
20
0.073581
30
0.0
11
0.000000
21
0.075473
31
0.0
0
LINE
8
0
6
CONTINUOUS
10
-0.005672
20
-0.032386
30
0.0
11
-0.005672
21
-0.066019
31
0.0
0
LINE
8
0
6
CONTINUOUS
10
-0.007782
20
-0.021625
30
0.0
11
-0.006911
21
-0.023131
31
0.0
0
LINE
8
0
6
CONTINUOUS
10
-0.011160
20
-0.019530
30
0.0
11
-0.008606
21
-0.020961
31
0.0
0
LINE
8
0
6
CONTINUOUS
10
-0.005994
20
-0.025645
30
0.0
11
-0.005590
21
-0.028660
31
0.0
0
LINE
8
0
6
CONTINUOUS
10
-0.005181
20
-0.028338
30
0.0
11
-0.005691
21
-0.025541
31
0.0
0
LINE
8
0
6
CONTINUOUS
10
-0.002171
20
-0.026244
30
0.0
11
-0.002171
21
-0.029409
31
0.0
0
LINE
8
0
6
CONTINUOUS
10
-0.005590
20
-0.028660
30
0.0
11
-0.005672
21
-0.032386
31
0.0
0
LINE
8
0
6
CONTINUOUS
10
-0.005241
20
-0.032095
30
0.0
11
-0.005181
21
-0.028338
31
0.0
0
LINE
8
0
6
CONTINUOUS
10
-0.008606
20
-0.020961
30
0.0
11
-0.007782
21
-0.021625
31
0.0
0
LINE
8
0
6
CONTINUOUS
10
-0.006212
20
-0.024866
30
0.0
11
-0.005994
21
-0.025645
31
0.0
0
LINE
8
0
6
CONTINUOUS
10
-0.006911
20
-0.023131
30
0.0
11
-0.006212
21
-0.024866
31
0.0
0
LINE
8
0
6
CONTINUOUS
10
-0.002171
20
-0.064641
30
0.0
11
-0.002171
21
-0.065132
31
0.0
0
LINE
8
0
6
CONTINUOUS
10
0.000000
20
-0.065019
30
0.0
11
-0.002171
21
-0.065132
31
0.0
0
LINE
8
0
6
CONTINUOUS
10
-0.004582
20
-0.065680
30
0.0
11
-0.005241
21
-0.065939
31
0.0
0
LINE
8
0
6
CONTINUOUS
10
-0.002171
20
-0.065132
30
0.0
11
-0.003091
21
-0.065294
31
0.0
0
LINE
8
0
6
CONTINUOUS
10
-0.005672
20
-0.066019
30
0.0
11
-0.005672
21
-0.066509
31
0.0
0
LINE
8
0
6
CONTINUOUS
10
-0.005241
20
-0.065939
30
0.0
11
-0.005672
21
-0.066509
31
0.0
0
LINE
8
0
6
CONTINUOUS
10
-0.005672
20
-0.066509
30
0.0
11
-0.005241
21
-0.067080
31
0.0
0
LINE
8
0
6
CONTINUOUS
10
-0.005241
20
-0.067080
30
0.0
11
-0.004011
21
-0.067563
31
0.0
0
LINE
8
0
6
CONTINUOUS
10
-0.004011
20
-0.067563
30
0.0
11
-0.002171
21
-0.067887
31
0.0
0
LINE
8
0
6
CONTINUOUS
10
-0.002171
20
-0.067887
30
0.0
11
0.000000
21
-0.068000
31
0.0
0
LINE
8
0
6
CONTINUOUS
10
-0.002171
20
-0.029409
30
0.0
11
-0.002171
21
-0.064641
31
0.0
0
LINE
8
0
6
CONTINUOUS
10
-0.021690
20
0.005760
30
0.0
11
-0.022500
21
0.000000
31
0.0
0
LINE
8
0
6
CONTINUOUS
10
-0.022500
20
0.000000
30
0.0
11
-0.021690
21
-0.005760
31
0.0
0
LINE
8
0
6
CONTINUOUS
10
-0.011160
20
0.019530
30
0.0
11
-0.015930
21
0.015930
31
0.0
0
LINE
8
0
6
CONTINUOUS
10
-0.005760
20
0.021690
30
0.0
11
-0.011160
21
0.019530
31
0.0
0
LINE
8
0
6
CONTINUOUS
10
0.000000
20
0.022500
30
0.0
11
-0.005760
21
0.021690
31
0.0
0
LINE
8
0
6
CONTINUOUS
10
-0.015930
20
0.015930
30
0.0
11
-0.019530
21
0.011160
31
0.0
0
LINE
8
0
6
CONTINUOUS
10
-0.019530
20
-0.011160
30
0.0
11
-0.015930
21
-0.015930
31
0.0
0
LINE
8
0
6
CONTINUOUS
10
-0.021690
20
-0.005760
30
0.0
11
-0.019530
21
-0.011160
31
0.0
0
LINE
8
0
6
CONTINUOUS
10
-0.015930
20
-0.015930
30
0.0
11
-0.011160
21
-0.019530
31
0.0
0
LINE
8
0
6
CONTINUOUS
10
-0.019530
20
0.011160
30
0.0
11
-0.021690
21
0.005760
31
0.0
0
LINE
8
0
6
CONTINUOUS
10
-0.004035
20
-0.027956
30
0.0
11
-0.004053
21
-0.031896
31
0.0
0
LINE
8
0
6
CONTINUOUS
10
-0.004643
20
-0.025481
30
0.0
11
-0.004035
21
-0.027956
31
0.0
0
LINE
8
0
6
CONTINUOUS
10
-0.007116
20
-0.021732
30
0.0
11
-0.008125
21
-0.021019
31
0.0
0
LINE
8
0
6
CONTINUOUS
10
-0.011160
20
-0.019530
30
0.0
11
-0.008125
21
-0.021019
31
0.0
0
LINE
8
0
6
CONTINUOUS
10
-0.005888
20
-0.023228
30
0.0
11
-0.007116
21
-0.021732
31
0.0
0
LINE
8
0
6
CONTINUOUS
10
-0.004968
20
-0.024745
30
0.0
11
-0.005888
21
-0.023228
31
0.0
0
LINE
8
0
6
CONTINUOUS
10
-0.007333
20
-0.021697
30
0.0
11
-0.007782
21
-0.021625
31
0.0
0
LINE
8
0
6
CONTINUOUS
10
-0.004968
20
-0.024745
30
0.0
11
-0.004643
21
-0.025481
31
0.0
0
LINE
8
0
6
CONTINUOUS
10
-0.004053
20
-0.031896
30
0.0
11
-0.004011
21
-0.064965
31
0.0
0
LINE
8
0
6
CONTINUOUS
10
-0.004011
20
-0.065455
30
0.0
11
-0.004582
21
-0.065680
31
0.0
0
LINE
8
0
6
CONTINUOUS
10
-0.003091
20
-0.065294
30
0.0
11
-0.004011
21
-0.065455
31
0.0
0
LINE
8
0
6
CONTINUOUS
10
0.005672
20
-0.066019
30
0.0
11
0.005672
21
-0.032386
31
0.0
0
LINE
8
0
6
CONTINUOUS
10
0.006911
20
-0.023131
30
0.0
11
0.007782
21
-0.021625
31
0.0
0
LINE
8
0
6
CONTINUOUS
10
0.000000
20
-0.016555
30
0.0
11
0.000000
21
-0.021013
31
0.0
0
LINE
8
0
6
CONTINUOUS
10
0.008606
20
-0.020961
30
0.0
11
0.011160
21
-0.019530
31
0.0
0
LINE
8
0
6
CONTINUOUS
10
0.005691
20
-0.025541
30
0.0
11
0.005181
21
-0.028338
31
0.0
0
LINE
8
0
6
CONTINUOUS
10
0.005590
20
-0.028660
30
0.0
11
0.005994
21
-0.025645
31
0.0
0
LINE
8
0
6
CONTINUOUS
10
0.000000
20
-0.021013
30
0.0
11
0.000000
21
-0.025393
31
0.0
0
LINE
8
0
6
CONTINUOUS
10
0.000000
20
-0.025393
30
0.0
11
0.000000
21
-0.028618
31
0.0
0
LINE
8
0
6
CONTINUOUS
10
0.002171
20
-0.029409
30
0.0
11
0.002171
21
-0.026244
31
0.0
0
LINE
8
0
6
CONTINUOUS
10
0.005181
20
-0.028338
30
0.0
11
0.005241
21
-0.032095
31
0.0
0
LINE
8
0
6
CONTINUOUS
10
0.005672
20
-0.032386
30
0.0
11
0.005590
21
-0.028660
31
0.0
0
LINE
8
0
6
CONTINUOUS
10
0.007782
20
-0.021625
30
0.0
11
0.008606
21
-0.020961
31
0.0
0
LINE
8
0
6
CONTINUOUS
10
0.005994
20
-0.025645
30
0.0
11
0.006212
21
-0.024866
31
0.0
0
LINE
8
0
6
CONTINUOUS
10
0.000000
20
-0.011431
30
0.0
11
0.000000
21
-0.016555
31
0.0
0
LINE
8
0
6
CONTINUOUS
10
0.006212
20
-0.024866
30
0.0
11
0.006911
21
-0.023131
31
0.0
0
LINE
8
0
6
CONTINUOUS
10
0.002171
20
-0.065132
30
0.0
11
0.002171
21
-0.064641
31
0.0
0
LINE
8
0
6
CONTINUOUS
10
0.000000
20
-0.064528
30
0.0
11
0.000000
21
-0.065019
31
0.0
0
LINE
8
0
6
CONTINUOUS
10
0.002171
20
-0.065132
30
0.0
11
0.000000
21
-0.065019
31
0.0
0
LINE
8
0
6
CONTINUOUS
10
0.005241
20
-0.065939
30
0.0
11
0.004582
21
-0.065680
31
0.0
0
LINE
8
0
6
CONTINUOUS
10
0.003091
20
-0.065294
30
0.0
11
0.002171
21
-0.065132
31
0.0
0
LINE
8
0
6
CONTINUOUS
10
0.005672
20
-0.066509
30
0.0
11
0.005672
21
-0.066019
31
0.0
0
LINE
8
0
6
CONTINUOUS
10
0.005672
20
-0.066509
30
0.0
11
0.005241
21
-0.065939
31
0.0
0
LINE
8
0
6
CONTINUOUS
10
0.005241
20
-0.067080
30
0.0
11
0.005672
21
-0.066509
31
0.0
0
LINE
8
0
6
CONTINUOUS
10
0.004011
20
-0.067563
30
0.0
11
0.005241
21
-0.067080
31
0.0
0
LINE
8
0
6
CONTINUOUS
10
0.002171
20
-0.067887
30
0.0
11
0.004011
21
-0.067563
31
0.0
0
LINE
8
0
6
CONTINUOUS
10
0.000000
20
-0.068000
30
0.0
11
0.002171
21
-0.067887
31
0.0
0
LINE
8
0
6
CONTINUOUS
10
0.000000
20
-0.028618
30
0.0
11
0.000000
21
-0.064528
31
0.0
0
LINE
8
0
6
CONTINUOUS
10
0.002171
20
-0.064641
30
0.0
11
0.002171
21
-0.029409
31
0.0
0
LINE
8
0
6
CONTINUOUS
10
0.022500
20
0.000000
30
0.0
11
0.021690
21
0.005760
31
0.0
0
LINE
8
0
6
CONTINUOUS
10
0.021690
20
-0.005760
30
0.0
11
0.022500
21
0.000000
31
0.0
0
LINE
8
0
6
CONTINUOUS
10
0.015930
20
0.015930
30
0.0
11
0.011160
21
0.019530
31
0.0
0
LINE
8
0
6
CONTINUOUS
10
0.011160
20
0.019530
30
0.0
11
0.005760
21
0.021690
31
0.0
0
LINE
8
0
6
CONTINUOUS
10
0.005760
20
0.021690
30
0.0
11
0.000000
21
0.022500
31
0.0
0
LINE
8
0
6
CONTINUOUS
10
0.019530
20
0.011160
30
0.0
11
0.015930
21
0.015930
31
0.0
0
LINE
8
0
6
CONTINUOUS
10
0.015930
20
-0.015930
30
0.0
11
0.019530
21
-0.011160
31
0.0
0
LINE
8
0
6
CONTINUOUS
10
0.019530
20
-0.011160
30
0.0
11
0.021690
21
-0.005760
31
0.0
0
LINE
8
0
6
CONTINUOUS
10
0.011160
20
-0.019530
30
0.0
11
0.015930
21
-0.015930
31
0.0
0
LINE
8
0
6
CONTINUOUS
10
0.021690
20
0.005760
30
0.0
11
0.019530
21
0.011160
31
0.0
0
LINE
8
0
6
CONTINUOUS
10
0.004053
20
-0.031896
30
0.0
11
0.004035
21
-0.027956
31
0.0
0
LINE
8
0
6
CONTINUOUS
10
0.004035
20
-0.027956
30
0.0
11
0.004643
21
-0.025481
31
0.0
0
LINE
8
0
6
CONTINUOUS
10
0.008125
20
-0.021019
30
0.0
11
0.007116
21
-0.021732
31
0.0
0
LINE
8
0
6
CONTINUOUS
10
0.008125
20
-0.021019
30
0.0
11
0.011160
21
-0.019530
31
0.0
0
LINE
8
0
6
CONTINUOUS
10
0.007116
20
-0.021732
30
0.0
11
0.005888
21
-0.023228
31
0.0
0
LINE
8
0
6
CONTINUOUS
10
0.005888
20
-0.023228
30
0.0
11
0.004968
21
-0.024745
31
0.0
0
LINE
8
0
6
CONTINUOUS
10
0.007782
20
-0.021625
30
0.0
11
0.007333
21
-0.021697
31
0.0
0
LINE
8
0
6
CONTINUOUS
10
0.004643
20
-0.025481
30
0.0
11
0.004968
21
-0.024745
31
0.0
0
LINE
8
0
6
CONTINUOUS
10
0.004011
20
-0.064965
30
0.0
11
0.004053
21
-0.031896
31
0.0
0
LINE
8
0
6
CONTINUOUS
10
0.004582
20
-0.065680
30
0.0
11
0.004011
21
-0.065455
31
0.0
0
LINE
8
0
6
CONTINUOUS
10
0.004011
20
-0.065455
30
0.0
11
0.003091
21
-0.065294
31
0.0
0
LINE
8
0
6
CONTINUOUS
10
0.000000
20
-0.005359
30
0.0
11
0.000000
21
-0.011431
31
0.0
0
ENDSEC
0
EOF
