999
Erzeugt mit innoplus bad 
0
SECTION
2
HEADER
9
$ACADVER
1
AC1009
9
$DWGCODEPAGE
3
ISO8859-1
0
ENDSEC
0
SECTION
2
TABLES
0
TABLE
2
LAYER
70
1
0
LAYER
2
0
70
0
62
7
6
CONTINUOUS
0
ENDTAB
0
ENDSEC
0
SECTION
2
ENTITIES
0
LINE
8
0
6
CONTINUOUS
10
-0.022003
20
-0.055543
30
0.0
11
-0.022003
21
-0.058643
31
0.0
0
LINE
8
0
6
CONTINUOUS
10
-0.022003
20
-0.052422
30
0.0
11
-0.022003
21
-0.055543
31
0.0
0
LINE
8
0
6
CONTINUOUS
10
-0.022003
20
-0.049279
30
0.0
11
-0.022003
21
-0.052422
31
0.0
0
LINE
8
0
6
CONTINUOUS
10
-0.022003
20
-0.041448
30
0.0
11
-0.022003
21
-0.046114
31
0.0
0
LINE
8
0
6
CONTINUOUS
10
-0.022003
20
-0.046114
30
0.0
11
-0.022003
21
-0.049279
31
0.0
0
LINE
8
0
6
CONTINUOUS
10
-0.022003
20
-0.058643
30
0.0
11
-0.022003
21
-0.060783
31
0.0
0
LINE
8
0
6
CONTINUOUS
10
0.003985
20
-0.072060
30
0.0
11
0.005476
21
-0.062138
31
0.0
0
LINE
8
0
6
CONTINUOUS
10
-0.020565
20
-0.029143
30
0.0
11
-0.020565
21
-0.029833
31
0.0
0
LINE
8
0
6
CONTINUOUS
10
-0.006959
20
-0.063385
30
0.0
11
-0.005757
21
-0.063791
31
0.0
0
LINE
8
0
6
CONTINUOUS
10
-0.022003
20
-0.060783
30
0.0
11
-0.022003
21
-0.061896
31
0.0
0
LINE
8
0
6
CONTINUOUS
10
-0.022003
20
-0.061896
30
0.0
11
-0.021211
21
-0.061566
31
0.0
0
LINE
8
0
6
CONTINUOUS
10
-0.022003
20
-0.061896
30
0.0
11
-0.021211
21
-0.062227
31
0.0
0
LINE
8
0
6
CONTINUOUS
10
-0.015578
20
-0.060984
30
0.0
11
-0.010913
21
-0.060778
31
0.0
0
LINE
8
0
6
CONTINUOUS
10
-0.010913
20
-0.060778
30
0.0
11
-0.005633
21
-0.060655
31
0.0
0
LINE
8
0
6
CONTINUOUS
10
-0.005633
20
-0.060655
30
0.0
11
0.000000
21
-0.060608
31
0.0
0
LINE
8
0
6
CONTINUOUS
10
-0.019098
20
-0.061257
30
0.0
11
-0.015578
21
-0.060984
31
0.0
0
LINE
8
0
6
CONTINUOUS
10
-0.019098
20
-0.062538
30
0.0
11
-0.015578
21
-0.062812
31
0.0
0
LINE
8
0
6
CONTINUOUS
10
-0.021211
20
-0.062227
30
0.0
11
-0.019098
21
-0.062538
31
0.0
0
LINE
8
0
6
CONTINUOUS
10
-0.015578
20
-0.062812
30
0.0
11
-0.010913
21
-0.063020
31
0.0
0
LINE
8
0
6
CONTINUOUS
10
-0.021211
20
-0.061566
30
0.0
11
-0.019098
21
-0.061257
31
0.0
0
LINE
8
0
6
CONTINUOUS
10
-0.004473
20
-0.064539
30
0.0
11
-0.004171
21
-0.065047
31
0.0
0
LINE
8
0
6
CONTINUOUS
10
-0.007946
20
-0.063106
30
0.0
11
-0.006959
21
-0.063385
31
0.0
0
LINE
8
0
6
CONTINUOUS
10
-0.010913
20
-0.063020
30
0.0
11
-0.007946
21
-0.063106
31
0.0
0
LINE
8
0
6
CONTINUOUS
10
-0.005757
20
-0.063791
30
0.0
11
-0.004858
21
-0.064202
31
0.0
0
LINE
8
0
6
CONTINUOUS
10
-0.004858
20
-0.064202
30
0.0
11
-0.004473
21
-0.064539
31
0.0
0
LINE
8
0
6
CONTINUOUS
10
-0.005164
20
-0.064011
30
0.0
11
-0.003985
21
-0.072060
31
0.0
0
LINE
8
0
6
CONTINUOUS
10
-0.022003
20
-0.030333
30
0.0
11
-0.022003
21
-0.041448
31
0.0
0
LINE
8
0
6
CONTINUOUS
10
0.022003
20
-0.058643
30
0.0
11
0.022003
21
-0.055543
31
0.0
0
LINE
8
0
6
CONTINUOUS
10
0.022003
20
-0.055543
30
0.0
11
0.022003
21
-0.052422
31
0.0
0
LINE
8
0
6
CONTINUOUS
10
0.000000
20
-0.064190
30
0.0
11
0.000000
21
-0.065281
31
0.0
0
LINE
8
0
6
CONTINUOUS
10
0.022003
20
-0.052422
30
0.0
11
0.022003
21
-0.049279
31
0.0
0
LINE
8
0
6
CONTINUOUS
10
0.022003
20
-0.046114
30
0.0
11
0.022003
21
-0.041448
31
0.0
0
LINE
8
0
6
CONTINUOUS
10
0.022003
20
-0.049279
30
0.0
11
0.022003
21
-0.046114
31
0.0
0
LINE
8
0
6
CONTINUOUS
10
0.022003
20
-0.060783
30
0.0
11
0.022003
21
-0.058643
31
0.0
0
LINE
8
0
6
CONTINUOUS
10
0.020565
20
-0.029833
30
0.0
11
0.020565
21
-0.029143
31
0.0
0
LINE
8
0
6
CONTINUOUS
10
0.005757
20
-0.063791
30
0.0
11
0.006959
21
-0.063385
31
0.0
0
LINE
8
0
6
CONTINUOUS
10
0.000000
20
-0.063093
30
0.0
11
0.000000
21
-0.064190
31
0.0
0
LINE
8
0
6
CONTINUOUS
10
0.021211
20
-0.061566
30
0.0
11
0.022003
21
-0.061896
31
0.0
0
LINE
8
0
6
CONTINUOUS
10
0.022003
20
-0.061896
30
0.0
11
0.022003
21
-0.060783
31
0.0
0
LINE
8
0
6
CONTINUOUS
10
0.021211
20
-0.062227
30
0.0
11
0.022003
21
-0.061896
31
0.0
0
LINE
8
0
6
CONTINUOUS
10
0.010913
20
-0.060778
30
0.0
11
0.015578
21
-0.060984
31
0.0
0
LINE
8
0
6
CONTINUOUS
10
0.005633
20
-0.060655
30
0.0
11
0.010913
21
-0.060778
31
0.0
0
LINE
8
0
6
CONTINUOUS
10
0.000000
20
-0.060608
30
0.0
11
0.005633
21
-0.060655
31
0.0
0
LINE
8
0
6
CONTINUOUS
10
0.015578
20
-0.060984
30
0.0
11
0.019098
21
-0.061257
31
0.0
0
LINE
8
0
6
CONTINUOUS
10
0.015578
20
-0.062812
30
0.0
11
0.019098
21
-0.062538
31
0.0
0
LINE
8
0
6
CONTINUOUS
10
0.019098
20
-0.062538
30
0.0
11
0.021211
21
-0.062227
31
0.0
0
LINE
8
0
6
CONTINUOUS
10
0.010913
20
-0.063020
30
0.0
11
0.015578
21
-0.062812
31
0.0
0
LINE
8
0
6
CONTINUOUS
10
0.019098
20
-0.061257
30
0.0
11
0.021211
21
-0.061566
31
0.0
0
LINE
8
0
6
CONTINUOUS
10
0.004171
20
-0.065047
30
0.0
11
0.004473
21
-0.064539
31
0.0
0
LINE
8
0
6
CONTINUOUS
10
0.006959
20
-0.063385
30
0.0
11
0.007946
21
-0.063106
31
0.0
0
LINE
8
0
6
CONTINUOUS
10
0.007946
20
-0.063106
30
0.0
11
0.010913
21
-0.063020
31
0.0
0
LINE
8
0
6
CONTINUOUS
10
0.004858
20
-0.064202
30
0.0
11
0.005757
21
-0.063791
31
0.0
0
LINE
8
0
6
CONTINUOUS
10
0.004473
20
-0.064539
30
0.0
11
0.004858
21
-0.064202
31
0.0
0
LINE
8
0
6
CONTINUOUS
10
0.022003
20
-0.041448
30
0.0
11
0.022003
21
-0.030333
31
0.0
0
LINE
8
0
6
CONTINUOUS
10
-0.001226
20
-0.075776
30
0.0
11
0.000000
21
-0.075961
31
0.0
0
LINE
8
0
6
CONTINUOUS
10
-0.003775
20
-0.073340
30
0.0
11
-0.003211
21
-0.074397
31
0.0
0
LINE
8
0
6
CONTINUOUS
10
-0.003211
20
-0.074397
30
0.0
11
-0.002333
21
-0.075237
31
0.0
0
LINE
8
0
6
CONTINUOUS
10
-0.002333
20
-0.075237
30
0.0
11
-0.001226
21
-0.075776
31
0.0
0
LINE
8
0
6
CONTINUOUS
10
-0.003985
20
-0.072060
30
0.0
11
-0.003969
21
-0.072167
31
0.0
0
LINE
8
0
6
CONTINUOUS
10
-0.003969
20
-0.072167
30
0.0
11
-0.003775
21
-0.073340
31
0.0
0
LINE
8
0
6
CONTINUOUS
10
0.000000
20
-0.075961
30
0.0
11
0.001226
21
-0.075776
31
0.0
0
LINE
8
0
6
CONTINUOUS
10
0.003211
20
-0.074397
30
0.0
11
0.003775
21
-0.073340
31
0.0
0
LINE
8
0
6
CONTINUOUS
10
0.002333
20
-0.075237
30
0.0
11
0.003211
21
-0.074397
31
0.0
0
LINE
8
0
6
CONTINUOUS
10
0.001226
20
-0.075776
30
0.0
11
0.002333
21
-0.075237
31
0.0
0
LINE
8
0
6
CONTINUOUS
10
0.003969
20
-0.072167
30
0.0
11
0.003985
21
-0.072060
31
0.0
0
LINE
8
0
6
CONTINUOUS
10
0.003775
20
-0.073340
30
0.0
11
0.003969
21
-0.072167
31
0.0
0
LINE
8
0
6
CONTINUOUS
10
-0.015578
20
-0.029833
30
0.0
11
-0.019098
21
-0.029833
31
0.0
0
LINE
8
0
6
CONTINUOUS
10
-0.010913
20
-0.029833
30
0.0
11
-0.015578
21
-0.029833
31
0.0
0
LINE
8
0
6
CONTINUOUS
10
0.000000
20
-0.029833
30
0.0
11
-0.005633
21
-0.029833
31
0.0
0
LINE
8
0
6
CONTINUOUS
10
-0.022003
20
-0.029833
30
0.0
11
-0.022003
21
-0.030333
31
0.0
0
LINE
8
0
6
CONTINUOUS
10
-0.021211
20
-0.029833
30
0.0
11
-0.022003
21
-0.029833
31
0.0
0
LINE
8
0
6
CONTINUOUS
10
-0.005633
20
-0.029833
30
0.0
11
-0.010913
21
-0.029833
31
0.0
0
LINE
8
0
6
CONTINUOUS
10
-0.019098
20
-0.029833
30
0.0
11
-0.021211
21
-0.029833
31
0.0
0
LINE
8
0
6
CONTINUOUS
10
0.019098
20
-0.029833
30
0.0
11
0.015578
21
-0.029833
31
0.0
0
LINE
8
0
6
CONTINUOUS
10
0.015578
20
-0.029833
30
0.0
11
0.010913
21
-0.029833
31
0.0
0
LINE
8
0
6
CONTINUOUS
10
0.005633
20
-0.029833
30
0.0
11
0.000000
21
-0.029833
31
0.0
0
LINE
8
0
6
CONTINUOUS
10
0.022003
20
-0.029833
30
0.0
11
0.021211
21
-0.029833
31
0.0
0
LINE
8
0
6
CONTINUOUS
10
0.022003
20
-0.030333
30
0.0
11
0.022003
21
-0.029833
31
0.0
0
LINE
8
0
6
CONTINUOUS
10
0.010913
20
-0.029833
30
0.0
11
0.005633
21
-0.029833
31
0.0
0
LINE
8
0
6
CONTINUOUS
10
0.021211
20
-0.029833
30
0.0
11
0.019098
21
-0.029833
31
0.0
0
LINE
8
0
6
CONTINUOUS
10
-0.059126
20
0.042313
30
0.0
11
-0.059165
21
0.042342
31
0.0
0
LINE
8
0
6
CONTINUOUS
10
-0.059126
20
0.031468
30
0.0
11
-0.059126
21
0.042313
31
0.0
0
LINE
8
0
6
CONTINUOUS
10
-0.062453
20
0.044873
30
0.0
11
-0.062896
21
0.044873
31
0.0
0
LINE
8
0
6
CONTINUOUS
10
-0.092626
20
0.031468
30
0.0
11
-0.089300
21
0.028907
31
0.0
0
LINE
8
0
6
CONTINUOUS
10
-0.089300
20
0.028907
30
0.0
11
-0.087953
21
0.028907
31
0.0
0
LINE
8
0
6
CONTINUOUS
10
-0.087953
20
0.044873
30
0.0
11
-0.089300
21
0.044873
31
0.0
0
LINE
8
0
6
CONTINUOUS
10
-0.092626
20
0.042313
30
0.0
11
-0.092626
21
0.031468
31
0.0
0
LINE
8
0
6
CONTINUOUS
10
-0.089300
20
0.044873
30
0.0
11
-0.092626
21
0.042313
31
0.0
0
LINE
8
0
6
CONTINUOUS
10
-0.077223
20
0.044873
30
0.0
11
-0.087953
21
0.044873
31
0.0
0
LINE
8
0
6
CONTINUOUS
10
-0.084665
20
0.042342
30
0.0
11
-0.083876
21
0.042313
31
0.0
0
LINE
8
0
6
CONTINUOUS
10
-0.087953
20
0.044873
30
0.0
11
-0.084665
21
0.042342
31
0.0
0
LINE
8
0
6
CONTINUOUS
10
-0.067876
20
0.042313
30
0.0
11
-0.067088
21
0.042342
31
0.0
0
LINE
8
0
6
CONTINUOUS
10
-0.063800
20
0.044873
30
0.0
11
-0.074530
21
0.044873
31
0.0
0
LINE
8
0
6
CONTINUOUS
10
-0.074530
20
0.044873
30
0.0
11
-0.077223
21
0.044873
31
0.0
0
LINE
8
0
6
CONTINUOUS
10
-0.067876
20
0.042313
30
0.0
11
-0.074530
21
0.044873
31
0.0
0
LINE
8
0
6
CONTINUOUS
10
-0.077223
20
0.044873
30
0.0
11
-0.083876
21
0.042313
31
0.0
0
LINE
8
0
6
CONTINUOUS
10
-0.077223
20
0.028907
30
0.0
11
-0.074530
21
0.028907
31
0.0
0
LINE
8
0
6
CONTINUOUS
10
-0.059165
20
0.042342
30
0.0
11
-0.062453
21
0.044873
31
0.0
0
LINE
8
0
6
CONTINUOUS
10
-0.062453
20
0.044873
30
0.0
11
-0.063800
21
0.044873
31
0.0
0
LINE
8
0
6
CONTINUOUS
10
-0.063800
20
0.044873
30
0.0
11
-0.067088
21
0.042342
31
0.0
0
LINE
8
0
6
CONTINUOUS
10
-0.063800
20
0.028907
30
0.0
11
-0.062453
21
0.028907
31
0.0
0
LINE
8
0
6
CONTINUOUS
10
-0.062453
20
0.028907
30
0.0
11
-0.059165
21
0.031438
31
0.0
0
LINE
8
0
6
CONTINUOUS
10
-0.059126
20
0.031468
30
0.0
11
-0.059165
21
0.031438
31
0.0
0
LINE
8
0
6
CONTINUOUS
10
-0.067876
20
0.031468
30
0.0
11
-0.074530
21
0.028907
31
0.0
0
LINE
8
0
6
CONTINUOUS
10
-0.063800
20
0.028907
30
0.0
11
-0.067088
21
0.031438
31
0.0
0
LINE
8
0
6
CONTINUOUS
10
-0.074530
20
0.028907
30
0.0
11
-0.063800
21
0.028907
31
0.0
0
LINE
8
0
6
CONTINUOUS
10
-0.067088
20
0.031438
30
0.0
11
-0.067876
21
0.031468
31
0.0
0
LINE
8
0
6
CONTINUOUS
10
-0.083876
20
0.031468
30
0.0
11
-0.084665
21
0.031438
31
0.0
0
LINE
8
0
6
CONTINUOUS
10
-0.084665
20
0.031438
30
0.0
11
-0.087953
21
0.028907
31
0.0
0
LINE
8
0
6
CONTINUOUS
10
-0.087953
20
0.028907
30
0.0
11
-0.077223
21
0.028907
31
0.0
0
LINE
8
0
6
CONTINUOUS
10
-0.077223
20
0.028907
30
0.0
11
-0.083876
21
0.031468
31
0.0
0
LINE
8
0
6
CONTINUOUS
10
-0.062787
20
0.027857
30
0.0
11
-0.062787
21
0.028907
31
0.0
0
LINE
8
0
6
CONTINUOUS
10
-0.062787
20
0.044873
30
0.0
11
-0.062787
21
0.052323
31
0.0
0
LINE
8
0
6
CONTINUOUS
10
-0.110457
20
0.054411
30
0.0
11
-0.110457
21
0.052442
31
0.0
0
LINE
8
0
6
CONTINUOUS
10
-0.042389
20
0.052442
30
0.0
11
-0.042389
21
0.054411
31
0.0
0
LINE
8
0
6
CONTINUOUS
10
-0.076423
20
0.052442
30
0.0
11
-0.083996
21
0.052442
31
0.0
0
LINE
8
0
6
CONTINUOUS
10
-0.083996
20
0.052442
30
0.0
11
-0.091190
21
0.052442
31
0.0
0
LINE
8
0
6
CONTINUOUS
10
-0.096553
20
0.052323
30
0.0
11
-0.090431
21
0.052323
31
0.0
0
LINE
8
0
6
CONTINUOUS
10
-0.091190
20
0.052442
30
0.0
11
-0.097643
21
0.052442
31
0.0
0
LINE
8
0
6
CONTINUOUS
10
-0.101665
20
0.052323
30
0.0
11
-0.096553
21
0.052323
31
0.0
0
LINE
8
0
6
CONTINUOUS
10
-0.097643
20
0.052442
30
0.0
11
-0.103032
21
0.052442
31
0.0
0
LINE
8
0
6
CONTINUOUS
10
-0.105511
20
0.052323
30
0.0
11
-0.101665
21
0.052323
31
0.0
0
LINE
8
0
6
CONTINUOUS
10
-0.103032
20
0.052442
30
0.0
11
-0.107087
21
0.052442
31
0.0
0
LINE
8
0
6
CONTINUOUS
10
-0.107899
20
0.052323
30
0.0
11
-0.105511
21
0.052323
31
0.0
0
LINE
8
0
6
CONTINUOUS
10
-0.107087
20
0.052442
30
0.0
11
-0.109604
21
0.052442
31
0.0
0
LINE
8
0
6
CONTINUOUS
10
-0.108708
20
0.052323
30
0.0
11
-0.107899
21
0.052323
31
0.0
0
LINE
8
0
6
CONTINUOUS
10
-0.110457
20
0.052442
30
0.0
11
-0.108708
21
0.052323
31
0.0
0
LINE
8
0
6
CONTINUOUS
10
-0.109604
20
0.052442
30
0.0
11
-0.110457
21
0.052442
31
0.0
0
LINE
8
0
6
CONTINUOUS
10
-0.044947
20
0.052323
30
0.0
11
-0.044138
21
0.052323
31
0.0
0
LINE
8
0
6
CONTINUOUS
10
-0.042389
20
0.052442
30
0.0
11
-0.043242
21
0.052442
31
0.0
0
LINE
8
0
6
CONTINUOUS
10
-0.044138
20
0.052323
30
0.0
11
-0.042389
21
0.052442
31
0.0
0
LINE
8
0
6
CONTINUOUS
10
-0.047335
20
0.052323
30
0.0
11
-0.044947
21
0.052323
31
0.0
0
LINE
8
0
6
CONTINUOUS
10
-0.043242
20
0.052442
30
0.0
11
-0.045759
21
0.052442
31
0.0
0
LINE
8
0
6
CONTINUOUS
10
-0.051182
20
0.052323
30
0.0
11
-0.047335
21
0.052323
31
0.0
0
LINE
8
0
6
CONTINUOUS
10
-0.045759
20
0.052442
30
0.0
11
-0.049814
21
0.052442
31
0.0
0
LINE
8
0
6
CONTINUOUS
10
-0.056294
20
0.052323
30
0.0
11
-0.051182
21
0.052323
31
0.0
0
LINE
8
0
6
CONTINUOUS
10
-0.049814
20
0.052442
30
0.0
11
-0.055203
21
0.052442
31
0.0
0
LINE
8
0
6
CONTINUOUS
10
-0.062415
20
0.052323
30
0.0
11
-0.056294
21
0.052323
31
0.0
0
LINE
8
0
6
CONTINUOUS
10
-0.055203
20
0.052442
30
0.0
11
-0.061656
21
0.052442
31
0.0
0
LINE
8
0
6
CONTINUOUS
10
-0.061656
20
0.052442
30
0.0
11
-0.068850
21
0.052442
31
0.0
0
LINE
8
0
6
CONTINUOUS
10
-0.068850
20
0.052442
30
0.0
11
-0.076423
21
0.052442
31
0.0
0
LINE
8
0
6
CONTINUOUS
10
-0.110457
20
0.075165
30
0.0
11
-0.110457
21
0.054411
31
0.0
0
LINE
8
0
6
CONTINUOUS
10
-0.042389
20
0.054411
30
0.0
11
-0.042389
21
0.075165
31
0.0
0
LINE
8
0
6
CONTINUOUS
10
-0.076423
20
0.075961
30
0.0
11
-0.083996
21
0.075961
31
0.0
0
LINE
8
0
6
CONTINUOUS
10
-0.083996
20
0.075961
30
0.0
11
-0.091190
21
0.075961
31
0.0
0
LINE
8
0
6
CONTINUOUS
10
-0.091190
20
0.075961
30
0.0
11
-0.097643
21
0.075961
31
0.0
0
LINE
8
0
6
CONTINUOUS
10
-0.097643
20
0.075961
30
0.0
11
-0.103032
21
0.075961
31
0.0
0
LINE
8
0
6
CONTINUOUS
10
-0.103032
20
0.075961
30
0.0
11
-0.107087
21
0.075961
31
0.0
0
LINE
8
0
6
CONTINUOUS
10
-0.107087
20
0.075961
30
0.0
11
-0.109604
21
0.075961
31
0.0
0
LINE
8
0
6
CONTINUOUS
10
-0.110457
20
0.075961
30
0.0
11
-0.110457
21
0.075165
31
0.0
0
LINE
8
0
6
CONTINUOUS
10
-0.109604
20
0.075961
30
0.0
11
-0.110457
21
0.075961
31
0.0
0
LINE
8
0
6
CONTINUOUS
10
-0.042389
20
0.075165
30
0.0
11
-0.042389
21
0.075961
31
0.0
0
LINE
8
0
6
CONTINUOUS
10
-0.042389
20
0.075961
30
0.0
11
-0.043242
21
0.075961
31
0.0
0
LINE
8
0
6
CONTINUOUS
10
-0.043242
20
0.075961
30
0.0
11
-0.045759
21
0.075961
31
0.0
0
LINE
8
0
6
CONTINUOUS
10
-0.045759
20
0.075961
30
0.0
11
-0.049814
21
0.075961
31
0.0
0
LINE
8
0
6
CONTINUOUS
10
-0.049814
20
0.075961
30
0.0
11
-0.055203
21
0.075961
31
0.0
0
LINE
8
0
6
CONTINUOUS
10
-0.055203
20
0.075961
30
0.0
11
-0.061656
21
0.075961
31
0.0
0
LINE
8
0
6
CONTINUOUS
10
-0.068850
20
0.075961
30
0.0
11
-0.076423
21
0.075961
31
0.0
0
LINE
8
0
6
CONTINUOUS
10
-0.061656
20
0.075961
30
0.0
11
-0.068850
21
0.075961
31
0.0
0
LINE
8
0
6
CONTINUOUS
10
-0.089234
20
0.052323
30
0.0
11
-0.089234
21
0.044873
31
0.0
0
LINE
8
0
6
CONTINUOUS
10
-0.089234
20
0.028907
30
0.0
11
-0.089234
21
0.027857
31
0.0
0
LINE
8
0
6
CONTINUOUS
10
0.093720
20
0.042313
30
0.0
11
0.093681
21
0.042342
31
0.0
0
LINE
8
0
6
CONTINUOUS
10
0.093720
20
0.031468
30
0.0
11
0.093720
21
0.042313
31
0.0
0
LINE
8
0
6
CONTINUOUS
10
0.090393
20
0.044873
30
0.0
11
0.089950
21
0.044873
31
0.0
0
LINE
8
0
6
CONTINUOUS
10
0.060220
20
0.031468
30
0.0
11
0.063546
21
0.028907
31
0.0
0
LINE
8
0
6
CONTINUOUS
10
0.063546
20
0.028907
30
0.0
11
0.064893
21
0.028907
31
0.0
0
LINE
8
0
6
CONTINUOUS
10
0.064893
20
0.044873
30
0.0
11
0.063546
21
0.044873
31
0.0
0
LINE
8
0
6
CONTINUOUS
10
0.060220
20
0.042313
30
0.0
11
0.060220
21
0.031468
31
0.0
0
LINE
8
0
6
CONTINUOUS
10
0.063546
20
0.044873
30
0.0
11
0.060220
21
0.042313
31
0.0
0
LINE
8
0
6
CONTINUOUS
10
0.075623
20
0.044873
30
0.0
11
0.064893
21
0.044873
31
0.0
0
LINE
8
0
6
CONTINUOUS
10
0.068181
20
0.042342
30
0.0
11
0.068970
21
0.042313
31
0.0
0
LINE
8
0
6
CONTINUOUS
10
0.064893
20
0.044873
30
0.0
11
0.068181
21
0.042342
31
0.0
0
LINE
8
0
6
CONTINUOUS
10
0.084970
20
0.042313
30
0.0
11
0.085759
21
0.042342
31
0.0
0
LINE
8
0
6
CONTINUOUS
10
0.089046
20
0.044873
30
0.0
11
0.078317
21
0.044873
31
0.0
0
LINE
8
0
6
CONTINUOUS
10
0.078317
20
0.044873
30
0.0
11
0.075623
21
0.044873
31
0.0
0
LINE
8
0
6
CONTINUOUS
10
0.084970
20
0.042313
30
0.0
11
0.078317
21
0.044873
31
0.0
0
LINE
8
0
6
CONTINUOUS
10
0.075623
20
0.044873
30
0.0
11
0.068970
21
0.042313
31
0.0
0
LINE
8
0
6
CONTINUOUS
10
0.075623
20
0.028907
30
0.0
11
0.078317
21
0.028907
31
0.0
0
LINE
8
0
6
CONTINUOUS
10
0.093681
20
0.042342
30
0.0
11
0.090393
21
0.044873
31
0.0
0
LINE
8
0
6
CONTINUOUS
10
0.090393
20
0.044873
30
0.0
11
0.089046
21
0.044873
31
0.0
0
LINE
8
0
6
CONTINUOUS
10
0.089046
20
0.044873
30
0.0
11
0.085759
21
0.042342
31
0.0
0
LINE
8
0
6
CONTINUOUS
10
0.089046
20
0.028907
30
0.0
11
0.090393
21
0.028907
31
0.0
0
LINE
8
0
6
CONTINUOUS
10
0.090393
20
0.028907
30
0.0
11
0.093681
21
0.031438
31
0.0
0
LINE
8
0
6
CONTINUOUS
10
0.093720
20
0.031468
30
0.0
11
0.093681
21
0.031438
31
0.0
0
LINE
8
0
6
CONTINUOUS
10
0.084970
20
0.031468
30
0.0
11
0.078317
21
0.028907
31
0.0
0
LINE
8
0
6
CONTINUOUS
10
0.089046
20
0.028907
30
0.0
11
0.085759
21
0.031438
31
0.0
0
LINE
8
0
6
CONTINUOUS
10
0.078317
20
0.028907
30
0.0
11
0.089046
21
0.028907
31
0.0
0
LINE
8
0
6
CONTINUOUS
10
0.085759
20
0.031438
30
0.0
11
0.084970
21
0.031468
31
0.0
0
LINE
8
0
6
CONTINUOUS
10
0.068970
20
0.031468
30
0.0
11
0.068181
21
0.031438
31
0.0
0
LINE
8
0
6
CONTINUOUS
10
0.068181
20
0.031438
30
0.0
11
0.064893
21
0.028907
31
0.0
0
LINE
8
0
6
CONTINUOUS
10
0.064893
20
0.028907
30
0.0
11
0.075623
21
0.028907
31
0.0
0
LINE
8
0
6
CONTINUOUS
10
0.075623
20
0.028907
30
0.0
11
0.068970
21
0.031468
31
0.0
0
LINE
8
0
6
CONTINUOUS
10
0.090059
20
0.027857
30
0.0
11
0.090059
21
0.028907
31
0.0
0
LINE
8
0
6
CONTINUOUS
10
0.090059
20
0.044873
30
0.0
11
0.090059
21
0.052323
31
0.0
0
LINE
8
0
6
CONTINUOUS
10
0.042389
20
0.054411
30
0.0
11
0.042389
21
0.052442
31
0.0
0
LINE
8
0
6
CONTINUOUS
10
0.110457
20
0.052442
30
0.0
11
0.110457
21
0.054411
31
0.0
0
LINE
8
0
6
CONTINUOUS
10
0.076423
20
0.052442
30
0.0
11
0.068850
21
0.052442
31
0.0
0
LINE
8
0
6
CONTINUOUS
10
0.068850
20
0.052442
30
0.0
11
0.061656
21
0.052442
31
0.0
0
LINE
8
0
6
CONTINUOUS
10
0.056294
20
0.052323
30
0.0
11
0.062415
21
0.052323
31
0.0
0
LINE
8
0
6
CONTINUOUS
10
0.061656
20
0.052442
30
0.0
11
0.055203
21
0.052442
31
0.0
0
LINE
8
0
6
CONTINUOUS
10
0.051182
20
0.052323
30
0.0
11
0.056294
21
0.052323
31
0.0
0
LINE
8
0
6
CONTINUOUS
10
0.055203
20
0.052442
30
0.0
11
0.049814
21
0.052442
31
0.0
0
LINE
8
0
6
CONTINUOUS
10
0.047335
20
0.052323
30
0.0
11
0.051182
21
0.052323
31
0.0
0
LINE
8
0
6
CONTINUOUS
10
0.049814
20
0.052442
30
0.0
11
0.045759
21
0.052442
31
0.0
0
LINE
8
0
6
CONTINUOUS
10
0.044947
20
0.052323
30
0.0
11
0.047335
21
0.052323
31
0.0
0
LINE
8
0
6
CONTINUOUS
10
0.045759
20
0.052442
30
0.0
11
0.043242
21
0.052442
31
0.0
0
LINE
8
0
6
CONTINUOUS
10
0.044138
20
0.052323
30
0.0
11
0.044947
21
0.052323
31
0.0
0
LINE
8
0
6
CONTINUOUS
10
0.042389
20
0.052442
30
0.0
11
0.044138
21
0.052323
31
0.0
0
LINE
8
0
6
CONTINUOUS
10
0.043242
20
0.052442
30
0.0
11
0.042389
21
0.052442
31
0.0
0
LINE
8
0
6
CONTINUOUS
10
0.107899
20
0.052323
30
0.0
11
0.108708
21
0.052323
31
0.0
0
LINE
8
0
6
CONTINUOUS
10
0.110457
20
0.052442
30
0.0
11
0.109604
21
0.052442
31
0.0
0
LINE
8
0
6
CONTINUOUS
10
0.108708
20
0.052323
30
0.0
11
0.110457
21
0.052442
31
0.0
0
LINE
8
0
6
CONTINUOUS
10
0.105511
20
0.052323
30
0.0
11
0.107899
21
0.052323
31
0.0
0
LINE
8
0
6
CONTINUOUS
10
0.109604
20
0.052442
30
0.0
11
0.107087
21
0.052442
31
0.0
0
LINE
8
0
6
CONTINUOUS
10
0.101665
20
0.052323
30
0.0
11
0.105511
21
0.052323
31
0.0
0
LINE
8
0
6
CONTINUOUS
10
0.107087
20
0.052442
30
0.0
11
0.103032
21
0.052442
31
0.0
0
LINE
8
0
6
CONTINUOUS
10
0.096553
20
0.052323
30
0.0
11
0.101665
21
0.052323
31
0.0
0
LINE
8
0
6
CONTINUOUS
10
0.103032
20
0.052442
30
0.0
11
0.097643
21
0.052442
31
0.0
0
LINE
8
0
6
CONTINUOUS
10
0.090431
20
0.052323
30
0.0
11
0.096553
21
0.052323
31
0.0
0
LINE
8
0
6
CONTINUOUS
10
0.097643
20
0.052442
30
0.0
11
0.091190
21
0.052442
31
0.0
0
LINE
8
0
6
CONTINUOUS
10
0.091190
20
0.052442
30
0.0
11
0.083996
21
0.052442
31
0.0
0
LINE
8
0
6
CONTINUOUS
10
0.083996
20
0.052442
30
0.0
11
0.076423
21
0.052442
31
0.0
0
LINE
8
0
6
CONTINUOUS
10
0.042389
20
0.075165
30
0.0
11
0.042389
21
0.054411
31
0.0
0
LINE
8
0
6
CONTINUOUS
10
0.110457
20
0.054411
30
0.0
11
0.110457
21
0.075165
31
0.0
0
LINE
8
0
6
CONTINUOUS
10
0.076423
20
0.075961
30
0.0
11
0.068850
21
0.075961
31
0.0
0
LINE
8
0
6
CONTINUOUS
10
0.068850
20
0.075961
30
0.0
11
0.061656
21
0.075961
31
0.0
0
LINE
8
0
6
CONTINUOUS
10
0.061656
20
0.075961
30
0.0
11
0.055203
21
0.075961
31
0.0
0
LINE
8
0
6
CONTINUOUS
10
0.055203
20
0.075961
30
0.0
11
0.049814
21
0.075961
31
0.0
0
LINE
8
0
6
CONTINUOUS
10
0.049814
20
0.075961
30
0.0
11
0.045759
21
0.075961
31
0.0
0
LINE
8
0
6
CONTINUOUS
10
0.045759
20
0.075961
30
0.0
11
0.043242
21
0.075961
31
0.0
0
LINE
8
0
6
CONTINUOUS
10
0.042389
20
0.075961
30
0.0
11
0.042389
21
0.075165
31
0.0
0
LINE
8
0
6
CONTINUOUS
10
0.043242
20
0.075961
30
0.0
11
0.042389
21
0.075961
31
0.0
0
LINE
8
0
6
CONTINUOUS
10
0.110457
20
0.075165
30
0.0
11
0.110457
21
0.075961
31
0.0
0
LINE
8
0
6
CONTINUOUS
10
0.110457
20
0.075961
30
0.0
11
0.109604
21
0.075961
31
0.0
0
LINE
8
0
6
CONTINUOUS
10
0.109604
20
0.075961
30
0.0
11
0.107087
21
0.075961
31
0.0
0
LINE
8
0
6
CONTINUOUS
10
0.107087
20
0.075961
30
0.0
11
0.103032
21
0.075961
31
0.0
0
LINE
8
0
6
CONTINUOUS
10
0.103032
20
0.075961
30
0.0
11
0.097643
21
0.075961
31
0.0
0
LINE
8
0
6
CONTINUOUS
10
0.097643
20
0.075961
30
0.0
11
0.091190
21
0.075961
31
0.0
0
LINE
8
0
6
CONTINUOUS
10
0.083996
20
0.075961
30
0.0
11
0.076423
21
0.075961
31
0.0
0
LINE
8
0
6
CONTINUOUS
10
0.091190
20
0.075961
30
0.0
11
0.083996
21
0.075961
31
0.0
0
LINE
8
0
6
CONTINUOUS
10
0.063613
20
0.052323
30
0.0
11
0.063613
21
0.044873
31
0.0
0
LINE
8
0
6
CONTINUOUS
10
0.063613
20
0.028907
30
0.0
11
0.063613
21
0.027857
31
0.0
0
LINE
8
0
6
CONTINUOUS
10
0.019096
20
-0.029143
30
0.0
11
0.021208
21
-0.029143
31
0.0
0
LINE
8
0
6
CONTINUOUS
10
0.010912
20
-0.029143
30
0.0
11
0.005632
21
-0.029143
31
0.0
0
LINE
8
0
6
CONTINUOUS
10
0.015576
20
-0.029143
30
0.0
11
0.010912
21
-0.029143
31
0.0
0
LINE
8
0
6
CONTINUOUS
10
0.000000
20
-0.029143
30
0.0
11
0.005632
21
-0.029143
31
0.0
0
LINE
8
0
6
CONTINUOUS
10
0.021208
20
-0.029143
30
0.0
11
0.022000
21
-0.029143
31
0.0
0
LINE
8
0
6
CONTINUOUS
10
0.022000
20
-0.029143
30
0.0
11
0.022000
21
-0.027963
31
0.0
0
LINE
8
0
6
CONTINUOUS
10
0.015576
20
-0.029143
30
0.0
11
0.019096
21
-0.029143
31
0.0
0
LINE
8
0
6
CONTINUOUS
10
0.092500
20
0.022977
30
0.0
11
0.092500
21
0.026894
31
0.0
0
LINE
8
0
6
CONTINUOUS
10
0.091319
20
0.027857
30
0.0
11
0.027325
21
0.027857
31
0.0
0
LINE
8
0
6
CONTINUOUS
10
0.027325
20
-0.002143
30
0.0
11
0.091319
21
-0.002143
31
0.0
0
LINE
8
0
6
CONTINUOUS
10
0.016938
20
0.027857
30
0.0
11
0.015536
21
0.027857
31
0.0
0
LINE
8
0
6
CONTINUOUS
10
0.023633
20
-0.002143
30
0.0
11
0.025035
21
-0.002143
31
0.0
0
LINE
8
0
6
CONTINUOUS
10
0.022000
20
-0.027963
30
0.0
11
0.022000
21
-0.010797
31
0.0
0
LINE
8
0
6
CONTINUOUS
10
0.092500
20
0.000497
30
0.0
11
0.092500
21
0.003697
31
0.0
0
LINE
8
0
6
CONTINUOUS
10
0.092500
20
-0.002143
30
0.0
11
0.092500
21
-0.001423
31
0.0
0
LINE
8
0
6
CONTINUOUS
10
0.091319
20
-0.002143
30
0.0
11
0.092500
21
-0.002143
31
0.0
0
LINE
8
0
6
CONTINUOUS
10
0.092500
20
0.027857
30
0.0
11
0.091319
21
0.027857
31
0.0
0
LINE
8
0
6
CONTINUOUS
10
0.092500
20
0.026894
30
0.0
11
0.092500
21
0.027857
31
0.0
0
LINE
8
0
6
CONTINUOUS
10
0.092500
20
-0.001423
30
0.0
11
0.092500
21
0.000497
31
0.0
0
LINE
8
0
6
CONTINUOUS
10
0.092500
20
0.003697
30
0.0
11
0.092500
21
0.007937
31
0.0
0
LINE
8
0
6
CONTINUOUS
10
0.092500
20
0.007937
30
0.0
11
0.092500
21
0.012737
31
0.0
0
LINE
8
0
6
CONTINUOUS
10
0.092500
20
0.012737
30
0.0
11
0.092500
21
0.017857
31
0.0
0
LINE
8
0
6
CONTINUOUS
10
0.092500
20
0.017857
30
0.0
11
0.092500
21
0.022977
31
0.0
0
LINE
8
0
6
CONTINUOUS
10
0.021960
20
-0.004324
30
0.0
11
0.022649
21
-0.002273
31
0.0
0
LINE
8
0
6
CONTINUOUS
10
0.010912
20
0.002958
30
0.0
11
0.015946
21
-0.000102
31
0.0
0
LINE
8
0
6
CONTINUOUS
10
0.016759
20
0.001476
30
0.0
11
0.010912
21
0.004664
31
0.0
0
LINE
8
0
6
CONTINUOUS
10
0.023633
20
-0.002143
30
0.0
11
0.021585
21
-0.001423
31
0.0
0
LINE
8
0
6
CONTINUOUS
10
0.021907
20
-0.003003
30
0.0
11
0.023633
21
-0.002143
31
0.0
0
LINE
8
0
6
CONTINUOUS
10
0.019849
20
-0.002280
30
0.0
11
0.021907
21
-0.003003
31
0.0
0
LINE
8
0
6
CONTINUOUS
10
0.019849
20
-0.002280
30
0.0
11
0.015946
21
-0.000102
31
0.0
0
LINE
8
0
6
CONTINUOUS
10
0.022000
20
-0.010797
30
0.0
11
0.022000
21
-0.009465
31
0.0
0
LINE
8
0
6
CONTINUOUS
10
0.025035
20
-0.002143
30
0.0
11
0.027325
21
-0.002143
31
0.0
0
LINE
8
0
6
CONTINUOUS
10
0.016759
20
0.001476
30
0.0
11
0.021585
21
-0.001423
31
0.0
0
LINE
8
0
6
CONTINUOUS
10
0.015536
20
0.027857
30
0.0
11
0.010912
21
0.027857
31
0.0
0
LINE
8
0
6
CONTINUOUS
10
0.021996
20
-0.006889
30
0.0
11
0.021960
21
-0.004324
31
0.0
0
LINE
8
0
6
CONTINUOUS
10
0.005456
20
0.027857
30
0.0
11
0.000000
21
0.027857
31
0.0
0
LINE
8
0
6
CONTINUOUS
10
0.010912
20
0.027857
30
0.0
11
0.005456
21
0.027857
31
0.0
0
LINE
8
0
6
CONTINUOUS
10
0.022000
20
-0.009465
30
0.0
11
0.021996
21
-0.006889
31
0.0
0
LINE
8
0
6
CONTINUOUS
10
0.027325
20
0.027857
30
0.0
11
0.016938
21
0.027857
31
0.0
0
LINE
8
0
6
CONTINUOUS
10
-0.021208
20
-0.029143
30
0.0
11
-0.019096
21
-0.029143
31
0.0
0
LINE
8
0
6
CONTINUOUS
10
-0.005632
20
-0.029143
30
0.0
11
-0.010912
21
-0.029143
31
0.0
0
LINE
8
0
6
CONTINUOUS
10
-0.010912
20
-0.029143
30
0.0
11
-0.015576
21
-0.029143
31
0.0
0
LINE
8
0
6
CONTINUOUS
10
-0.005632
20
-0.029143
30
0.0
11
0.000000
21
-0.029143
31
0.0
0
LINE
8
0
6
CONTINUOUS
10
-0.022000
20
-0.027963
30
0.0
11
-0.022000
21
-0.029143
31
0.0
0
LINE
8
0
6
CONTINUOUS
10
-0.022000
20
-0.029143
30
0.0
11
-0.021208
21
-0.029143
31
0.0
0
LINE
8
0
6
CONTINUOUS
10
-0.019096
20
-0.029143
30
0.0
11
-0.015576
21
-0.029143
31
0.0
0
LINE
8
0
6
CONTINUOUS
10
-0.092500
20
0.026894
30
0.0
11
-0.092500
21
0.022977
31
0.0
0
LINE
8
0
6
CONTINUOUS
10
-0.027325
20
0.027857
30
0.0
11
-0.091319
21
0.027857
31
0.0
0
LINE
8
0
6
CONTINUOUS
10
-0.091319
20
-0.002143
30
0.0
11
-0.027325
21
-0.002143
31
0.0
0
LINE
8
0
6
CONTINUOUS
10
-0.015536
20
0.027857
30
0.0
11
-0.016938
21
0.027857
31
0.0
0
LINE
8
0
6
CONTINUOUS
10
-0.025035
20
-0.002143
30
0.0
11
-0.023633
21
-0.002143
31
0.0
0
LINE
8
0
6
CONTINUOUS
10
-0.022000
20
-0.010797
30
0.0
11
-0.022000
21
-0.027963
31
0.0
0
LINE
8
0
6
CONTINUOUS
10
-0.092500
20
0.003697
30
0.0
11
-0.092500
21
0.000497
31
0.0
0
LINE
8
0
6
CONTINUOUS
10
-0.092500
20
-0.002143
30
0.0
11
-0.091319
21
-0.002143
31
0.0
0
LINE
8
0
6
CONTINUOUS
10
-0.092500
20
-0.001423
30
0.0
11
-0.092500
21
-0.002143
31
0.0
0
LINE
8
0
6
CONTINUOUS
10
-0.092500
20
0.027857
30
0.0
11
-0.092500
21
0.026894
31
0.0
0
LINE
8
0
6
CONTINUOUS
10
-0.091319
20
0.027857
30
0.0
11
-0.092500
21
0.027857
31
0.0
0
LINE
8
0
6
CONTINUOUS
10
-0.092500
20
0.000497
30
0.0
11
-0.092500
21
-0.001423
31
0.0
0
LINE
8
0
6
CONTINUOUS
10
-0.092500
20
0.007937
30
0.0
11
-0.092500
21
0.003697
31
0.0
0
LINE
8
0
6
CONTINUOUS
10
-0.092500
20
0.012737
30
0.0
11
-0.092500
21
0.007937
31
0.0
0
LINE
8
0
6
CONTINUOUS
10
-0.092500
20
0.017857
30
0.0
11
-0.092500
21
0.012737
31
0.0
0
LINE
8
0
6
CONTINUOUS
10
-0.092500
20
0.022977
30
0.0
11
-0.092500
21
0.017857
31
0.0
0
LINE
8
0
6
CONTINUOUS
10
-0.022649
20
-0.002273
30
0.0
11
-0.021960
21
-0.004324
31
0.0
0
LINE
8
0
6
CONTINUOUS
10
-0.010912
20
0.004664
30
0.0
11
-0.016759
21
0.001476
31
0.0
0
LINE
8
0
6
CONTINUOUS
10
-0.015946
20
-0.000102
30
0.0
11
-0.010912
21
0.002958
31
0.0
0
LINE
8
0
6
CONTINUOUS
10
-0.021907
20
-0.003003
30
0.0
11
-0.019849
21
-0.002280
31
0.0
0
LINE
8
0
6
CONTINUOUS
10
-0.023633
20
-0.002143
30
0.0
11
-0.021907
21
-0.003003
31
0.0
0
LINE
8
0
6
CONTINUOUS
10
-0.021585
20
-0.001423
30
0.0
11
-0.023633
21
-0.002143
31
0.0
0
LINE
8
0
6
CONTINUOUS
10
-0.015946
20
-0.000102
30
0.0
11
-0.019849
21
-0.002280
31
0.0
0
LINE
8
0
6
CONTINUOUS
10
-0.022000
20
-0.009465
30
0.0
11
-0.022000
21
-0.010797
31
0.0
0
LINE
8
0
6
CONTINUOUS
10
-0.027325
20
-0.002143
30
0.0
11
-0.025035
21
-0.002143
31
0.0
0
LINE
8
0
6
CONTINUOUS
10
-0.021585
20
-0.001423
30
0.0
11
-0.016759
21
0.001476
31
0.0
0
LINE
8
0
6
CONTINUOUS
10
-0.010912
20
0.027857
30
0.0
11
-0.015536
21
0.027857
31
0.0
0
LINE
8
0
6
CONTINUOUS
10
-0.021960
20
-0.004324
30
0.0
11
-0.021996
21
-0.006889
31
0.0
0
LINE
8
0
6
CONTINUOUS
10
0.000000
20
0.027857
30
0.0
11
-0.005456
21
0.027857
31
0.0
0
LINE
8
0
6
CONTINUOUS
10
-0.005456
20
0.027857
30
0.0
11
-0.010912
21
0.027857
31
0.0
0
LINE
8
0
6
CONTINUOUS
10
-0.021996
20
-0.006889
30
0.0
11
-0.022000
21
-0.009465
31
0.0
0
LINE
8
0
6
CONTINUOUS
10
-0.016938
20
0.027857
30
0.0
11
-0.027325
21
0.027857
31
0.0
0
ENDSEC
0
EOF
