999
Erzeugt mit innoplus bad 
0
SECTION
2
HEADER
9
$ACADVER
1
AC1009
9
$DWGCODEPAGE
3
ISO8859-1
0
ENDSEC
0
SECTION
2
TABLES
0
TABLE
2
LAYER
70
1
0
LAYER
2
0
70
0
62
7
6
CONTINUOUS
0
ENDTAB
0
ENDSEC
0
SECTION
2
ENTITIES
0
LINE
8
0
6
CONTINUOUS
10
0.005476
20
0.012237
30
0.0
11
0.005593
21
0.014691
31
0.0
0
LINE
8
0
6
CONTINUOUS
10
-0.007610
20
0.021046
30
0.0
11
-0.006759
21
0.019554
31
0.0
0
LINE
8
0
6
CONTINUOUS
10
-0.010913
20
0.023055
30
0.0
11
-0.008294
21
0.021627
31
0.0
0
LINE
8
0
6
CONTINUOUS
10
-0.015578
20
0.026548
30
0.0
11
-0.010913
21
0.023019
31
0.0
0
LINE
8
0
6
CONTINUOUS
10
-0.021211
20
0.036511
30
0.0
11
-0.019098
21
0.031222
31
0.0
0
LINE
8
0
6
CONTINUOUS
10
-0.019098
20
0.031222
30
0.0
11
-0.015578
21
0.026548
31
0.0
0
LINE
8
0
6
CONTINUOUS
10
-0.022003
20
0.042141
30
0.0
11
-0.021211
21
0.036509
31
0.0
0
LINE
8
0
6
CONTINUOUS
10
-0.005813
20
0.016677
30
0.0
11
-0.005593
21
0.014691
31
0.0
0
LINE
8
0
6
CONTINUOUS
10
-0.005593
20
0.014691
30
0.0
11
-0.005476
21
0.012237
31
0.0
0
LINE
8
0
6
CONTINUOUS
10
0.003985
20
-0.022430
30
0.0
11
0.005476
21
0.012237
31
0.0
0
LINE
8
0
6
CONTINUOUS
10
-0.008416
20
0.021694
30
0.0
11
-0.007610
21
0.021046
31
0.0
0
LINE
8
0
6
CONTINUOUS
10
-0.006075
20
0.017854
30
0.0
11
-0.005813
21
0.016677
31
0.0
0
LINE
8
0
6
CONTINUOUS
10
-0.006759
20
0.019554
30
0.0
11
-0.006075
21
0.017854
31
0.0
0
LINE
8
0
6
CONTINUOUS
10
-0.021211
20
0.047846
30
0.0
11
-0.022003
21
0.042222
31
0.0
0
LINE
8
0
6
CONTINUOUS
10
-0.021211
20
0.036591
30
0.0
11
-0.022003
21
0.042222
31
0.0
0
LINE
8
0
6
CONTINUOUS
10
-0.010913
20
0.061262
30
0.0
11
-0.015578
21
0.057758
31
0.0
0
LINE
8
0
6
CONTINUOUS
10
-0.010913
20
0.061262
30
0.0
11
-0.005633
21
0.063363
31
0.0
0
LINE
8
0
6
CONTINUOUS
10
0.000000
20
0.064164
30
0.0
11
-0.005633
21
0.063372
31
0.0
0
LINE
8
0
6
CONTINUOUS
10
-0.005633
20
0.063363
30
0.0
11
0.000000
21
0.064150
31
0.0
0
LINE
8
0
6
CONTINUOUS
10
-0.015578
20
0.057758
30
0.0
11
-0.019098
21
0.053112
31
0.0
0
LINE
8
0
6
CONTINUOUS
10
-0.019098
20
0.031306
30
0.0
11
-0.015578
21
0.026633
31
0.0
0
LINE
8
0
6
CONTINUOUS
10
-0.021211
20
0.036591
30
0.0
11
-0.019098
21
0.031306
31
0.0
0
LINE
8
0
6
CONTINUOUS
10
-0.015578
20
0.026633
30
0.0
11
-0.010913
21
0.023103
31
0.0
0
LINE
8
0
6
CONTINUOUS
10
-0.019098
20
0.053112
30
0.0
11
-0.021211
21
0.047846
31
0.0
0
LINE
8
0
6
CONTINUOUS
10
-0.004473
20
0.016874
30
0.0
11
-0.004171
21
0.015122
31
0.0
0
LINE
8
0
6
CONTINUOUS
10
-0.006959
20
0.020951
30
0.0
11
-0.007946
21
0.021640
31
0.0
0
LINE
8
0
6
CONTINUOUS
10
-0.010913
20
0.023103
30
0.0
11
-0.007946
21
0.021640
31
0.0
0
LINE
8
0
6
CONTINUOUS
10
-0.005757
20
0.019475
30
0.0
11
-0.006959
21
0.020951
31
0.0
0
LINE
8
0
6
CONTINUOUS
10
-0.004858
20
0.017978
30
0.0
11
-0.005757
21
0.019475
31
0.0
0
LINE
8
0
6
CONTINUOUS
10
-0.004858
20
0.017978
30
0.0
11
-0.004473
21
0.016874
31
0.0
0
LINE
8
0
6
CONTINUOUS
10
-0.005164
20
0.012450
30
0.0
11
-0.003985
21
-0.022430
31
0.0
0
LINE
8
0
6
CONTINUOUS
10
0.006759
20
0.019554
30
0.0
11
0.007610
21
0.021046
31
0.0
0
LINE
8
0
6
CONTINUOUS
10
0.008294
20
0.021627
30
0.0
11
0.010913
21
0.023055
31
0.0
0
LINE
8
0
6
CONTINUOUS
10
0.010913
20
0.023019
30
0.0
11
0.015578
21
0.026548
31
0.0
0
LINE
8
0
6
CONTINUOUS
10
0.000000
20
0.026036
30
0.0
11
0.000000
21
0.021063
31
0.0
0
LINE
8
0
6
CONTINUOUS
10
0.019098
20
0.031222
30
0.0
11
0.021211
21
0.036511
31
0.0
0
LINE
8
0
6
CONTINUOUS
10
0.015578
20
0.026548
30
0.0
11
0.019098
21
0.031222
31
0.0
0
LINE
8
0
6
CONTINUOUS
10
0.021211
20
0.036509
30
0.0
11
0.022003
21
0.042141
31
0.0
0
LINE
8
0
6
CONTINUOUS
10
0.005593
20
0.014691
30
0.0
11
0.005813
21
0.016677
31
0.0
0
LINE
8
0
6
CONTINUOUS
10
0.007610
20
0.021046
30
0.0
11
0.008416
21
0.021694
31
0.0
0
LINE
8
0
6
CONTINUOUS
10
0.005813
20
0.016677
30
0.0
11
0.006075
21
0.017854
31
0.0
0
LINE
8
0
6
CONTINUOUS
10
0.000000
20
0.031043
30
0.0
11
0.000000
21
0.026036
31
0.0
0
LINE
8
0
6
CONTINUOUS
10
0.006075
20
0.017854
30
0.0
11
0.006759
21
0.019554
31
0.0
0
LINE
8
0
6
CONTINUOUS
10
-0.005476
20
0.012237
30
0.0
11
-0.004390
21
-0.010457
31
0.0
0
LINE
8
0
6
CONTINUOUS
10
0.022003
20
0.042222
30
0.0
11
0.021211
21
0.047846
31
0.0
0
LINE
8
0
6
CONTINUOUS
10
0.022003
20
0.042222
30
0.0
11
0.021211
21
0.036591
31
0.0
0
LINE
8
0
6
CONTINUOUS
10
0.015578
20
0.057758
30
0.0
11
0.010913
21
0.061262
31
0.0
0
LINE
8
0
6
CONTINUOUS
10
0.005633
20
0.063363
30
0.0
11
0.010913
21
0.061262
31
0.0
0
LINE
8
0
6
CONTINUOUS
10
0.000000
20
0.064150
30
0.0
11
0.005633
21
0.063363
31
0.0
0
LINE
8
0
6
CONTINUOUS
10
0.005633
20
0.063372
30
0.0
11
0.000000
21
0.064164
31
0.0
0
LINE
8
0
6
CONTINUOUS
10
0.019098
20
0.053112
30
0.0
11
0.015578
21
0.057758
31
0.0
0
LINE
8
0
6
CONTINUOUS
10
0.015578
20
0.026633
30
0.0
11
0.019098
21
0.031306
31
0.0
0
LINE
8
0
6
CONTINUOUS
10
0.019098
20
0.031306
30
0.0
11
0.021211
21
0.036591
31
0.0
0
LINE
8
0
6
CONTINUOUS
10
0.010913
20
0.023103
30
0.0
11
0.015578
21
0.026633
31
0.0
0
LINE
8
0
6
CONTINUOUS
10
0.021211
20
0.047846
30
0.0
11
0.019098
21
0.053112
31
0.0
0
LINE
8
0
6
CONTINUOUS
10
0.004171
20
0.015122
30
0.0
11
0.004473
21
0.016874
31
0.0
0
LINE
8
0
6
CONTINUOUS
10
0.007946
20
0.021640
30
0.0
11
0.006959
21
0.020951
31
0.0
0
LINE
8
0
6
CONTINUOUS
10
0.007946
20
0.021640
30
0.0
11
0.010913
21
0.023103
31
0.0
0
LINE
8
0
6
CONTINUOUS
10
0.006959
20
0.020951
30
0.0
11
0.005757
21
0.019475
31
0.0
0
LINE
8
0
6
CONTINUOUS
10
0.005757
20
0.019475
30
0.0
11
0.004858
21
0.017978
31
0.0
0
LINE
8
0
6
CONTINUOUS
10
0.004473
20
0.016874
30
0.0
11
0.004858
21
0.017978
31
0.0
0
LINE
8
0
6
CONTINUOUS
10
-0.001226
20
-0.021800
30
0.0
11
0.000000
21
-0.021743
31
0.0
0
LINE
8
0
6
CONTINUOUS
10
-0.003969
20
-0.022908
30
0.0
11
-0.003775
21
-0.023268
31
0.0
0
LINE
8
0
6
CONTINUOUS
10
-0.003775
20
-0.023268
30
0.0
11
-0.003211
21
-0.023592
31
0.0
0
LINE
8
0
6
CONTINUOUS
10
-0.003211
20
-0.023592
30
0.0
11
-0.002333
21
-0.023850
31
0.0
0
LINE
8
0
6
CONTINUOUS
10
-0.002333
20
-0.023850
30
0.0
11
-0.001226
21
-0.024015
31
0.0
0
LINE
8
0
6
CONTINUOUS
10
-0.001226
20
-0.024015
30
0.0
11
0.000000
21
-0.024072
31
0.0
0
LINE
8
0
6
CONTINUOUS
10
-0.003775
20
-0.022548
30
0.0
11
-0.003211
21
-0.022223
31
0.0
0
LINE
8
0
6
CONTINUOUS
10
-0.003211
20
-0.022223
30
0.0
11
-0.002333
21
-0.021965
31
0.0
0
LINE
8
0
6
CONTINUOUS
10
-0.002333
20
-0.021965
30
0.0
11
-0.001226
21
-0.021800
31
0.0
0
LINE
8
0
6
CONTINUOUS
10
-0.003985
20
-0.022430
30
0.0
11
-0.003969
21
-0.022908
31
0.0
0
LINE
8
0
6
CONTINUOUS
10
-0.003969
20
-0.022908
30
0.0
11
-0.003775
21
-0.022548
31
0.0
0
LINE
8
0
6
CONTINUOUS
10
0.001226
20
-0.021800
30
0.0
11
0.000000
21
-0.021743
31
0.0
0
LINE
8
0
6
CONTINUOUS
10
0.003775
20
-0.023268
30
0.0
11
0.003969
21
-0.022908
31
0.0
0
LINE
8
0
6
CONTINUOUS
10
0.003211
20
-0.023592
30
0.0
11
0.003775
21
-0.023268
31
0.0
0
LINE
8
0
6
CONTINUOUS
10
0.002333
20
-0.023850
30
0.0
11
0.003211
21
-0.023592
31
0.0
0
LINE
8
0
6
CONTINUOUS
10
0.001226
20
-0.024015
30
0.0
11
0.002333
21
-0.023850
31
0.0
0
LINE
8
0
6
CONTINUOUS
10
0.000000
20
-0.024072
30
0.0
11
0.001226
21
-0.024015
31
0.0
0
LINE
8
0
6
CONTINUOUS
10
0.003775
20
-0.022548
30
0.0
11
0.003211
21
-0.022223
31
0.0
0
LINE
8
0
6
CONTINUOUS
10
0.003211
20
-0.022223
30
0.0
11
0.002333
21
-0.021965
31
0.0
0
LINE
8
0
6
CONTINUOUS
10
0.002333
20
-0.021965
30
0.0
11
0.001226
21
-0.021800
31
0.0
0
LINE
8
0
6
CONTINUOUS
10
0.003969
20
-0.022908
30
0.0
11
0.003985
21
-0.022430
31
0.0
0
LINE
8
0
6
CONTINUOUS
10
0.003969
20
-0.022908
30
0.0
11
0.003775
21
-0.022548
31
0.0
0
LINE
8
0
6
CONTINUOUS
10
-0.092500
20
0.048483
30
0.0
11
-0.092626
21
0.048264
31
0.0
0
LINE
8
0
6
CONTINUOUS
10
-0.092588
20
0.047331
30
0.0
11
-0.092500
21
0.047178
31
0.0
0
LINE
8
0
6
CONTINUOUS
10
-0.092626
20
0.048264
30
0.0
11
-0.092588
21
0.047331
31
0.0
0
LINE
8
0
6
CONTINUOUS
10
-0.076423
20
0.081865
30
0.0
11
-0.083996
21
0.081011
31
0.0
0
LINE
8
0
6
CONTINUOUS
10
-0.083996
20
0.081011
30
0.0
11
-0.091190
21
0.078494
31
0.0
0
LINE
8
0
6
CONTINUOUS
10
-0.091190
20
0.078494
30
0.0
11
-0.097643
21
0.074440
31
0.0
0
LINE
8
0
6
CONTINUOUS
10
-0.097643
20
0.074440
30
0.0
11
-0.103032
21
0.069050
31
0.0
0
LINE
8
0
6
CONTINUOUS
10
-0.103032
20
0.069050
30
0.0
11
-0.107087
21
0.062597
31
0.0
0
LINE
8
0
6
CONTINUOUS
10
-0.107087
20
0.062597
30
0.0
11
-0.109604
21
0.055404
31
0.0
0
LINE
8
0
6
CONTINUOUS
10
-0.109604
20
0.055404
30
0.0
11
-0.110457
21
0.047831
31
0.0
0
LINE
8
0
6
CONTINUOUS
10
-0.110457
20
0.047831
30
0.0
11
-0.109604
21
0.040257
31
0.0
0
LINE
8
0
6
CONTINUOUS
10
-0.109604
20
0.040257
30
0.0
11
-0.107087
21
0.033064
31
0.0
0
LINE
8
0
6
CONTINUOUS
10
-0.107087
20
0.033064
30
0.0
11
-0.103032
21
0.026611
31
0.0
0
LINE
8
0
6
CONTINUOUS
10
-0.103032
20
0.026611
30
0.0
11
-0.097643
21
0.021222
31
0.0
0
LINE
8
0
6
CONTINUOUS
10
-0.097643
20
0.021222
30
0.0
11
-0.091190
21
0.017167
31
0.0
0
LINE
8
0
6
CONTINUOUS
10
-0.091190
20
0.017167
30
0.0
11
-0.083996
21
0.014650
31
0.0
0
LINE
8
0
6
CONTINUOUS
10
-0.083996
20
0.014650
30
0.0
11
-0.076423
21
0.013796
31
0.0
0
LINE
8
0
6
CONTINUOUS
10
-0.076423
20
0.013796
30
0.0
11
-0.068850
21
0.014650
31
0.0
0
LINE
8
0
6
CONTINUOUS
10
-0.068850
20
0.014650
30
0.0
11
-0.061656
21
0.017167
31
0.0
0
LINE
8
0
6
CONTINUOUS
10
-0.061656
20
0.017167
30
0.0
11
-0.055203
21
0.021222
31
0.0
0
LINE
8
0
6
CONTINUOUS
10
-0.055203
20
0.021222
30
0.0
11
-0.049814
21
0.026611
31
0.0
0
LINE
8
0
6
CONTINUOUS
10
-0.049814
20
0.026611
30
0.0
11
-0.049048
21
0.027831
31
0.0
0
LINE
8
0
6
CONTINUOUS
10
-0.049048
20
0.067831
30
0.0
11
-0.049814
21
0.069051
31
0.0
0
LINE
8
0
6
CONTINUOUS
10
-0.049814
20
0.069051
30
0.0
11
-0.055203
21
0.074440
31
0.0
0
LINE
8
0
6
CONTINUOUS
10
-0.055203
20
0.074440
30
0.0
11
-0.061656
21
0.078494
31
0.0
0
LINE
8
0
6
CONTINUOUS
10
-0.061656
20
0.078494
30
0.0
11
-0.068850
21
0.081011
31
0.0
0
LINE
8
0
6
CONTINUOUS
10
-0.068850
20
0.081011
30
0.0
11
-0.076423
21
0.081865
31
0.0
0
LINE
8
0
6
CONTINUOUS
10
0.092500
20
0.045285
30
0.0
11
0.093720
21
0.047398
31
0.0
0
LINE
8
0
6
CONTINUOUS
10
0.093720
20
0.047398
30
0.0
11
0.093681
21
0.048331
31
0.0
0
LINE
8
0
6
CONTINUOUS
10
0.093681
20
0.048331
30
0.0
11
0.092500
21
0.050376
31
0.0
0
LINE
8
0
6
CONTINUOUS
10
0.076423
20
0.081865
30
0.0
11
0.068850
21
0.081011
31
0.0
0
LINE
8
0
6
CONTINUOUS
10
0.068850
20
0.081011
30
0.0
11
0.061656
21
0.078494
31
0.0
0
LINE
8
0
6
CONTINUOUS
10
0.061656
20
0.078494
30
0.0
11
0.055203
21
0.074440
31
0.0
0
LINE
8
0
6
CONTINUOUS
10
0.055203
20
0.074440
30
0.0
11
0.049814
21
0.069050
31
0.0
0
LINE
8
0
6
CONTINUOUS
10
0.049814
20
0.069050
30
0.0
11
0.049048
21
0.067831
31
0.0
0
LINE
8
0
6
CONTINUOUS
10
0.049048
20
0.027831
30
0.0
11
0.049814
21
0.026611
31
0.0
0
LINE
8
0
6
CONTINUOUS
10
0.049814
20
0.026611
30
0.0
11
0.055203
21
0.021222
31
0.0
0
LINE
8
0
6
CONTINUOUS
10
0.055203
20
0.021222
30
0.0
11
0.061656
21
0.017167
31
0.0
0
LINE
8
0
6
CONTINUOUS
10
0.061656
20
0.017167
30
0.0
11
0.068850
21
0.014650
31
0.0
0
LINE
8
0
6
CONTINUOUS
10
0.068850
20
0.014650
30
0.0
11
0.076423
21
0.013796
31
0.0
0
LINE
8
0
6
CONTINUOUS
10
0.076423
20
0.013796
30
0.0
11
0.083996
21
0.014650
31
0.0
0
LINE
8
0
6
CONTINUOUS
10
0.083996
20
0.014650
30
0.0
11
0.091190
21
0.017167
31
0.0
0
LINE
8
0
6
CONTINUOUS
10
0.091190
20
0.017167
30
0.0
11
0.097643
21
0.021222
31
0.0
0
LINE
8
0
6
CONTINUOUS
10
0.097643
20
0.021222
30
0.0
11
0.103032
21
0.026611
31
0.0
0
LINE
8
0
6
CONTINUOUS
10
0.103032
20
0.026611
30
0.0
11
0.107087
21
0.033064
31
0.0
0
LINE
8
0
6
CONTINUOUS
10
0.107087
20
0.033064
30
0.0
11
0.109604
21
0.040257
31
0.0
0
LINE
8
0
6
CONTINUOUS
10
0.109604
20
0.040257
30
0.0
11
0.110457
21
0.047831
31
0.0
0
LINE
8
0
6
CONTINUOUS
10
0.110457
20
0.047831
30
0.0
11
0.109604
21
0.055404
31
0.0
0
LINE
8
0
6
CONTINUOUS
10
0.109604
20
0.055404
30
0.0
11
0.107087
21
0.062597
31
0.0
0
LINE
8
0
6
CONTINUOUS
10
0.107087
20
0.062597
30
0.0
11
0.103032
21
0.069051
31
0.0
0
LINE
8
0
6
CONTINUOUS
10
0.103032
20
0.069051
30
0.0
11
0.097643
21
0.074440
31
0.0
0
LINE
8
0
6
CONTINUOUS
10
0.097643
20
0.074440
30
0.0
11
0.091190
21
0.078494
31
0.0
0
LINE
8
0
6
CONTINUOUS
10
0.091190
20
0.078494
30
0.0
11
0.083996
21
0.081011
31
0.0
0
LINE
8
0
6
CONTINUOUS
10
0.083996
20
0.081011
30
0.0
11
0.076423
21
0.081865
31
0.0
0
LINE
8
0
6
CONTINUOUS
10
-0.007208
20
-0.081522
30
0.0
11
-0.006466
21
-0.080538
31
0.0
0
LINE
8
0
6
CONTINUOUS
10
0.007224
20
-0.070211
30
0.0
11
0.007481
21
-0.070021
31
0.0
0
LINE
8
0
6
CONTINUOUS
10
0.007481
20
-0.070021
30
0.0
11
0.007475
21
-0.013984
31
0.0
0
LINE
8
0
6
CONTINUOUS
10
-0.007459
20
-0.081865
30
0.0
11
-0.007208
21
-0.081522
31
0.0
0
LINE
8
0
6
CONTINUOUS
10
-0.007473
20
-0.013984
30
0.0
11
-0.007459
21
-0.081865
31
0.0
0
LINE
8
0
6
CONTINUOUS
10
0.001934
20
-0.073555
30
0.0
11
0.003737
21
-0.072496
31
0.0
0
LINE
8
0
6
CONTINUOUS
10
-0.005281
20
-0.079136
30
0.0
11
-0.003736
21
-0.077577
31
0.0
0
LINE
8
0
6
CONTINUOUS
10
0.006476
20
-0.070748
30
0.0
11
0.007224
21
-0.070211
31
0.0
0
LINE
8
0
6
CONTINUOUS
10
0.003737
20
-0.072496
30
0.0
11
0.005287
21
-0.071543
31
0.0
0
LINE
8
0
6
CONTINUOUS
10
-0.003736
20
-0.077577
30
0.0
11
-0.001935
21
-0.076075
31
0.0
0
LINE
8
0
6
CONTINUOUS
10
-0.006466
20
-0.080538
30
0.0
11
-0.005281
21
-0.079136
31
0.0
0
LINE
8
0
6
CONTINUOUS
10
-0.000001
20
-0.074734
30
0.0
11
0.001934
21
-0.073555
31
0.0
0
LINE
8
0
6
CONTINUOUS
10
0.005287
20
-0.071543
30
0.0
11
0.006476
21
-0.070748
31
0.0
0
LINE
8
0
6
CONTINUOUS
10
-0.001935
20
-0.076075
30
0.0
11
-0.000001
21
-0.074734
31
0.0
0
LINE
8
0
6
CONTINUOUS
10
0.004348
20
-0.013984
30
0.0
11
0.005200
21
-0.013984
31
0.0
0
LINE
8
0
6
CONTINUOUS
10
0.009100
20
-0.013984
30
0.0
11
0.010100
21
-0.013984
31
0.0
0
LINE
8
0
6
CONTINUOUS
10
0.007400
20
-0.013984
30
0.0
11
0.009100
21
-0.013984
31
0.0
0
LINE
8
0
6
CONTINUOUS
10
0.005200
20
-0.013984
30
0.0
11
0.007400
21
-0.013984
31
0.0
0
LINE
8
0
6
CONTINUOUS
10
0.010500
20
-0.013984
30
0.0
11
0.010518
21
-0.013447
31
0.0
0
LINE
8
0
6
CONTINUOUS
10
0.010100
20
-0.013984
30
0.0
11
0.010500
21
-0.013984
31
0.0
0
LINE
8
0
6
CONTINUOUS
10
-0.010518
20
-0.013447
30
0.0
11
-0.010500
21
-0.013984
31
0.0
0
LINE
8
0
6
CONTINUOUS
10
-0.010500
20
-0.013984
30
0.0
11
-0.010100
21
-0.013984
31
0.0
0
LINE
8
0
6
CONTINUOUS
10
-0.010100
20
-0.013984
30
0.0
11
-0.009100
21
-0.013984
31
0.0
0
LINE
8
0
6
CONTINUOUS
10
-0.009100
20
-0.013984
30
0.0
11
-0.007400
21
-0.013984
31
0.0
0
LINE
8
0
6
CONTINUOUS
10
-0.005200
20
-0.013984
30
0.0
11
-0.004271
21
-0.013984
31
0.0
0
LINE
8
0
6
CONTINUOUS
10
-0.007400
20
-0.013984
30
0.0
11
-0.005200
21
-0.013984
31
0.0
0
LINE
8
0
6
CONTINUOUS
10
0.010518
20
-0.013447
30
0.0
11
0.011572
21
0.015368
31
0.0
0
LINE
8
0
6
CONTINUOUS
10
-0.011575
20
0.015368
30
0.0
11
-0.010518
21
-0.013447
31
0.0
0
LINE
8
0
6
CONTINUOUS
10
-0.009971
20
0.015868
30
0.0
11
-0.011186
21
0.015868
31
0.0
0
LINE
8
0
6
CONTINUOUS
10
-0.009971
20
0.015868
30
0.0
11
-0.008086
21
0.015868
31
0.0
0
LINE
8
0
6
CONTINUOUS
10
-0.008086
20
0.015868
30
0.0
11
-0.005689
21
0.015868
31
0.0
0
LINE
8
0
6
CONTINUOUS
10
-0.008148
20
0.015868
30
0.0
11
-0.007792
21
0.015868
31
0.0
0
LINE
8
0
6
CONTINUOUS
10
-0.005775
20
0.015868
30
0.0
11
-0.008148
21
0.015868
31
0.0
0
LINE
8
0
6
CONTINUOUS
10
-0.011088
20
0.015868
30
0.0
11
-0.011593
21
0.015868
31
0.0
0
LINE
8
0
6
CONTINUOUS
10
-0.011593
20
0.015868
30
0.0
11
-0.011575
21
0.015368
31
0.0
0
LINE
8
0
6
CONTINUOUS
10
-0.011186
20
0.015868
30
0.0
11
-0.011593
21
0.015868
31
0.0
0
LINE
8
0
6
CONTINUOUS
10
0.009975
20
0.015868
30
0.0
11
0.009544
21
0.015868
31
0.0
0
LINE
8
0
6
CONTINUOUS
10
0.011186
20
0.015868
30
0.0
11
0.009975
21
0.015868
31
0.0
0
LINE
8
0
6
CONTINUOUS
10
0.010700
20
0.015868
30
0.0
11
0.011186
21
0.015868
31
0.0
0
LINE
8
0
6
CONTINUOUS
10
0.009544
20
0.015868
30
0.0
11
0.010700
21
0.015868
31
0.0
0
LINE
8
0
6
CONTINUOUS
10
0.011096
20
0.015868
30
0.0
11
0.009987
21
0.015868
31
0.0
0
LINE
8
0
6
CONTINUOUS
10
0.009987
20
0.015868
30
0.0
11
0.008140
21
0.015868
31
0.0
0
LINE
8
0
6
CONTINUOUS
10
0.008140
20
0.015868
30
0.0
11
0.005761
21
0.015868
31
0.0
0
LINE
8
0
6
CONTINUOUS
10
0.008090
20
0.015868
30
0.0
11
0.005693
21
0.015868
31
0.0
0
LINE
8
0
6
CONTINUOUS
10
0.007739
20
0.015868
30
0.0
11
0.008090
21
0.015868
31
0.0
0
LINE
8
0
6
CONTINUOUS
10
-0.009559
20
0.015868
30
0.0
11
-0.009997
21
0.015868
31
0.0
0
LINE
8
0
6
CONTINUOUS
10
-0.010617
20
0.015868
30
0.0
11
-0.009559
21
0.015868
31
0.0
0
LINE
8
0
6
CONTINUOUS
10
-0.011102
20
0.015868
30
0.0
11
-0.010617
21
0.015868
31
0.0
0
LINE
8
0
6
CONTINUOUS
10
-0.009997
20
0.015868
30
0.0
11
-0.011102
21
0.015868
31
0.0
0
LINE
8
0
6
CONTINUOUS
10
0.011590
20
0.015868
30
0.0
11
0.011085
21
0.015868
31
0.0
0
LINE
8
0
6
CONTINUOUS
10
0.011572
20
0.015368
30
0.0
11
0.011590
21
0.015868
31
0.0
0
LINE
8
0
6
CONTINUOUS
10
0.011590
20
0.015868
30
0.0
11
0.011096
21
0.015868
31
0.0
0
LINE
8
0
6
CONTINUOUS
10
-0.009934
20
0.015868
30
0.0
11
-0.011088
21
0.015868
31
0.0
0
LINE
8
0
6
CONTINUOUS
10
-0.009559
20
0.015868
30
0.0
11
-0.009934
21
0.015868
31
0.0
0
LINE
8
0
6
CONTINUOUS
10
-0.007792
20
0.015868
30
0.0
11
-0.009559
21
0.015868
31
0.0
0
LINE
8
0
6
CONTINUOUS
10
0.009544
20
0.015868
30
0.0
11
0.007739
21
0.015868
31
0.0
0
LINE
8
0
6
CONTINUOUS
10
0.009931
20
0.015868
30
0.0
11
0.009544
21
0.015868
31
0.0
0
LINE
8
0
6
CONTINUOUS
10
0.011085
20
0.015868
30
0.0
11
0.009931
21
0.015868
31
0.0
0
LINE
8
0
6
CONTINUOUS
10
0.011713
20
0.021575
30
0.0
11
0.011733
21
0.022090
31
0.0
0
LINE
8
0
6
CONTINUOUS
10
0.006598
20
0.018827
30
0.0
11
0.006617
21
0.019313
31
0.0
0
LINE
8
0
6
CONTINUOUS
10
0.011503
20
0.016016
30
0.0
11
0.011513
21
0.016304
31
0.0
0
LINE
8
0
6
CONTINUOUS
10
0.016592
20
0.027178
30
0.0
11
0.017728
21
0.027609
31
0.0
0
LINE
8
0
6
CONTINUOUS
10
0.012809
20
0.024100
30
0.0
11
0.015576
21
0.026568
31
0.0
0
LINE
8
0
6
CONTINUOUS
10
0.015597
20
0.026547
30
0.0
11
0.018794
21
0.030832
31
0.0
0
LINE
8
0
6
CONTINUOUS
10
0.011730
20
0.022090
30
0.0
11
0.012809
21
0.024100
31
0.0
0
LINE
8
0
6
CONTINUOUS
10
0.010825
20
0.022090
30
0.0
11
0.011730
21
0.022090
31
0.0
0
LINE
8
0
6
CONTINUOUS
10
0.012417
20
0.023656
30
0.0
11
0.015576
21
0.026568
31
0.0
0
LINE
8
0
6
CONTINUOUS
10
0.091319
20
0.067831
30
0.0
11
0.027325
21
0.067831
31
0.0
0
LINE
8
0
6
CONTINUOUS
10
0.027325
20
0.027831
30
0.0
11
0.091319
21
0.027831
31
0.0
0
LINE
8
0
6
CONTINUOUS
10
0.016938
20
0.067831
30
0.0
11
0.015536
21
0.067831
31
0.0
0
LINE
8
0
6
CONTINUOUS
10
0.018976
20
0.027831
30
0.0
11
0.020378
21
0.027831
31
0.0
0
LINE
8
0
6
CONTINUOUS
10
0.010507
20
0.022461
30
0.0
11
0.015597
21
0.026547
31
0.0
0
LINE
8
0
6
CONTINUOUS
10
0.092500
20
0.033671
30
0.0
11
0.092500
21
0.037911
31
0.0
0
LINE
8
0
6
CONTINUOUS
10
0.092500
20
0.057751
30
0.0
11
0.092500
21
0.061991
31
0.0
0
LINE
8
0
6
CONTINUOUS
10
0.092500
20
0.037911
30
0.0
11
0.092500
21
0.042711
31
0.0
0
LINE
8
0
6
CONTINUOUS
10
0.092500
20
0.047831
30
0.0
11
0.092500
21
0.052951
31
0.0
0
LINE
8
0
6
CONTINUOUS
10
0.092500
20
0.030471
30
0.0
11
0.092500
21
0.033671
31
0.0
0
LINE
8
0
6
CONTINUOUS
10
0.091319
20
0.027831
30
0.0
11
0.092500
21
0.027831
31
0.0
0
LINE
8
0
6
CONTINUOUS
10
0.092500
20
0.028551
30
0.0
11
0.092500
21
0.027831
31
0.0
0
LINE
8
0
6
CONTINUOUS
10
0.092500
20
0.052951
30
0.0
11
0.092500
21
0.057751
31
0.0
0
LINE
8
0
6
CONTINUOUS
10
0.092500
20
0.061991
30
0.0
11
0.092500
21
0.065191
31
0.0
0
LINE
8
0
6
CONTINUOUS
10
0.092500
20
0.065191
30
0.0
11
0.092500
21
0.067111
31
0.0
0
LINE
8
0
6
CONTINUOUS
10
0.092500
20
0.067831
30
0.0
11
0.091319
21
0.067831
31
0.0
0
LINE
8
0
6
CONTINUOUS
10
0.092500
20
0.067111
30
0.0
11
0.092500
21
0.067831
31
0.0
0
LINE
8
0
6
CONTINUOUS
10
0.092500
20
0.042711
30
0.0
11
0.092500
21
0.047831
31
0.0
0
LINE
8
0
6
CONTINUOUS
10
0.092500
20
0.028551
30
0.0
11
0.092500
21
0.030471
31
0.0
0
LINE
8
0
6
CONTINUOUS
10
0.024368
20
0.042711
30
0.0
11
0.023633
21
0.047831
31
0.0
0
LINE
8
0
6
CONTINUOUS
10
0.021907
20
0.047821
30
0.0
11
0.022649
21
0.042629
31
0.0
0
LINE
8
0
6
CONTINUOUS
10
0.010912
20
0.061878
30
0.0
11
0.015946
21
0.058007
31
0.0
0
LINE
8
0
6
CONTINUOUS
10
0.016759
20
0.059048
30
0.0
11
0.010912
21
0.062914
31
0.0
0
LINE
8
0
6
CONTINUOUS
10
0.023633
20
0.047831
30
0.0
11
0.021585
21
0.052951
31
0.0
0
LINE
8
0
6
CONTINUOUS
10
0.019849
20
0.052966
30
0.0
11
0.021907
21
0.047821
31
0.0
0
LINE
8
0
6
CONTINUOUS
10
0.022519
20
0.033671
30
0.0
11
0.023852
21
0.037911
31
0.0
0
LINE
8
0
6
CONTINUOUS
10
0.022649
20
0.042629
30
0.0
11
0.022095
21
0.037719
31
0.0
0
LINE
8
0
6
CONTINUOUS
10
0.023852
20
0.037911
30
0.0
11
0.024368
21
0.042711
31
0.0
0
LINE
8
0
6
CONTINUOUS
10
0.017728
20
0.027609
30
0.0
11
0.018976
21
0.027831
31
0.0
0
LINE
8
0
6
CONTINUOUS
10
0.019849
20
0.052966
30
0.0
11
0.015946
21
0.058007
31
0.0
0
LINE
8
0
6
CONTINUOUS
10
0.015576
20
0.026568
30
0.0
11
0.016592
21
0.027178
31
0.0
0
LINE
8
0
6
CONTINUOUS
10
0.006617
20
0.019313
30
0.0
11
0.009082
21
0.020979
31
0.0
0
LINE
8
0
6
CONTINUOUS
10
0.015576
20
0.026568
30
0.0
11
0.016638
21
0.027567
31
0.0
0
LINE
8
0
6
CONTINUOUS
10
0.019201
20
0.030505
30
0.0
11
0.020799
21
0.033697
31
0.0
0
LINE
8
0
6
CONTINUOUS
10
0.020799
20
0.033697
30
0.0
11
0.022095
21
0.037719
31
0.0
0
LINE
8
0
6
CONTINUOUS
10
0.016759
20
0.059048
30
0.0
11
0.021585
21
0.052951
31
0.0
0
LINE
8
0
6
CONTINUOUS
10
0.015536
20
0.067831
30
0.0
11
0.010912
21
0.067831
31
0.0
0
LINE
8
0
6
CONTINUOUS
10
0.005456
20
0.067831
30
0.0
11
0.000000
21
0.067831
31
0.0
0
LINE
8
0
6
CONTINUOUS
10
0.020378
20
0.027831
30
0.0
11
0.027325
21
0.027831
31
0.0
0
LINE
8
0
6
CONTINUOUS
10
0.010912
20
0.067831
30
0.0
11
0.005456
21
0.067831
31
0.0
0
LINE
8
0
6
CONTINUOUS
10
0.009117
20
0.021615
30
0.0
11
0.010507
21
0.022461
31
0.0
0
LINE
8
0
6
CONTINUOUS
10
0.008903
20
0.016016
30
0.0
11
0.010613
21
0.016016
31
0.0
0
LINE
8
0
6
CONTINUOUS
10
0.010613
20
0.016016
30
0.0
11
0.011500
21
0.016016
31
0.0
0
LINE
8
0
6
CONTINUOUS
10
0.006487
20
0.016016
30
0.0
11
0.008903
21
0.016016
31
0.0
0
LINE
8
0
6
CONTINUOUS
10
0.009082
20
0.020979
30
0.0
11
0.010825
21
0.022090
31
0.0
0
LINE
8
0
6
CONTINUOUS
10
0.027325
20
0.067831
30
0.0
11
0.016938
21
0.067831
31
0.0
0
LINE
8
0
6
CONTINUOUS
10
-0.011733
20
0.022090
30
0.0
11
-0.011713
21
0.021575
31
0.0
0
LINE
8
0
6
CONTINUOUS
10
-0.006617
20
0.019313
30
0.0
11
-0.006598
21
0.018827
31
0.0
0
LINE
8
0
6
CONTINUOUS
10
-0.011513
20
0.016304
30
0.0
11
-0.011503
21
0.016016
31
0.0
0
LINE
8
0
6
CONTINUOUS
10
-0.017728
20
0.027609
30
0.0
11
-0.016592
21
0.027178
31
0.0
0
LINE
8
0
6
CONTINUOUS
10
-0.015576
20
0.026568
30
0.0
11
-0.012809
21
0.024100
31
0.0
0
LINE
8
0
6
CONTINUOUS
10
-0.018794
20
0.030832
30
0.0
11
-0.015597
21
0.026547
31
0.0
0
LINE
8
0
6
CONTINUOUS
10
-0.011730
20
0.022090
30
0.0
11
-0.010825
21
0.022090
31
0.0
0
LINE
8
0
6
CONTINUOUS
10
-0.012809
20
0.024100
30
0.0
11
-0.011730
21
0.022090
31
0.0
0
LINE
8
0
6
CONTINUOUS
10
-0.015576
20
0.026568
30
0.0
11
-0.012417
21
0.023656
31
0.0
0
LINE
8
0
6
CONTINUOUS
10
-0.027325
20
0.067831
30
0.0
11
-0.091319
21
0.067831
31
0.0
0
LINE
8
0
6
CONTINUOUS
10
-0.091319
20
0.027831
30
0.0
11
-0.027325
21
0.027831
31
0.0
0
LINE
8
0
6
CONTINUOUS
10
-0.015536
20
0.067831
30
0.0
11
-0.016938
21
0.067831
31
0.0
0
LINE
8
0
6
CONTINUOUS
10
-0.020378
20
0.027831
30
0.0
11
-0.018976
21
0.027831
31
0.0
0
LINE
8
0
6
CONTINUOUS
10
-0.015597
20
0.026547
30
0.0
11
-0.010507
21
0.022461
31
0.0
0
LINE
8
0
6
CONTINUOUS
10
-0.092500
20
0.037911
30
0.0
11
-0.092500
21
0.033671
31
0.0
0
LINE
8
0
6
CONTINUOUS
10
-0.092500
20
0.061991
30
0.0
11
-0.092500
21
0.057751
31
0.0
0
LINE
8
0
6
CONTINUOUS
10
-0.092500
20
0.042711
30
0.0
11
-0.092500
21
0.037911
31
0.0
0
LINE
8
0
6
CONTINUOUS
10
-0.092500
20
0.052951
30
0.0
11
-0.092500
21
0.047831
31
0.0
0
LINE
8
0
6
CONTINUOUS
10
-0.092500
20
0.033671
30
0.0
11
-0.092500
21
0.030471
31
0.0
0
LINE
8
0
6
CONTINUOUS
10
-0.092500
20
0.027831
30
0.0
11
-0.091319
21
0.027831
31
0.0
0
LINE
8
0
6
CONTINUOUS
10
-0.092500
20
0.027831
30
0.0
11
-0.092500
21
0.028551
31
0.0
0
LINE
8
0
6
CONTINUOUS
10
-0.092500
20
0.057751
30
0.0
11
-0.092500
21
0.052951
31
0.0
0
LINE
8
0
6
CONTINUOUS
10
-0.092500
20
0.065191
30
0.0
11
-0.092500
21
0.061991
31
0.0
0
LINE
8
0
6
CONTINUOUS
10
-0.092500
20
0.067111
30
0.0
11
-0.092500
21
0.065191
31
0.0
0
LINE
8
0
6
CONTINUOUS
10
-0.092500
20
0.067831
30
0.0
11
-0.092500
21
0.067111
31
0.0
0
LINE
8
0
6
CONTINUOUS
10
-0.091319
20
0.067831
30
0.0
11
-0.092500
21
0.067831
31
0.0
0
LINE
8
0
6
CONTINUOUS
10
-0.092500
20
0.047831
30
0.0
11
-0.092500
21
0.042711
31
0.0
0
LINE
8
0
6
CONTINUOUS
10
-0.092500
20
0.030471
30
0.0
11
-0.092500
21
0.028551
31
0.0
0
LINE
8
0
6
CONTINUOUS
10
-0.022649
20
0.042629
30
0.0
11
-0.021907
21
0.047821
31
0.0
0
LINE
8
0
6
CONTINUOUS
10
-0.023633
20
0.047831
30
0.0
11
-0.024367
21
0.042711
31
0.0
0
LINE
8
0
6
CONTINUOUS
10
-0.010912
20
0.062914
30
0.0
11
-0.016759
21
0.059048
31
0.0
0
LINE
8
0
6
CONTINUOUS
10
-0.015946
20
0.058007
30
0.0
11
-0.010912
21
0.061878
31
0.0
0
LINE
8
0
6
CONTINUOUS
10
-0.021907
20
0.047821
30
0.0
11
-0.019849
21
0.052966
31
0.0
0
LINE
8
0
6
CONTINUOUS
10
-0.021585
20
0.052951
30
0.0
11
-0.023633
21
0.047831
31
0.0
0
LINE
8
0
6
CONTINUOUS
10
-0.023852
20
0.037911
30
0.0
11
-0.022519
21
0.033671
31
0.0
0
LINE
8
0
6
CONTINUOUS
10
-0.024367
20
0.042711
30
0.0
11
-0.023852
21
0.037911
31
0.0
0
LINE
8
0
6
CONTINUOUS
10
-0.022094
20
0.037719
30
0.0
11
-0.022649
21
0.042629
31
0.0
0
LINE
8
0
6
CONTINUOUS
10
-0.018976
20
0.027831
30
0.0
11
-0.017728
21
0.027609
31
0.0
0
LINE
8
0
6
CONTINUOUS
10
-0.015946
20
0.058007
30
0.0
11
-0.019849
21
0.052966
31
0.0
0
LINE
8
0
6
CONTINUOUS
10
-0.016592
20
0.027178
30
0.0
11
-0.015576
21
0.026568
31
0.0
0
LINE
8
0
6
CONTINUOUS
10
-0.009082
20
0.020979
30
0.0
11
-0.006617
21
0.019313
31
0.0
0
LINE
8
0
6
CONTINUOUS
10
-0.016638
20
0.027567
30
0.0
11
-0.015576
21
0.026568
31
0.0
0
LINE
8
0
6
CONTINUOUS
10
-0.020799
20
0.033697
30
0.0
11
-0.019201
21
0.030505
31
0.0
0
LINE
8
0
6
CONTINUOUS
10
-0.022094
20
0.037719
30
0.0
11
-0.020799
21
0.033697
31
0.0
0
LINE
8
0
6
CONTINUOUS
10
-0.021585
20
0.052951
30
0.0
11
-0.016759
21
0.059048
31
0.0
0
LINE
8
0
6
CONTINUOUS
10
-0.010912
20
0.067831
30
0.0
11
-0.015536
21
0.067831
31
0.0
0
LINE
8
0
6
CONTINUOUS
10
0.000000
20
0.067831
30
0.0
11
-0.005456
21
0.067831
31
0.0
0
LINE
8
0
6
CONTINUOUS
10
-0.027325
20
0.027831
30
0.0
11
-0.020378
21
0.027831
31
0.0
0
LINE
8
0
6
CONTINUOUS
10
-0.005456
20
0.067831
30
0.0
11
-0.010912
21
0.067831
31
0.0
0
LINE
8
0
6
CONTINUOUS
10
-0.010507
20
0.022461
30
0.0
11
-0.009117
21
0.021615
31
0.0
0
LINE
8
0
6
CONTINUOUS
10
-0.010613
20
0.016016
30
0.0
11
-0.008903
21
0.016016
31
0.0
0
LINE
8
0
6
CONTINUOUS
10
-0.011500
20
0.016016
30
0.0
11
-0.010613
21
0.016016
31
0.0
0
LINE
8
0
6
CONTINUOUS
10
-0.008903
20
0.016016
30
0.0
11
-0.006487
21
0.016016
31
0.0
0
LINE
8
0
6
CONTINUOUS
10
-0.010825
20
0.022090
30
0.0
11
-0.009082
21
0.020979
31
0.0
0
LINE
8
0
6
CONTINUOUS
10
-0.016938
20
0.067831
30
0.0
11
-0.027325
21
0.067831
31
0.0
0
ENDSEC
0
EOF
