999
Erzeugt mit innoplus bad 
0
SECTION
2
HEADER
9
$ACADVER
1
AC1009
9
$DWGCODEPAGE
3
ISO8859-1
0
ENDSEC
0
SECTION
2
TABLES
0
TABLE
2
LAYER
70
1
0
LAYER
2
0
70
0
62
7
6
CONTINUOUS
0
ENDTAB
0
ENDSEC
0
SECTION
2
ENTITIES
0
LINE
8
0
6
CONTINUOUS
10
-0.022003
20
-0.055543
30
0.0
11
-0.022003
21
-0.058643
31
0.0
0
LINE
8
0
6
CONTINUOUS
10
-0.022003
20
-0.052422
30
0.0
11
-0.022003
21
-0.055543
31
0.0
0
LINE
8
0
6
CONTINUOUS
10
-0.022003
20
-0.049279
30
0.0
11
-0.022003
21
-0.052422
31
0.0
0
LINE
8
0
6
CONTINUOUS
10
-0.022003
20
-0.041448
30
0.0
11
-0.022003
21
-0.046114
31
0.0
0
LINE
8
0
6
CONTINUOUS
10
-0.022003
20
-0.046114
30
0.0
11
-0.022003
21
-0.049279
31
0.0
0
LINE
8
0
6
CONTINUOUS
10
-0.022003
20
-0.058643
30
0.0
11
-0.022003
21
-0.060783
31
0.0
0
LINE
8
0
6
CONTINUOUS
10
0.003985
20
-0.072060
30
0.0
11
0.005476
21
-0.062138
31
0.0
0
LINE
8
0
6
CONTINUOUS
10
-0.020565
20
-0.029143
30
0.0
11
-0.020565
21
-0.029833
31
0.0
0
LINE
8
0
6
CONTINUOUS
10
-0.006959
20
-0.063385
30
0.0
11
-0.005757
21
-0.063791
31
0.0
0
LINE
8
0
6
CONTINUOUS
10
-0.022003
20
-0.060783
30
0.0
11
-0.022003
21
-0.061896
31
0.0
0
LINE
8
0
6
CONTINUOUS
10
-0.022003
20
-0.061896
30
0.0
11
-0.021211
21
-0.061566
31
0.0
0
LINE
8
0
6
CONTINUOUS
10
-0.022003
20
-0.061896
30
0.0
11
-0.021211
21
-0.062227
31
0.0
0
LINE
8
0
6
CONTINUOUS
10
-0.015578
20
-0.060984
30
0.0
11
-0.010913
21
-0.060778
31
0.0
0
LINE
8
0
6
CONTINUOUS
10
-0.010913
20
-0.060778
30
0.0
11
-0.005633
21
-0.060655
31
0.0
0
LINE
8
0
6
CONTINUOUS
10
-0.005633
20
-0.060655
30
0.0
11
0.000000
21
-0.060608
31
0.0
0
LINE
8
0
6
CONTINUOUS
10
-0.019098
20
-0.061257
30
0.0
11
-0.015578
21
-0.060984
31
0.0
0
LINE
8
0
6
CONTINUOUS
10
-0.019098
20
-0.062538
30
0.0
11
-0.015578
21
-0.062812
31
0.0
0
LINE
8
0
6
CONTINUOUS
10
-0.021211
20
-0.062227
30
0.0
11
-0.019098
21
-0.062538
31
0.0
0
LINE
8
0
6
CONTINUOUS
10
-0.015578
20
-0.062812
30
0.0
11
-0.010913
21
-0.063020
31
0.0
0
LINE
8
0
6
CONTINUOUS
10
-0.021211
20
-0.061566
30
0.0
11
-0.019098
21
-0.061257
31
0.0
0
LINE
8
0
6
CONTINUOUS
10
-0.004473
20
-0.064539
30
0.0
11
-0.004171
21
-0.065047
31
0.0
0
LINE
8
0
6
CONTINUOUS
10
-0.007946
20
-0.063106
30
0.0
11
-0.006959
21
-0.063385
31
0.0
0
LINE
8
0
6
CONTINUOUS
10
-0.010913
20
-0.063020
30
0.0
11
-0.007946
21
-0.063106
31
0.0
0
LINE
8
0
6
CONTINUOUS
10
-0.005757
20
-0.063791
30
0.0
11
-0.004858
21
-0.064202
31
0.0
0
LINE
8
0
6
CONTINUOUS
10
-0.004858
20
-0.064202
30
0.0
11
-0.004473
21
-0.064539
31
0.0
0
LINE
8
0
6
CONTINUOUS
10
-0.005164
20
-0.064011
30
0.0
11
-0.003985
21
-0.072060
31
0.0
0
LINE
8
0
6
CONTINUOUS
10
-0.022003
20
-0.030333
30
0.0
11
-0.022003
21
-0.041448
31
0.0
0
LINE
8
0
6
CONTINUOUS
10
0.022003
20
-0.058643
30
0.0
11
0.022003
21
-0.055543
31
0.0
0
LINE
8
0
6
CONTINUOUS
10
0.022003
20
-0.055543
30
0.0
11
0.022003
21
-0.052422
31
0.0
0
LINE
8
0
6
CONTINUOUS
10
0.000000
20
-0.064190
30
0.0
11
0.000000
21
-0.065281
31
0.0
0
LINE
8
0
6
CONTINUOUS
10
0.022003
20
-0.052422
30
0.0
11
0.022003
21
-0.049279
31
0.0
0
LINE
8
0
6
CONTINUOUS
10
0.022003
20
-0.046114
30
0.0
11
0.022003
21
-0.041448
31
0.0
0
LINE
8
0
6
CONTINUOUS
10
0.022003
20
-0.049279
30
0.0
11
0.022003
21
-0.046114
31
0.0
0
LINE
8
0
6
CONTINUOUS
10
0.022003
20
-0.060783
30
0.0
11
0.022003
21
-0.058643
31
0.0
0
LINE
8
0
6
CONTINUOUS
10
0.020565
20
-0.029833
30
0.0
11
0.020565
21
-0.029143
31
0.0
0
LINE
8
0
6
CONTINUOUS
10
0.005757
20
-0.063791
30
0.0
11
0.006959
21
-0.063385
31
0.0
0
LINE
8
0
6
CONTINUOUS
10
0.000000
20
-0.063093
30
0.0
11
0.000000
21
-0.064190
31
0.0
0
LINE
8
0
6
CONTINUOUS
10
0.021211
20
-0.061566
30
0.0
11
0.022003
21
-0.061896
31
0.0
0
LINE
8
0
6
CONTINUOUS
10
0.022003
20
-0.061896
30
0.0
11
0.022003
21
-0.060783
31
0.0
0
LINE
8
0
6
CONTINUOUS
10
0.021211
20
-0.062227
30
0.0
11
0.022003
21
-0.061896
31
0.0
0
LINE
8
0
6
CONTINUOUS
10
0.010913
20
-0.060778
30
0.0
11
0.015578
21
-0.060984
31
0.0
0
LINE
8
0
6
CONTINUOUS
10
0.005633
20
-0.060655
30
0.0
11
0.010913
21
-0.060778
31
0.0
0
LINE
8
0
6
CONTINUOUS
10
0.000000
20
-0.060608
30
0.0
11
0.005633
21
-0.060655
31
0.0
0
LINE
8
0
6
CONTINUOUS
10
0.015578
20
-0.060984
30
0.0
11
0.019098
21
-0.061257
31
0.0
0
LINE
8
0
6
CONTINUOUS
10
0.015578
20
-0.062812
30
0.0
11
0.019098
21
-0.062538
31
0.0
0
LINE
8
0
6
CONTINUOUS
10
0.019098
20
-0.062538
30
0.0
11
0.021211
21
-0.062227
31
0.0
0
LINE
8
0
6
CONTINUOUS
10
0.010913
20
-0.063020
30
0.0
11
0.015578
21
-0.062812
31
0.0
0
LINE
8
0
6
CONTINUOUS
10
0.019098
20
-0.061257
30
0.0
11
0.021211
21
-0.061566
31
0.0
0
LINE
8
0
6
CONTINUOUS
10
0.004171
20
-0.065047
30
0.0
11
0.004473
21
-0.064539
31
0.0
0
LINE
8
0
6
CONTINUOUS
10
0.006959
20
-0.063385
30
0.0
11
0.007946
21
-0.063106
31
0.0
0
LINE
8
0
6
CONTINUOUS
10
0.007946
20
-0.063106
30
0.0
11
0.010913
21
-0.063020
31
0.0
0
LINE
8
0
6
CONTINUOUS
10
0.004858
20
-0.064202
30
0.0
11
0.005757
21
-0.063791
31
0.0
0
LINE
8
0
6
CONTINUOUS
10
0.004473
20
-0.064539
30
0.0
11
0.004858
21
-0.064202
31
0.0
0
LINE
8
0
6
CONTINUOUS
10
0.022003
20
-0.041448
30
0.0
11
0.022003
21
-0.030333
31
0.0
0
LINE
8
0
6
CONTINUOUS
10
-0.001226
20
-0.075776
30
0.0
11
0.000000
21
-0.075961
31
0.0
0
LINE
8
0
6
CONTINUOUS
10
-0.003775
20
-0.073340
30
0.0
11
-0.003211
21
-0.074397
31
0.0
0
LINE
8
0
6
CONTINUOUS
10
-0.003211
20
-0.074397
30
0.0
11
-0.002333
21
-0.075237
31
0.0
0
LINE
8
0
6
CONTINUOUS
10
-0.002333
20
-0.075237
30
0.0
11
-0.001226
21
-0.075776
31
0.0
0
LINE
8
0
6
CONTINUOUS
10
-0.003985
20
-0.072060
30
0.0
11
-0.003969
21
-0.072167
31
0.0
0
LINE
8
0
6
CONTINUOUS
10
-0.003969
20
-0.072167
30
0.0
11
-0.003775
21
-0.073340
31
0.0
0
LINE
8
0
6
CONTINUOUS
10
0.000000
20
-0.075961
30
0.0
11
0.001227
21
-0.075776
31
0.0
0
LINE
8
0
6
CONTINUOUS
10
0.003211
20
-0.074397
30
0.0
11
0.003775
21
-0.073340
31
0.0
0
LINE
8
0
6
CONTINUOUS
10
0.002333
20
-0.075237
30
0.0
11
0.003211
21
-0.074397
31
0.0
0
LINE
8
0
6
CONTINUOUS
10
0.001227
20
-0.075776
30
0.0
11
0.002333
21
-0.075237
31
0.0
0
LINE
8
0
6
CONTINUOUS
10
0.003969
20
-0.072167
30
0.0
11
0.003985
21
-0.072060
31
0.0
0
LINE
8
0
6
CONTINUOUS
10
0.003775
20
-0.073340
30
0.0
11
0.003969
21
-0.072167
31
0.0
0
LINE
8
0
6
CONTINUOUS
10
-0.015578
20
-0.029833
30
0.0
11
-0.019098
21
-0.029833
31
0.0
0
LINE
8
0
6
CONTINUOUS
10
-0.010913
20
-0.029833
30
0.0
11
-0.015578
21
-0.029833
31
0.0
0
LINE
8
0
6
CONTINUOUS
10
0.000000
20
-0.029833
30
0.0
11
-0.005633
21
-0.029833
31
0.0
0
LINE
8
0
6
CONTINUOUS
10
-0.022003
20
-0.029833
30
0.0
11
-0.022003
21
-0.030333
31
0.0
0
LINE
8
0
6
CONTINUOUS
10
-0.021211
20
-0.029833
30
0.0
11
-0.022003
21
-0.029833
31
0.0
0
LINE
8
0
6
CONTINUOUS
10
-0.005633
20
-0.029833
30
0.0
11
-0.010913
21
-0.029833
31
0.0
0
LINE
8
0
6
CONTINUOUS
10
-0.019098
20
-0.029833
30
0.0
11
-0.021211
21
-0.029833
31
0.0
0
LINE
8
0
6
CONTINUOUS
10
0.019098
20
-0.029833
30
0.0
11
0.015578
21
-0.029833
31
0.0
0
LINE
8
0
6
CONTINUOUS
10
0.015578
20
-0.029833
30
0.0
11
0.010913
21
-0.029833
31
0.0
0
LINE
8
0
6
CONTINUOUS
10
0.005633
20
-0.029833
30
0.0
11
0.000000
21
-0.029833
31
0.0
0
LINE
8
0
6
CONTINUOUS
10
0.022003
20
-0.029833
30
0.0
11
0.021211
21
-0.029833
31
0.0
0
LINE
8
0
6
CONTINUOUS
10
0.022003
20
-0.030333
30
0.0
11
0.022003
21
-0.029833
31
0.0
0
LINE
8
0
6
CONTINUOUS
10
0.010913
20
-0.029833
30
0.0
11
0.005633
21
-0.029833
31
0.0
0
LINE
8
0
6
CONTINUOUS
10
0.021211
20
-0.029833
30
0.0
11
0.019098
21
-0.029833
31
0.0
0
LINE
8
0
6
CONTINUOUS
10
-0.057773
20
0.042313
30
0.0
11
-0.057812
21
0.042342
31
0.0
0
LINE
8
0
6
CONTINUOUS
10
-0.057773
20
0.031468
30
0.0
11
-0.057773
21
0.042313
31
0.0
0
LINE
8
0
6
CONTINUOUS
10
-0.061100
20
0.044873
30
0.0
11
-0.061543
21
0.044873
31
0.0
0
LINE
8
0
6
CONTINUOUS
10
-0.091273
20
0.031468
30
0.0
11
-0.087946
21
0.028907
31
0.0
0
LINE
8
0
6
CONTINUOUS
10
-0.087946
20
0.028907
30
0.0
11
-0.086600
21
0.028907
31
0.0
0
LINE
8
0
6
CONTINUOUS
10
-0.086600
20
0.044873
30
0.0
11
-0.087946
21
0.044873
31
0.0
0
LINE
8
0
6
CONTINUOUS
10
-0.091273
20
0.042313
30
0.0
11
-0.091273
21
0.031468
31
0.0
0
LINE
8
0
6
CONTINUOUS
10
-0.087946
20
0.044873
30
0.0
11
-0.091273
21
0.042313
31
0.0
0
LINE
8
0
6
CONTINUOUS
10
-0.075870
20
0.044873
30
0.0
11
-0.086600
21
0.044873
31
0.0
0
LINE
8
0
6
CONTINUOUS
10
-0.083312
20
0.042342
30
0.0
11
-0.082523
21
0.042313
31
0.0
0
LINE
8
0
6
CONTINUOUS
10
-0.086600
20
0.044873
30
0.0
11
-0.083312
21
0.042342
31
0.0
0
LINE
8
0
6
CONTINUOUS
10
-0.066523
20
0.042313
30
0.0
11
-0.065734
21
0.042342
31
0.0
0
LINE
8
0
6
CONTINUOUS
10
-0.062446
20
0.044873
30
0.0
11
-0.073176
21
0.044873
31
0.0
0
LINE
8
0
6
CONTINUOUS
10
-0.073176
20
0.044873
30
0.0
11
-0.075870
21
0.044873
31
0.0
0
LINE
8
0
6
CONTINUOUS
10
-0.066523
20
0.042313
30
0.0
11
-0.073176
21
0.044873
31
0.0
0
LINE
8
0
6
CONTINUOUS
10
-0.075870
20
0.044873
30
0.0
11
-0.082523
21
0.042313
31
0.0
0
LINE
8
0
6
CONTINUOUS
10
-0.075870
20
0.028907
30
0.0
11
-0.073176
21
0.028907
31
0.0
0
LINE
8
0
6
CONTINUOUS
10
-0.057812
20
0.042342
30
0.0
11
-0.061100
21
0.044873
31
0.0
0
LINE
8
0
6
CONTINUOUS
10
-0.061100
20
0.044873
30
0.0
11
-0.062446
21
0.044873
31
0.0
0
LINE
8
0
6
CONTINUOUS
10
-0.062446
20
0.044873
30
0.0
11
-0.065734
21
0.042342
31
0.0
0
LINE
8
0
6
CONTINUOUS
10
-0.062446
20
0.028907
30
0.0
11
-0.061100
21
0.028907
31
0.0
0
LINE
8
0
6
CONTINUOUS
10
-0.061100
20
0.028907
30
0.0
11
-0.057812
21
0.031438
31
0.0
0
LINE
8
0
6
CONTINUOUS
10
-0.057773
20
0.031468
30
0.0
11
-0.057812
21
0.031438
31
0.0
0
LINE
8
0
6
CONTINUOUS
10
-0.066523
20
0.031468
30
0.0
11
-0.073176
21
0.028907
31
0.0
0
LINE
8
0
6
CONTINUOUS
10
-0.062446
20
0.028907
30
0.0
11
-0.065734
21
0.031438
31
0.0
0
LINE
8
0
6
CONTINUOUS
10
-0.073176
20
0.028907
30
0.0
11
-0.062446
21
0.028907
31
0.0
0
LINE
8
0
6
CONTINUOUS
10
-0.065734
20
0.031438
30
0.0
11
-0.066523
21
0.031468
31
0.0
0
LINE
8
0
6
CONTINUOUS
10
-0.082523
20
0.031468
30
0.0
11
-0.083312
21
0.031438
31
0.0
0
LINE
8
0
6
CONTINUOUS
10
-0.083312
20
0.031438
30
0.0
11
-0.086600
21
0.028907
31
0.0
0
LINE
8
0
6
CONTINUOUS
10
-0.086600
20
0.028907
30
0.0
11
-0.075870
21
0.028907
31
0.0
0
LINE
8
0
6
CONTINUOUS
10
-0.075870
20
0.028907
30
0.0
11
-0.082523
21
0.031468
31
0.0
0
LINE
8
0
6
CONTINUOUS
10
-0.061434
20
0.027857
30
0.0
11
-0.061434
21
0.028907
31
0.0
0
LINE
8
0
6
CONTINUOUS
10
-0.061434
20
0.044873
30
0.0
11
-0.061434
21
0.052323
31
0.0
0
LINE
8
0
6
CONTINUOUS
10
-0.109104
20
0.054411
30
0.0
11
-0.109104
21
0.052442
31
0.0
0
LINE
8
0
6
CONTINUOUS
10
-0.041036
20
0.052442
30
0.0
11
-0.041036
21
0.054411
31
0.0
0
LINE
8
0
6
CONTINUOUS
10
-0.075070
20
0.052442
30
0.0
11
-0.082643
21
0.052442
31
0.0
0
LINE
8
0
6
CONTINUOUS
10
-0.082643
20
0.052442
30
0.0
11
-0.089837
21
0.052442
31
0.0
0
LINE
8
0
6
CONTINUOUS
10
-0.095199
20
0.052323
30
0.0
11
-0.089078
21
0.052323
31
0.0
0
LINE
8
0
6
CONTINUOUS
10
-0.089837
20
0.052442
30
0.0
11
-0.096290
21
0.052442
31
0.0
0
LINE
8
0
6
CONTINUOUS
10
-0.100311
20
0.052323
30
0.0
11
-0.095199
21
0.052323
31
0.0
0
LINE
8
0
6
CONTINUOUS
10
-0.096290
20
0.052442
30
0.0
11
-0.101679
21
0.052442
31
0.0
0
LINE
8
0
6
CONTINUOUS
10
-0.104158
20
0.052323
30
0.0
11
-0.100311
21
0.052323
31
0.0
0
LINE
8
0
6
CONTINUOUS
10
-0.101679
20
0.052442
30
0.0
11
-0.105734
21
0.052442
31
0.0
0
LINE
8
0
6
CONTINUOUS
10
-0.106546
20
0.052323
30
0.0
11
-0.104158
21
0.052323
31
0.0
0
LINE
8
0
6
CONTINUOUS
10
-0.105734
20
0.052442
30
0.0
11
-0.108251
21
0.052442
31
0.0
0
LINE
8
0
6
CONTINUOUS
10
-0.107355
20
0.052323
30
0.0
11
-0.106546
21
0.052323
31
0.0
0
LINE
8
0
6
CONTINUOUS
10
-0.109104
20
0.052442
30
0.0
11
-0.107355
21
0.052323
31
0.0
0
LINE
8
0
6
CONTINUOUS
10
-0.108251
20
0.052442
30
0.0
11
-0.109104
21
0.052442
31
0.0
0
LINE
8
0
6
CONTINUOUS
10
-0.043594
20
0.052323
30
0.0
11
-0.042785
21
0.052323
31
0.0
0
LINE
8
0
6
CONTINUOUS
10
-0.041036
20
0.052442
30
0.0
11
-0.041889
21
0.052442
31
0.0
0
LINE
8
0
6
CONTINUOUS
10
-0.042785
20
0.052323
30
0.0
11
-0.041036
21
0.052442
31
0.0
0
LINE
8
0
6
CONTINUOUS
10
-0.045982
20
0.052323
30
0.0
11
-0.043594
21
0.052323
31
0.0
0
LINE
8
0
6
CONTINUOUS
10
-0.041889
20
0.052442
30
0.0
11
-0.044406
21
0.052442
31
0.0
0
LINE
8
0
6
CONTINUOUS
10
-0.049828
20
0.052323
30
0.0
11
-0.045982
21
0.052323
31
0.0
0
LINE
8
0
6
CONTINUOUS
10
-0.044406
20
0.052442
30
0.0
11
-0.048461
21
0.052442
31
0.0
0
LINE
8
0
6
CONTINUOUS
10
-0.054940
20
0.052323
30
0.0
11
-0.049828
21
0.052323
31
0.0
0
LINE
8
0
6
CONTINUOUS
10
-0.048461
20
0.052442
30
0.0
11
-0.053850
21
0.052442
31
0.0
0
LINE
8
0
6
CONTINUOUS
10
-0.061062
20
0.052323
30
0.0
11
-0.054940
21
0.052323
31
0.0
0
LINE
8
0
6
CONTINUOUS
10
-0.053850
20
0.052442
30
0.0
11
-0.060303
21
0.052442
31
0.0
0
LINE
8
0
6
CONTINUOUS
10
-0.060303
20
0.052442
30
0.0
11
-0.067497
21
0.052442
31
0.0
0
LINE
8
0
6
CONTINUOUS
10
-0.067497
20
0.052442
30
0.0
11
-0.075070
21
0.052442
31
0.0
0
LINE
8
0
6
CONTINUOUS
10
-0.109104
20
0.075165
30
0.0
11
-0.109104
21
0.054411
31
0.0
0
LINE
8
0
6
CONTINUOUS
10
-0.041036
20
0.054411
30
0.0
11
-0.041036
21
0.075165
31
0.0
0
LINE
8
0
6
CONTINUOUS
10
-0.075070
20
0.075961
30
0.0
11
-0.082643
21
0.075961
31
0.0
0
LINE
8
0
6
CONTINUOUS
10
-0.082643
20
0.075961
30
0.0
11
-0.089837
21
0.075961
31
0.0
0
LINE
8
0
6
CONTINUOUS
10
-0.089837
20
0.075961
30
0.0
11
-0.096290
21
0.075961
31
0.0
0
LINE
8
0
6
CONTINUOUS
10
-0.096290
20
0.075961
30
0.0
11
-0.101679
21
0.075961
31
0.0
0
LINE
8
0
6
CONTINUOUS
10
-0.101679
20
0.075961
30
0.0
11
-0.105734
21
0.075961
31
0.0
0
LINE
8
0
6
CONTINUOUS
10
-0.105734
20
0.075961
30
0.0
11
-0.108251
21
0.075961
31
0.0
0
LINE
8
0
6
CONTINUOUS
10
-0.109104
20
0.075961
30
0.0
11
-0.109104
21
0.075165
31
0.0
0
LINE
8
0
6
CONTINUOUS
10
-0.108251
20
0.075961
30
0.0
11
-0.109104
21
0.075961
31
0.0
0
LINE
8
0
6
CONTINUOUS
10
-0.041036
20
0.075165
30
0.0
11
-0.041036
21
0.075961
31
0.0
0
LINE
8
0
6
CONTINUOUS
10
-0.041036
20
0.075961
30
0.0
11
-0.041889
21
0.075961
31
0.0
0
LINE
8
0
6
CONTINUOUS
10
-0.041889
20
0.075961
30
0.0
11
-0.044406
21
0.075961
31
0.0
0
LINE
8
0
6
CONTINUOUS
10
-0.044406
20
0.075961
30
0.0
11
-0.048461
21
0.075961
31
0.0
0
LINE
8
0
6
CONTINUOUS
10
-0.048461
20
0.075961
30
0.0
11
-0.053850
21
0.075961
31
0.0
0
LINE
8
0
6
CONTINUOUS
10
-0.053850
20
0.075961
30
0.0
11
-0.060303
21
0.075961
31
0.0
0
LINE
8
0
6
CONTINUOUS
10
-0.067497
20
0.075961
30
0.0
11
-0.075070
21
0.075961
31
0.0
0
LINE
8
0
6
CONTINUOUS
10
-0.060303
20
0.075961
30
0.0
11
-0.067497
21
0.075961
31
0.0
0
LINE
8
0
6
CONTINUOUS
10
-0.087880
20
0.052323
30
0.0
11
-0.087880
21
0.044873
31
0.0
0
LINE
8
0
6
CONTINUOUS
10
-0.087880
20
0.028907
30
0.0
11
-0.087880
21
0.027857
31
0.0
0
LINE
8
0
6
CONTINUOUS
10
0.092367
20
0.042313
30
0.0
11
0.092328
21
0.042342
31
0.0
0
LINE
8
0
6
CONTINUOUS
10
0.092367
20
0.031468
30
0.0
11
0.092367
21
0.042313
31
0.0
0
LINE
8
0
6
CONTINUOUS
10
0.089040
20
0.044873
30
0.0
11
0.088597
21
0.044873
31
0.0
0
LINE
8
0
6
CONTINUOUS
10
0.058867
20
0.031468
30
0.0
11
0.062193
21
0.028907
31
0.0
0
LINE
8
0
6
CONTINUOUS
10
0.062193
20
0.028907
30
0.0
11
0.063540
21
0.028907
31
0.0
0
LINE
8
0
6
CONTINUOUS
10
0.063540
20
0.044873
30
0.0
11
0.062193
21
0.044873
31
0.0
0
LINE
8
0
6
CONTINUOUS
10
0.058867
20
0.042313
30
0.0
11
0.058867
21
0.031468
31
0.0
0
LINE
8
0
6
CONTINUOUS
10
0.062193
20
0.044873
30
0.0
11
0.058867
21
0.042313
31
0.0
0
LINE
8
0
6
CONTINUOUS
10
0.074270
20
0.044873
30
0.0
11
0.063540
21
0.044873
31
0.0
0
LINE
8
0
6
CONTINUOUS
10
0.066828
20
0.042342
30
0.0
11
0.067616
21
0.042313
31
0.0
0
LINE
8
0
6
CONTINUOUS
10
0.063540
20
0.044873
30
0.0
11
0.066828
21
0.042342
31
0.0
0
LINE
8
0
6
CONTINUOUS
10
0.083617
20
0.042313
30
0.0
11
0.084405
21
0.042342
31
0.0
0
LINE
8
0
6
CONTINUOUS
10
0.087693
20
0.044873
30
0.0
11
0.076963
21
0.044873
31
0.0
0
LINE
8
0
6
CONTINUOUS
10
0.076963
20
0.044873
30
0.0
11
0.074270
21
0.044873
31
0.0
0
LINE
8
0
6
CONTINUOUS
10
0.083617
20
0.042313
30
0.0
11
0.076963
21
0.044873
31
0.0
0
LINE
8
0
6
CONTINUOUS
10
0.074270
20
0.044873
30
0.0
11
0.067616
21
0.042313
31
0.0
0
LINE
8
0
6
CONTINUOUS
10
0.074270
20
0.028907
30
0.0
11
0.076963
21
0.028907
31
0.0
0
LINE
8
0
6
CONTINUOUS
10
0.092328
20
0.042342
30
0.0
11
0.089040
21
0.044873
31
0.0
0
LINE
8
0
6
CONTINUOUS
10
0.089040
20
0.044873
30
0.0
11
0.087693
21
0.044873
31
0.0
0
LINE
8
0
6
CONTINUOUS
10
0.087693
20
0.044873
30
0.0
11
0.084405
21
0.042342
31
0.0
0
LINE
8
0
6
CONTINUOUS
10
0.087693
20
0.028907
30
0.0
11
0.089040
21
0.028907
31
0.0
0
LINE
8
0
6
CONTINUOUS
10
0.089040
20
0.028907
30
0.0
11
0.092328
21
0.031438
31
0.0
0
LINE
8
0
6
CONTINUOUS
10
0.092367
20
0.031468
30
0.0
11
0.092328
21
0.031438
31
0.0
0
LINE
8
0
6
CONTINUOUS
10
0.083617
20
0.031468
30
0.0
11
0.076963
21
0.028907
31
0.0
0
LINE
8
0
6
CONTINUOUS
10
0.087693
20
0.028907
30
0.0
11
0.084405
21
0.031438
31
0.0
0
LINE
8
0
6
CONTINUOUS
10
0.076963
20
0.028907
30
0.0
11
0.087693
21
0.028907
31
0.0
0
LINE
8
0
6
CONTINUOUS
10
0.084405
20
0.031438
30
0.0
11
0.083617
21
0.031468
31
0.0
0
LINE
8
0
6
CONTINUOUS
10
0.067616
20
0.031468
30
0.0
11
0.066828
21
0.031438
31
0.0
0
LINE
8
0
6
CONTINUOUS
10
0.066828
20
0.031438
30
0.0
11
0.063540
21
0.028907
31
0.0
0
LINE
8
0
6
CONTINUOUS
10
0.063540
20
0.028907
30
0.0
11
0.074270
21
0.028907
31
0.0
0
LINE
8
0
6
CONTINUOUS
10
0.074270
20
0.028907
30
0.0
11
0.067616
21
0.031468
31
0.0
0
LINE
8
0
6
CONTINUOUS
10
0.088705
20
0.027857
30
0.0
11
0.088705
21
0.028907
31
0.0
0
LINE
8
0
6
CONTINUOUS
10
0.088705
20
0.044873
30
0.0
11
0.088705
21
0.052323
31
0.0
0
LINE
8
0
6
CONTINUOUS
10
0.041036
20
0.054411
30
0.0
11
0.041036
21
0.052442
31
0.0
0
LINE
8
0
6
CONTINUOUS
10
0.109104
20
0.052442
30
0.0
11
0.109104
21
0.054411
31
0.0
0
LINE
8
0
6
CONTINUOUS
10
0.075070
20
0.052442
30
0.0
11
0.067496
21
0.052442
31
0.0
0
LINE
8
0
6
CONTINUOUS
10
0.067496
20
0.052442
30
0.0
11
0.060303
21
0.052442
31
0.0
0
LINE
8
0
6
CONTINUOUS
10
0.054940
20
0.052323
30
0.0
11
0.061062
21
0.052323
31
0.0
0
LINE
8
0
6
CONTINUOUS
10
0.060303
20
0.052442
30
0.0
11
0.053850
21
0.052442
31
0.0
0
LINE
8
0
6
CONTINUOUS
10
0.049828
20
0.052323
30
0.0
11
0.054940
21
0.052323
31
0.0
0
LINE
8
0
6
CONTINUOUS
10
0.053850
20
0.052442
30
0.0
11
0.048461
21
0.052442
31
0.0
0
LINE
8
0
6
CONTINUOUS
10
0.045982
20
0.052323
30
0.0
11
0.049828
21
0.052323
31
0.0
0
LINE
8
0
6
CONTINUOUS
10
0.048461
20
0.052442
30
0.0
11
0.044406
21
0.052442
31
0.0
0
LINE
8
0
6
CONTINUOUS
10
0.043594
20
0.052323
30
0.0
11
0.045982
21
0.052323
31
0.0
0
LINE
8
0
6
CONTINUOUS
10
0.044406
20
0.052442
30
0.0
11
0.041889
21
0.052442
31
0.0
0
LINE
8
0
6
CONTINUOUS
10
0.042785
20
0.052323
30
0.0
11
0.043594
21
0.052323
31
0.0
0
LINE
8
0
6
CONTINUOUS
10
0.041036
20
0.052442
30
0.0
11
0.042785
21
0.052323
31
0.0
0
LINE
8
0
6
CONTINUOUS
10
0.041889
20
0.052442
30
0.0
11
0.041036
21
0.052442
31
0.0
0
LINE
8
0
6
CONTINUOUS
10
0.106546
20
0.052323
30
0.0
11
0.107355
21
0.052323
31
0.0
0
LINE
8
0
6
CONTINUOUS
10
0.109104
20
0.052442
30
0.0
11
0.108251
21
0.052442
31
0.0
0
LINE
8
0
6
CONTINUOUS
10
0.107355
20
0.052323
30
0.0
11
0.109104
21
0.052442
31
0.0
0
LINE
8
0
6
CONTINUOUS
10
0.104158
20
0.052323
30
0.0
11
0.106546
21
0.052323
31
0.0
0
LINE
8
0
6
CONTINUOUS
10
0.108251
20
0.052442
30
0.0
11
0.105734
21
0.052442
31
0.0
0
LINE
8
0
6
CONTINUOUS
10
0.100311
20
0.052323
30
0.0
11
0.104158
21
0.052323
31
0.0
0
LINE
8
0
6
CONTINUOUS
10
0.105734
20
0.052442
30
0.0
11
0.101679
21
0.052442
31
0.0
0
LINE
8
0
6
CONTINUOUS
10
0.095199
20
0.052323
30
0.0
11
0.100311
21
0.052323
31
0.0
0
LINE
8
0
6
CONTINUOUS
10
0.101679
20
0.052442
30
0.0
11
0.096290
21
0.052442
31
0.0
0
LINE
8
0
6
CONTINUOUS
10
0.089078
20
0.052323
30
0.0
11
0.095199
21
0.052323
31
0.0
0
LINE
8
0
6
CONTINUOUS
10
0.096290
20
0.052442
30
0.0
11
0.089837
21
0.052442
31
0.0
0
LINE
8
0
6
CONTINUOUS
10
0.089837
20
0.052442
30
0.0
11
0.082643
21
0.052442
31
0.0
0
LINE
8
0
6
CONTINUOUS
10
0.082643
20
0.052442
30
0.0
11
0.075070
21
0.052442
31
0.0
0
LINE
8
0
6
CONTINUOUS
10
0.041036
20
0.075165
30
0.0
11
0.041036
21
0.054411
31
0.0
0
LINE
8
0
6
CONTINUOUS
10
0.109104
20
0.054411
30
0.0
11
0.109104
21
0.075165
31
0.0
0
LINE
8
0
6
CONTINUOUS
10
0.075070
20
0.075961
30
0.0
11
0.067496
21
0.075961
31
0.0
0
LINE
8
0
6
CONTINUOUS
10
0.067496
20
0.075961
30
0.0
11
0.060303
21
0.075961
31
0.0
0
LINE
8
0
6
CONTINUOUS
10
0.060303
20
0.075961
30
0.0
11
0.053850
21
0.075961
31
0.0
0
LINE
8
0
6
CONTINUOUS
10
0.053850
20
0.075961
30
0.0
11
0.048461
21
0.075961
31
0.0
0
LINE
8
0
6
CONTINUOUS
10
0.048461
20
0.075961
30
0.0
11
0.044406
21
0.075961
31
0.0
0
LINE
8
0
6
CONTINUOUS
10
0.044406
20
0.075961
30
0.0
11
0.041889
21
0.075961
31
0.0
0
LINE
8
0
6
CONTINUOUS
10
0.041036
20
0.075961
30
0.0
11
0.041036
21
0.075165
31
0.0
0
LINE
8
0
6
CONTINUOUS
10
0.041889
20
0.075961
30
0.0
11
0.041036
21
0.075961
31
0.0
0
LINE
8
0
6
CONTINUOUS
10
0.109104
20
0.075165
30
0.0
11
0.109104
21
0.075961
31
0.0
0
LINE
8
0
6
CONTINUOUS
10
0.109104
20
0.075961
30
0.0
11
0.108251
21
0.075961
31
0.0
0
LINE
8
0
6
CONTINUOUS
10
0.108251
20
0.075961
30
0.0
11
0.105734
21
0.075961
31
0.0
0
LINE
8
0
6
CONTINUOUS
10
0.105734
20
0.075961
30
0.0
11
0.101679
21
0.075961
31
0.0
0
LINE
8
0
6
CONTINUOUS
10
0.101679
20
0.075961
30
0.0
11
0.096290
21
0.075961
31
0.0
0
LINE
8
0
6
CONTINUOUS
10
0.096290
20
0.075961
30
0.0
11
0.089837
21
0.075961
31
0.0
0
LINE
8
0
6
CONTINUOUS
10
0.082643
20
0.075961
30
0.0
11
0.075070
21
0.075961
31
0.0
0
LINE
8
0
6
CONTINUOUS
10
0.089837
20
0.075961
30
0.0
11
0.082643
21
0.075961
31
0.0
0
LINE
8
0
6
CONTINUOUS
10
0.062259
20
0.052323
30
0.0
11
0.062259
21
0.044873
31
0.0
0
LINE
8
0
6
CONTINUOUS
10
0.062259
20
0.028907
30
0.0
11
0.062259
21
0.027857
31
0.0
0
LINE
8
0
6
CONTINUOUS
10
0.019096
20
-0.029143
30
0.0
11
0.021208
21
-0.029143
31
0.0
0
LINE
8
0
6
CONTINUOUS
10
0.010912
20
-0.029143
30
0.0
11
0.005632
21
-0.029143
31
0.0
0
LINE
8
0
6
CONTINUOUS
10
0.015576
20
-0.029143
30
0.0
11
0.010912
21
-0.029143
31
0.0
0
LINE
8
0
6
CONTINUOUS
10
0.000000
20
-0.029143
30
0.0
11
0.005632
21
-0.029143
31
0.0
0
LINE
8
0
6
CONTINUOUS
10
0.021208
20
-0.029143
30
0.0
11
0.022000
21
-0.029143
31
0.0
0
LINE
8
0
6
CONTINUOUS
10
0.022000
20
-0.029143
30
0.0
11
0.022000
21
-0.027963
31
0.0
0
LINE
8
0
6
CONTINUOUS
10
0.015576
20
-0.029143
30
0.0
11
0.019096
21
-0.029143
31
0.0
0
LINE
8
0
6
CONTINUOUS
10
0.092500
20
0.022977
30
0.0
11
0.092500
21
0.026894
31
0.0
0
LINE
8
0
6
CONTINUOUS
10
0.091319
20
0.027857
30
0.0
11
0.027325
21
0.027857
31
0.0
0
LINE
8
0
6
CONTINUOUS
10
0.027325
20
-0.002143
30
0.0
11
0.091319
21
-0.002143
31
0.0
0
LINE
8
0
6
CONTINUOUS
10
0.016938
20
0.027857
30
0.0
11
0.015536
21
0.027857
31
0.0
0
LINE
8
0
6
CONTINUOUS
10
0.023633
20
-0.002143
30
0.0
11
0.025035
21
-0.002143
31
0.0
0
LINE
8
0
6
CONTINUOUS
10
0.022000
20
-0.027963
30
0.0
11
0.022000
21
-0.010797
31
0.0
0
LINE
8
0
6
CONTINUOUS
10
0.092500
20
0.000497
30
0.0
11
0.092500
21
0.003697
31
0.0
0
LINE
8
0
6
CONTINUOUS
10
0.092500
20
-0.002143
30
0.0
11
0.092500
21
-0.001423
31
0.0
0
LINE
8
0
6
CONTINUOUS
10
0.091319
20
-0.002143
30
0.0
11
0.092500
21
-0.002143
31
0.0
0
LINE
8
0
6
CONTINUOUS
10
0.092500
20
0.027857
30
0.0
11
0.091319
21
0.027857
31
0.0
0
LINE
8
0
6
CONTINUOUS
10
0.092500
20
0.026894
30
0.0
11
0.092500
21
0.027857
31
0.0
0
LINE
8
0
6
CONTINUOUS
10
0.092500
20
-0.001423
30
0.0
11
0.092500
21
0.000497
31
0.0
0
LINE
8
0
6
CONTINUOUS
10
0.092500
20
0.003697
30
0.0
11
0.092500
21
0.007937
31
0.0
0
LINE
8
0
6
CONTINUOUS
10
0.092500
20
0.007937
30
0.0
11
0.092500
21
0.012737
31
0.0
0
LINE
8
0
6
CONTINUOUS
10
0.092500
20
0.012737
30
0.0
11
0.092500
21
0.017857
31
0.0
0
LINE
8
0
6
CONTINUOUS
10
0.092500
20
0.017857
30
0.0
11
0.092500
21
0.022977
31
0.0
0
LINE
8
0
6
CONTINUOUS
10
0.021960
20
-0.004324
30
0.0
11
0.022649
21
-0.002273
31
0.0
0
LINE
8
0
6
CONTINUOUS
10
0.010912
20
0.002958
30
0.0
11
0.015946
21
-0.000102
31
0.0
0
LINE
8
0
6
CONTINUOUS
10
0.016759
20
0.001476
30
0.0
11
0.010912
21
0.004664
31
0.0
0
LINE
8
0
6
CONTINUOUS
10
0.023633
20
-0.002143
30
0.0
11
0.021585
21
-0.001423
31
0.0
0
LINE
8
0
6
CONTINUOUS
10
0.021907
20
-0.003003
30
0.0
11
0.023633
21
-0.002143
31
0.0
0
LINE
8
0
6
CONTINUOUS
10
0.019849
20
-0.002280
30
0.0
11
0.021907
21
-0.003003
31
0.0
0
LINE
8
0
6
CONTINUOUS
10
0.019849
20
-0.002280
30
0.0
11
0.015946
21
-0.000102
31
0.0
0
LINE
8
0
6
CONTINUOUS
10
0.022000
20
-0.010797
30
0.0
11
0.022000
21
-0.009465
31
0.0
0
LINE
8
0
6
CONTINUOUS
10
0.025035
20
-0.002143
30
0.0
11
0.027325
21
-0.002143
31
0.0
0
LINE
8
0
6
CONTINUOUS
10
0.016759
20
0.001476
30
0.0
11
0.021585
21
-0.001423
31
0.0
0
LINE
8
0
6
CONTINUOUS
10
0.015536
20
0.027857
30
0.0
11
0.010912
21
0.027857
31
0.0
0
LINE
8
0
6
CONTINUOUS
10
0.021996
20
-0.006889
30
0.0
11
0.021960
21
-0.004324
31
0.0
0
LINE
8
0
6
CONTINUOUS
10
0.005456
20
0.027857
30
0.0
11
0.000000
21
0.027857
31
0.0
0
LINE
8
0
6
CONTINUOUS
10
0.010912
20
0.027857
30
0.0
11
0.005456
21
0.027857
31
0.0
0
LINE
8
0
6
CONTINUOUS
10
0.022000
20
-0.009465
30
0.0
11
0.021996
21
-0.006889
31
0.0
0
LINE
8
0
6
CONTINUOUS
10
0.027325
20
0.027857
30
0.0
11
0.016938
21
0.027857
31
0.0
0
LINE
8
0
6
CONTINUOUS
10
-0.021208
20
-0.029143
30
0.0
11
-0.019096
21
-0.029143
31
0.0
0
LINE
8
0
6
CONTINUOUS
10
-0.005632
20
-0.029143
30
0.0
11
-0.010912
21
-0.029143
31
0.0
0
LINE
8
0
6
CONTINUOUS
10
-0.010912
20
-0.029143
30
0.0
11
-0.015576
21
-0.029143
31
0.0
0
LINE
8
0
6
CONTINUOUS
10
-0.005632
20
-0.029143
30
0.0
11
0.000000
21
-0.029143
31
0.0
0
LINE
8
0
6
CONTINUOUS
10
-0.022000
20
-0.027963
30
0.0
11
-0.022000
21
-0.029143
31
0.0
0
LINE
8
0
6
CONTINUOUS
10
-0.022000
20
-0.029143
30
0.0
11
-0.021208
21
-0.029143
31
0.0
0
LINE
8
0
6
CONTINUOUS
10
-0.019096
20
-0.029143
30
0.0
11
-0.015576
21
-0.029143
31
0.0
0
LINE
8
0
6
CONTINUOUS
10
-0.092500
20
0.026894
30
0.0
11
-0.092500
21
0.022977
31
0.0
0
LINE
8
0
6
CONTINUOUS
10
-0.027325
20
0.027857
30
0.0
11
-0.091319
21
0.027857
31
0.0
0
LINE
8
0
6
CONTINUOUS
10
-0.091319
20
-0.002143
30
0.0
11
-0.027325
21
-0.002143
31
0.0
0
LINE
8
0
6
CONTINUOUS
10
-0.015535
20
0.027857
30
0.0
11
-0.016938
21
0.027857
31
0.0
0
LINE
8
0
6
CONTINUOUS
10
-0.025035
20
-0.002143
30
0.0
11
-0.023633
21
-0.002143
31
0.0
0
LINE
8
0
6
CONTINUOUS
10
-0.022000
20
-0.010797
30
0.0
11
-0.022000
21
-0.027963
31
0.0
0
LINE
8
0
6
CONTINUOUS
10
-0.092500
20
0.003697
30
0.0
11
-0.092500
21
0.000497
31
0.0
0
LINE
8
0
6
CONTINUOUS
10
-0.092500
20
-0.002143
30
0.0
11
-0.091319
21
-0.002143
31
0.0
0
LINE
8
0
6
CONTINUOUS
10
-0.092500
20
-0.001423
30
0.0
11
-0.092500
21
-0.002143
31
0.0
0
LINE
8
0
6
CONTINUOUS
10
-0.092500
20
0.027857
30
0.0
11
-0.092500
21
0.026894
31
0.0
0
LINE
8
0
6
CONTINUOUS
10
-0.091319
20
0.027857
30
0.0
11
-0.092500
21
0.027857
31
0.0
0
LINE
8
0
6
CONTINUOUS
10
-0.092500
20
0.000497
30
0.0
11
-0.092500
21
-0.001423
31
0.0
0
LINE
8
0
6
CONTINUOUS
10
-0.092500
20
0.007937
30
0.0
11
-0.092500
21
0.003697
31
0.0
0
LINE
8
0
6
CONTINUOUS
10
-0.092500
20
0.012737
30
0.0
11
-0.092500
21
0.007937
31
0.0
0
LINE
8
0
6
CONTINUOUS
10
-0.092500
20
0.017857
30
0.0
11
-0.092500
21
0.012737
31
0.0
0
LINE
8
0
6
CONTINUOUS
10
-0.092500
20
0.022977
30
0.0
11
-0.092500
21
0.017857
31
0.0
0
LINE
8
0
6
CONTINUOUS
10
-0.022649
20
-0.002273
30
0.0
11
-0.021960
21
-0.004324
31
0.0
0
LINE
8
0
6
CONTINUOUS
10
-0.010912
20
0.004664
30
0.0
11
-0.016759
21
0.001476
31
0.0
0
LINE
8
0
6
CONTINUOUS
10
-0.015946
20
-0.000102
30
0.0
11
-0.010912
21
0.002958
31
0.0
0
LINE
8
0
6
CONTINUOUS
10
-0.021907
20
-0.003003
30
0.0
11
-0.019849
21
-0.002280
31
0.0
0
LINE
8
0
6
CONTINUOUS
10
-0.023633
20
-0.002143
30
0.0
11
-0.021907
21
-0.003003
31
0.0
0
LINE
8
0
6
CONTINUOUS
10
-0.021585
20
-0.001423
30
0.0
11
-0.023633
21
-0.002143
31
0.0
0
LINE
8
0
6
CONTINUOUS
10
-0.015946
20
-0.000102
30
0.0
11
-0.019849
21
-0.002280
31
0.0
0
LINE
8
0
6
CONTINUOUS
10
-0.022000
20
-0.009465
30
0.0
11
-0.022000
21
-0.010797
31
0.0
0
LINE
8
0
6
CONTINUOUS
10
-0.027325
20
-0.002143
30
0.0
11
-0.025035
21
-0.002143
31
0.0
0
LINE
8
0
6
CONTINUOUS
10
-0.021585
20
-0.001423
30
0.0
11
-0.016759
21
0.001476
31
0.0
0
LINE
8
0
6
CONTINUOUS
10
-0.010912
20
0.027857
30
0.0
11
-0.015535
21
0.027857
31
0.0
0
LINE
8
0
6
CONTINUOUS
10
-0.021960
20
-0.004324
30
0.0
11
-0.021996
21
-0.006889
31
0.0
0
LINE
8
0
6
CONTINUOUS
10
0.000000
20
0.027857
30
0.0
11
-0.005456
21
0.027857
31
0.0
0
LINE
8
0
6
CONTINUOUS
10
-0.005456
20
0.027857
30
0.0
11
-0.010912
21
0.027857
31
0.0
0
LINE
8
0
6
CONTINUOUS
10
-0.021996
20
-0.006889
30
0.0
11
-0.022000
21
-0.009465
31
0.0
0
LINE
8
0
6
CONTINUOUS
10
-0.016938
20
0.027857
30
0.0
11
-0.027325
21
0.027857
31
0.0
0
ENDSEC
0
EOF
