999
Erzeugt mit innoplus bad 
0
SECTION
2
HEADER
9
$ACADVER
1
AC1009
9
$DWGCODEPAGE
3
ISO8859-1
0
ENDSEC
0
SECTION
2
TABLES
0
TABLE
2
LAYER
70
1
0
LAYER
2
0
70
0
62
7
6
CONTINUOUS
0
ENDTAB
0
ENDSEC
0
SECTION
2
ENTITIES
0
LINE
8
0
6
CONTINUOUS
10
-0.065846
20
0.018339
30
0.0
11
-0.066500
21
0.015746
31
0.0
0
LINE
8
0
6
CONTINUOUS
10
-0.066500
20
0.015746
30
0.0
11
-0.075840
21
-0.021269
31
0.0
0
LINE
8
0
6
CONTINUOUS
10
-0.030333
20
0.064144
30
0.0
11
-0.041448
21
0.064144
31
0.0
0
LINE
8
0
6
CONTINUOUS
10
-0.057628
20
0.010849
30
0.0
11
-0.056886
21
0.013263
31
0.0
0
LINE
8
0
6
CONTINUOUS
10
-0.055634
20
0.015564
30
0.0
11
-0.053989
21
0.017387
31
0.0
0
LINE
8
0
6
CONTINUOUS
10
-0.054376
20
0.064154
30
0.0
11
-0.057639
21
0.064160
31
0.0
0
LINE
8
0
6
CONTINUOUS
10
-0.051090
20
0.064150
30
0.0
11
-0.054376
21
0.064154
31
0.0
0
LINE
8
0
6
CONTINUOUS
10
-0.064190
20
0.026036
30
0.0
11
-0.065281
21
0.021063
31
0.0
0
LINE
8
0
6
CONTINUOUS
10
-0.047783
20
0.064146
30
0.0
11
-0.051090
21
0.064150
31
0.0
0
LINE
8
0
6
CONTINUOUS
10
-0.041448
20
0.064144
30
0.0
11
-0.044454
21
0.064144
31
0.0
0
LINE
8
0
6
CONTINUOUS
10
-0.041448
20
0.020139
30
0.0
11
-0.030333
21
0.020139
31
0.0
0
LINE
8
0
6
CONTINUOUS
10
-0.044454
20
0.064144
30
0.0
11
-0.047783
21
0.064146
31
0.0
0
LINE
8
0
6
CONTINUOUS
10
-0.057639
20
0.064160
30
0.0
11
-0.059893
21
0.064164
31
0.0
0
LINE
8
0
6
CONTINUOUS
10
-0.056886
20
0.013263
30
0.0
11
-0.055634
21
0.015564
31
0.0
0
LINE
8
0
6
CONTINUOUS
10
-0.065281
20
0.021063
30
0.0
11
-0.065846
21
0.018339
31
0.0
0
LINE
8
0
6
CONTINUOUS
10
-0.068227
20
-0.023607
30
0.0
11
-0.057628
21
0.010849
31
0.0
0
LINE
8
0
6
CONTINUOUS
10
-0.049782
20
0.019629
30
0.0
11
-0.048299
21
0.020104
31
0.0
0
LINE
8
0
6
CONTINUOUS
10
-0.048299
20
0.020104
30
0.0
11
-0.041448
21
0.020139
31
0.0
0
LINE
8
0
6
CONTINUOUS
10
-0.029833
20
0.021576
30
0.0
11
-0.029143
21
0.021576
31
0.0
0
LINE
8
0
6
CONTINUOUS
10
-0.029143
20
0.062706
30
0.0
11
-0.029833
21
0.062706
31
0.0
0
LINE
8
0
6
CONTINUOUS
10
-0.062011
20
0.040281
30
0.0
11
-0.062736
21
0.029207
31
0.0
0
LINE
8
0
6
CONTINUOUS
10
-0.051791
20
0.018647
30
0.0
11
-0.049782
21
0.019629
31
0.0
0
LINE
8
0
6
CONTINUOUS
10
-0.063093
20
0.031043
30
0.0
11
-0.064190
21
0.026036
31
0.0
0
LINE
8
0
6
CONTINUOUS
10
-0.053989
20
0.017387
30
0.0
11
-0.051791
21
0.018647
31
0.0
0
LINE
8
0
6
CONTINUOUS
10
-0.061566
20
0.047846
30
0.0
11
-0.061896
21
0.042222
31
0.0
0
LINE
8
0
6
CONTINUOUS
10
-0.061896
20
0.042222
30
0.0
11
-0.062227
21
0.036591
31
0.0
0
LINE
8
0
6
CONTINUOUS
10
-0.060778
20
0.061262
30
0.0
11
-0.060984
21
0.057758
31
0.0
0
LINE
8
0
6
CONTINUOUS
10
-0.060655
20
0.063363
30
0.0
11
-0.060778
21
0.061262
31
0.0
0
LINE
8
0
6
CONTINUOUS
10
-0.060608
20
0.064150
30
0.0
11
-0.060655
21
0.063363
31
0.0
0
LINE
8
0
6
CONTINUOUS
10
-0.059893
20
0.064164
30
0.0
11
-0.060608
21
0.064150
31
0.0
0
LINE
8
0
6
CONTINUOUS
10
-0.060984
20
0.057758
30
0.0
11
-0.061257
21
0.053112
31
0.0
0
LINE
8
0
6
CONTINUOUS
10
-0.062538
20
0.031306
30
0.0
11
-0.062812
21
0.026633
31
0.0
0
LINE
8
0
6
CONTINUOUS
10
-0.062227
20
0.036591
30
0.0
11
-0.062538
21
0.031306
31
0.0
0
LINE
8
0
6
CONTINUOUS
10
-0.062812
20
0.026633
30
0.0
11
-0.063020
21
0.023103
31
0.0
0
LINE
8
0
6
CONTINUOUS
10
-0.061257
20
0.053112
30
0.0
11
-0.061566
21
0.047846
31
0.0
0
LINE
8
0
6
CONTINUOUS
10
-0.065047
20
0.015122
30
0.0
11
-0.064539
21
0.016874
31
0.0
0
LINE
8
0
6
CONTINUOUS
10
-0.063106
20
0.021640
30
0.0
11
-0.063385
21
0.020951
31
0.0
0
LINE
8
0
6
CONTINUOUS
10
-0.063020
20
0.023103
30
0.0
11
-0.063106
21
0.021640
31
0.0
0
LINE
8
0
6
CONTINUOUS
10
-0.063385
20
0.020951
30
0.0
11
-0.063791
21
0.019475
31
0.0
0
LINE
8
0
6
CONTINUOUS
10
-0.063791
20
0.019475
30
0.0
11
-0.064202
21
0.017978
31
0.0
0
LINE
8
0
6
CONTINUOUS
10
-0.064539
20
0.016874
30
0.0
11
-0.064202
21
0.017978
31
0.0
0
LINE
8
0
6
CONTINUOUS
10
-0.062066
20
0.036976
30
0.0
11
-0.063093
21
0.031043
31
0.0
0
LINE
8
0
6
CONTINUOUS
10
-0.075840
20
-0.021269
30
0.0
11
-0.075961
21
-0.021743
31
0.0
0
LINE
8
0
6
CONTINUOUS
10
-0.075776
20
-0.021800
30
0.0
11
-0.075961
21
-0.021743
31
0.0
0
LINE
8
0
6
CONTINUOUS
10
-0.072167
20
-0.022908
30
0.0
11
-0.070995
21
-0.023268
31
0.0
0
LINE
8
0
6
CONTINUOUS
10
-0.070995
20
-0.023268
30
0.0
11
-0.069937
21
-0.023592
31
0.0
0
LINE
8
0
6
CONTINUOUS
10
-0.069937
20
-0.023592
30
0.0
11
-0.069097
21
-0.023850
31
0.0
0
LINE
8
0
6
CONTINUOUS
10
-0.068559
20
-0.024015
30
0.0
11
-0.069097
21
-0.023850
31
0.0
0
LINE
8
0
6
CONTINUOUS
10
-0.068373
20
-0.024072
30
0.0
11
-0.068227
21
-0.023607
31
0.0
0
LINE
8
0
6
CONTINUOUS
10
-0.068373
20
-0.024072
30
0.0
11
-0.068559
21
-0.024015
31
0.0
0
LINE
8
0
6
CONTINUOUS
10
-0.074397
20
-0.022223
30
0.0
11
-0.073340
21
-0.022548
31
0.0
0
LINE
8
0
6
CONTINUOUS
10
-0.075237
20
-0.021965
30
0.0
11
-0.074397
21
-0.022223
31
0.0
0
LINE
8
0
6
CONTINUOUS
10
-0.075776
20
-0.021800
30
0.0
11
-0.075237
21
-0.021965
31
0.0
0
LINE
8
0
6
CONTINUOUS
10
-0.073340
20
-0.022548
30
0.0
11
-0.072167
21
-0.022908
31
0.0
0
LINE
8
0
6
CONTINUOUS
10
-0.029833
20
0.053022
30
0.0
11
-0.029833
21
0.057698
31
0.0
0
LINE
8
0
6
CONTINUOUS
10
-0.029833
20
0.026563
30
0.0
11
-0.029833
21
0.031228
31
0.0
0
LINE
8
0
6
CONTINUOUS
10
-0.029833
20
0.057698
30
0.0
11
-0.029833
21
0.061175
31
0.0
0
LINE
8
0
6
CONTINUOUS
10
-0.029833
20
0.031228
30
0.0
11
-0.029833
21
0.036509
31
0.0
0
LINE
8
0
6
CONTINUOUS
10
-0.029833
20
0.064144
30
0.0
11
-0.030333
21
0.064144
31
0.0
0
LINE
8
0
6
CONTINUOUS
10
-0.029833
20
0.063333
30
0.0
11
-0.029833
21
0.064144
31
0.0
0
LINE
8
0
6
CONTINUOUS
10
-0.029833
20
0.036509
30
0.0
11
-0.029833
21
0.042141
31
0.0
0
LINE
8
0
6
CONTINUOUS
10
-0.029833
20
0.042141
30
0.0
11
-0.029833
21
0.047746
31
0.0
0
LINE
8
0
6
CONTINUOUS
10
-0.029833
20
0.061175
30
0.0
11
-0.029833
21
0.063333
31
0.0
0
LINE
8
0
6
CONTINUOUS
10
-0.029833
20
0.023043
30
0.0
11
-0.029833
21
0.026563
31
0.0
0
LINE
8
0
6
CONTINUOUS
10
-0.029833
20
0.020931
30
0.0
11
-0.029833
21
0.023043
31
0.0
0
LINE
8
0
6
CONTINUOUS
10
-0.029833
20
0.020139
30
0.0
11
-0.029833
21
0.020931
31
0.0
0
LINE
8
0
6
CONTINUOUS
10
-0.030333
20
0.020139
30
0.0
11
-0.029833
21
0.020139
31
0.0
0
LINE
8
0
6
CONTINUOUS
10
-0.029833
20
0.047746
30
0.0
11
-0.029833
21
0.053022
31
0.0
0
LINE
8
0
6
CONTINUOUS
10
0.042313
20
0.062553
30
0.0
11
0.031468
21
0.062553
31
0.0
0
LINE
8
0
6
CONTINUOUS
10
0.044873
20
0.062553
30
0.0
11
0.042313
21
0.062553
31
0.0
0
LINE
8
0
6
CONTINUOUS
10
0.031468
20
0.062553
30
0.0
11
0.028907
21
0.062553
31
0.0
0
LINE
8
0
6
CONTINUOUS
10
0.052323
20
0.061054
30
0.0
11
0.044873
21
0.061054
31
0.0
0
LINE
8
0
6
CONTINUOUS
10
0.028907
20
0.061054
30
0.0
11
0.027857
21
0.061054
31
0.0
0
LINE
8
0
6
CONTINUOUS
10
0.054411
20
0.081865
30
0.0
11
0.052442
21
0.081865
31
0.0
0
LINE
8
0
6
CONTINUOUS
10
0.075165
20
0.081865
30
0.0
11
0.054411
21
0.081865
31
0.0
0
LINE
8
0
6
CONTINUOUS
10
0.075961
20
0.081865
30
0.0
11
0.075165
21
0.081865
31
0.0
0
LINE
8
0
6
CONTINUOUS
10
0.042313
20
0.062553
30
0.0
11
0.031468
21
0.062553
31
0.0
0
LINE
8
0
6
CONTINUOUS
10
0.031468
20
0.033108
30
0.0
11
0.042313
21
0.033108
31
0.0
0
LINE
8
0
6
CONTINUOUS
10
0.044873
20
0.033108
30
0.0
11
0.044873
21
0.039303
31
0.0
0
LINE
8
0
6
CONTINUOUS
10
0.042313
20
0.033108
30
0.0
11
0.044873
21
0.033108
31
0.0
0
LINE
8
0
6
CONTINUOUS
10
0.042342
20
0.033608
30
0.0
11
0.042313
21
0.033108
31
0.0
0
LINE
8
0
6
CONTINUOUS
10
0.042313
20
0.062553
30
0.0
11
0.042342
21
0.062053
31
0.0
0
LINE
8
0
6
CONTINUOUS
10
0.044873
20
0.062553
30
0.0
11
0.042313
21
0.062553
31
0.0
0
LINE
8
0
6
CONTINUOUS
10
0.044873
20
0.056358
30
0.0
11
0.044873
21
0.062553
31
0.0
0
LINE
8
0
6
CONTINUOUS
10
0.044873
20
0.041636
30
0.0
11
0.044873
21
0.054025
31
0.0
0
LINE
8
0
6
CONTINUOUS
10
0.042342
20
0.048331
30
0.0
11
0.042313
21
0.047398
31
0.0
0
LINE
8
0
6
CONTINUOUS
10
0.042342
20
0.048331
30
0.0
11
0.044873
21
0.054025
31
0.0
0
LINE
8
0
6
CONTINUOUS
10
0.044873
20
0.054025
30
0.0
11
0.044873
21
0.056358
31
0.0
0
LINE
8
0
6
CONTINUOUS
10
0.044873
20
0.056358
30
0.0
11
0.042342
21
0.062053
31
0.0
0
LINE
8
0
6
CONTINUOUS
10
0.028907
20
0.056358
30
0.0
11
0.028907
21
0.054025
31
0.0
0
LINE
8
0
6
CONTINUOUS
10
0.044873
20
0.041636
30
0.0
11
0.042313
21
0.047398
31
0.0
0
LINE
8
0
6
CONTINUOUS
10
0.044873
20
0.039303
30
0.0
11
0.044873
21
0.041636
31
0.0
0
LINE
8
0
6
CONTINUOUS
10
0.028907
20
0.041636
30
0.0
11
0.028907
21
0.039303
31
0.0
0
LINE
8
0
6
CONTINUOUS
10
0.042342
20
0.033608
30
0.0
11
0.044873
21
0.039303
31
0.0
0
LINE
8
0
6
CONTINUOUS
10
0.028907
20
0.039303
30
0.0
11
0.028907
21
0.033108
31
0.0
0
LINE
8
0
6
CONTINUOUS
10
0.031468
20
0.033108
30
0.0
11
0.031438
21
0.033608
31
0.0
0
LINE
8
0
6
CONTINUOUS
10
0.028907
20
0.033108
30
0.0
11
0.031468
21
0.033108
31
0.0
0
LINE
8
0
6
CONTINUOUS
10
0.031438
20
0.033608
30
0.0
11
0.028907
21
0.039303
31
0.0
0
LINE
8
0
6
CONTINUOUS
10
0.028907
20
0.041636
30
0.0
11
0.031468
21
0.047398
31
0.0
0
LINE
8
0
6
CONTINUOUS
10
0.031468
20
0.047398
30
0.0
11
0.031438
21
0.048331
31
0.0
0
LINE
8
0
6
CONTINUOUS
10
0.031438
20
0.048331
30
0.0
11
0.028907
21
0.054025
31
0.0
0
LINE
8
0
6
CONTINUOUS
10
0.028907
20
0.054025
30
0.0
11
0.028907
21
0.041636
31
0.0
0
LINE
8
0
6
CONTINUOUS
10
0.031468
20
0.062553
30
0.0
11
0.028907
21
0.062553
31
0.0
0
LINE
8
0
6
CONTINUOUS
10
0.028907
20
0.056358
30
0.0
11
0.031438
21
0.062053
31
0.0
0
LINE
8
0
6
CONTINUOUS
10
0.028907
20
0.062553
30
0.0
11
0.028907
21
0.056358
31
0.0
0
LINE
8
0
6
CONTINUOUS
10
0.031438
20
0.062053
30
0.0
11
0.031468
21
0.062553
31
0.0
0
LINE
8
0
6
CONTINUOUS
10
0.052323
20
0.061054
30
0.0
11
0.044873
21
0.061054
31
0.0
0
LINE
8
0
6
CONTINUOUS
10
0.028907
20
0.061054
30
0.0
11
0.027857
21
0.061054
31
0.0
0
LINE
8
0
6
CONTINUOUS
10
0.052442
20
0.013796
30
0.0
11
0.054411
21
0.013796
31
0.0
0
LINE
8
0
6
CONTINUOUS
10
0.054411
20
0.081865
30
0.0
11
0.052442
21
0.081865
31
0.0
0
LINE
8
0
6
CONTINUOUS
10
0.052323
20
0.016355
30
0.0
11
0.052323
21
0.015545
31
0.0
0
LINE
8
0
6
CONTINUOUS
10
0.052442
20
0.013796
30
0.0
11
0.052442
21
0.014650
31
0.0
0
LINE
8
0
6
CONTINUOUS
10
0.052323
20
0.015545
30
0.0
11
0.052442
21
0.013796
31
0.0
0
LINE
8
0
6
CONTINUOUS
10
0.052323
20
0.018743
30
0.0
11
0.052323
21
0.016355
31
0.0
0
LINE
8
0
6
CONTINUOUS
10
0.052442
20
0.014650
30
0.0
11
0.052442
21
0.017167
31
0.0
0
LINE
8
0
6
CONTINUOUS
10
0.052323
20
0.022589
30
0.0
11
0.052323
21
0.018743
31
0.0
0
LINE
8
0
6
CONTINUOUS
10
0.052442
20
0.017167
30
0.0
11
0.052442
21
0.021222
31
0.0
0
LINE
8
0
6
CONTINUOUS
10
0.052323
20
0.027701
30
0.0
11
0.052323
21
0.022589
31
0.0
0
LINE
8
0
6
CONTINUOUS
10
0.052442
20
0.021222
30
0.0
11
0.052442
21
0.026611
31
0.0
0
LINE
8
0
6
CONTINUOUS
10
0.052323
20
0.033823
30
0.0
11
0.052323
21
0.027701
31
0.0
0
LINE
8
0
6
CONTINUOUS
10
0.052442
20
0.026611
30
0.0
11
0.052442
21
0.033064
31
0.0
0
LINE
8
0
6
CONTINUOUS
10
0.052323
20
0.040646
30
0.0
11
0.052323
21
0.033823
31
0.0
0
LINE
8
0
6
CONTINUOUS
10
0.052442
20
0.033064
30
0.0
11
0.052442
21
0.040257
31
0.0
0
LINE
8
0
6
CONTINUOUS
10
0.052323
20
0.047831
30
0.0
11
0.052323
21
0.040646
31
0.0
0
LINE
8
0
6
CONTINUOUS
10
0.052442
20
0.040257
30
0.0
11
0.052442
21
0.047831
31
0.0
0
LINE
8
0
6
CONTINUOUS
10
0.052323
20
0.055015
30
0.0
11
0.052323
21
0.047831
31
0.0
0
LINE
8
0
6
CONTINUOUS
10
0.052442
20
0.047831
30
0.0
11
0.052442
21
0.055404
31
0.0
0
LINE
8
0
6
CONTINUOUS
10
0.052323
20
0.061839
30
0.0
11
0.052323
21
0.055015
31
0.0
0
LINE
8
0
6
CONTINUOUS
10
0.052442
20
0.055404
30
0.0
11
0.052442
21
0.062597
31
0.0
0
LINE
8
0
6
CONTINUOUS
10
0.052323
20
0.067960
30
0.0
11
0.052323
21
0.061839
31
0.0
0
LINE
8
0
6
CONTINUOUS
10
0.052442
20
0.062597
30
0.0
11
0.052442
21
0.069051
31
0.0
0
LINE
8
0
6
CONTINUOUS
10
0.052323
20
0.073072
30
0.0
11
0.052323
21
0.067960
31
0.0
0
LINE
8
0
6
CONTINUOUS
10
0.052442
20
0.069051
30
0.0
11
0.052442
21
0.074440
31
0.0
0
LINE
8
0
6
CONTINUOUS
10
0.052323
20
0.076918
30
0.0
11
0.052323
21
0.073072
31
0.0
0
LINE
8
0
6
CONTINUOUS
10
0.052442
20
0.074440
30
0.0
11
0.052442
21
0.078494
31
0.0
0
LINE
8
0
6
CONTINUOUS
10
0.052323
20
0.079306
30
0.0
11
0.052323
21
0.076918
31
0.0
0
LINE
8
0
6
CONTINUOUS
10
0.052442
20
0.078494
30
0.0
11
0.052442
21
0.081011
31
0.0
0
LINE
8
0
6
CONTINUOUS
10
0.052323
20
0.080116
30
0.0
11
0.052323
21
0.079306
31
0.0
0
LINE
8
0
6
CONTINUOUS
10
0.052442
20
0.081865
30
0.0
11
0.052323
21
0.080116
31
0.0
0
LINE
8
0
6
CONTINUOUS
10
0.052442
20
0.081011
30
0.0
11
0.052442
21
0.081865
31
0.0
0
LINE
8
0
6
CONTINUOUS
10
0.054411
20
0.013796
30
0.0
11
0.075165
21
0.013796
31
0.0
0
LINE
8
0
6
CONTINUOUS
10
0.075165
20
0.081865
30
0.0
11
0.054411
21
0.081865
31
0.0
0
LINE
8
0
6
CONTINUOUS
10
0.075165
20
0.013796
30
0.0
11
0.075961
21
0.013796
31
0.0
0
LINE
8
0
6
CONTINUOUS
10
0.075961
20
0.013796
30
0.0
11
0.075961
21
0.014650
31
0.0
0
LINE
8
0
6
CONTINUOUS
10
0.075961
20
0.014650
30
0.0
11
0.075961
21
0.017167
31
0.0
0
LINE
8
0
6
CONTINUOUS
10
0.075961
20
0.017167
30
0.0
11
0.075961
21
0.021222
31
0.0
0
LINE
8
0
6
CONTINUOUS
10
0.075961
20
0.021222
30
0.0
11
0.075961
21
0.026611
31
0.0
0
LINE
8
0
6
CONTINUOUS
10
0.075961
20
0.026611
30
0.0
11
0.075961
21
0.033064
31
0.0
0
LINE
8
0
6
CONTINUOUS
10
0.075961
20
0.033064
30
0.0
11
0.075961
21
0.040257
31
0.0
0
LINE
8
0
6
CONTINUOUS
10
0.075961
20
0.040257
30
0.0
11
0.075961
21
0.047831
31
0.0
0
LINE
8
0
6
CONTINUOUS
10
0.075961
20
0.047831
30
0.0
11
0.075961
21
0.055404
31
0.0
0
LINE
8
0
6
CONTINUOUS
10
0.075961
20
0.055404
30
0.0
11
0.075961
21
0.062597
31
0.0
0
LINE
8
0
6
CONTINUOUS
10
0.075961
20
0.062597
30
0.0
11
0.075961
21
0.069051
31
0.0
0
LINE
8
0
6
CONTINUOUS
10
0.075961
20
0.069051
30
0.0
11
0.075961
21
0.074440
31
0.0
0
LINE
8
0
6
CONTINUOUS
10
0.075961
20
0.074440
30
0.0
11
0.075961
21
0.078494
31
0.0
0
LINE
8
0
6
CONTINUOUS
10
0.075961
20
0.081865
30
0.0
11
0.075165
21
0.081865
31
0.0
0
LINE
8
0
6
CONTINUOUS
10
0.075961
20
0.081011
30
0.0
11
0.075961
21
0.081865
31
0.0
0
LINE
8
0
6
CONTINUOUS
10
0.075961
20
0.078494
30
0.0
11
0.075961
21
0.081011
31
0.0
0
LINE
8
0
6
CONTINUOUS
10
0.027857
20
0.034607
30
0.0
11
0.028907
21
0.034607
31
0.0
0
LINE
8
0
6
CONTINUOUS
10
0.044873
20
0.034607
30
0.0
11
0.052323
21
0.034607
31
0.0
0
LINE
8
0
6
CONTINUOUS
10
0.020170
20
-0.072482
30
0.0
11
0.020919
21
-0.073540
31
0.0
0
LINE
8
0
6
CONTINUOUS
10
0.020919
20
-0.073540
30
0.0
11
0.021176
21
-0.074717
31
0.0
0
LINE
8
0
6
CONTINUOUS
10
0.021176
20
-0.074717
30
0.0
11
0.021179
21
-0.013984
31
0.0
0
LINE
8
0
6
CONTINUOUS
10
0.017434
20
-0.070739
30
0.0
11
0.018982
21
-0.071531
31
0.0
0
LINE
8
0
6
CONTINUOUS
10
0.011764
20
-0.070211
30
0.0
11
0.013698
21
-0.070021
31
0.0
0
LINE
8
0
6
CONTINUOUS
10
0.013698
20
-0.070021
30
0.0
11
0.015631
21
-0.070206
31
0.0
0
LINE
8
0
6
CONTINUOUS
10
0.006486
20
-0.073555
30
0.0
11
0.007230
21
-0.072496
31
0.0
0
LINE
8
0
6
CONTINUOUS
10
0.009963
20
-0.070748
30
0.0
11
0.011764
21
-0.070211
31
0.0
0
LINE
8
0
6
CONTINUOUS
10
0.018982
20
-0.071531
30
0.0
11
0.020170
21
-0.072482
31
0.0
0
LINE
8
0
6
CONTINUOUS
10
0.007230
20
-0.072496
30
0.0
11
0.008416
21
-0.071543
31
0.0
0
LINE
8
0
6
CONTINUOUS
10
0.006234
20
-0.074734
30
0.0
11
0.006486
21
-0.073555
31
0.0
0
LINE
8
0
6
CONTINUOUS
10
0.006231
20
-0.013984
30
0.0
11
0.006234
21
-0.074734
31
0.0
0
LINE
8
0
6
CONTINUOUS
10
0.008416
20
-0.071543
30
0.0
11
0.009963
21
-0.070748
31
0.0
0
LINE
8
0
6
CONTINUOUS
10
0.015631
20
-0.070206
30
0.0
11
0.017434
21
-0.070739
31
0.0
0
LINE
8
0
6
CONTINUOUS
10
0.003205
20
-0.013984
30
0.0
11
0.003605
21
-0.013984
31
0.0
0
LINE
8
0
6
CONTINUOUS
10
0.003187
20
-0.013447
30
0.0
11
0.003205
21
-0.013984
31
0.0
0
LINE
8
0
6
CONTINUOUS
10
0.003605
20
-0.013984
30
0.0
11
0.004605
21
-0.013984
31
0.0
0
LINE
8
0
6
CONTINUOUS
10
0.008505
20
-0.013984
30
0.0
11
0.011005
21
-0.013984
31
0.0
0
LINE
8
0
6
CONTINUOUS
10
0.006305
20
-0.013984
30
0.0
11
0.008505
21
-0.013984
31
0.0
0
LINE
8
0
6
CONTINUOUS
10
0.004605
20
-0.013984
30
0.0
11
0.006305
21
-0.013984
31
0.0
0
LINE
8
0
6
CONTINUOUS
10
0.011005
20
-0.013984
30
0.0
11
0.013705
21
-0.013984
31
0.0
0
LINE
8
0
6
CONTINUOUS
10
0.021105
20
-0.013984
30
0.0
11
0.022805
21
-0.013984
31
0.0
0
LINE
8
0
6
CONTINUOUS
10
0.018905
20
-0.013984
30
0.0
11
0.021105
21
-0.013984
31
0.0
0
LINE
8
0
6
CONTINUOUS
10
0.024205
20
-0.013984
30
0.0
11
0.024223
21
-0.013447
31
0.0
0
LINE
8
0
6
CONTINUOUS
10
0.023805
20
-0.013984
30
0.0
11
0.024205
21
-0.013984
31
0.0
0
LINE
8
0
6
CONTINUOUS
10
0.016405
20
-0.013984
30
0.0
11
0.018905
21
-0.013984
31
0.0
0
LINE
8
0
6
CONTINUOUS
10
0.013705
20
-0.013984
30
0.0
11
0.016405
21
-0.013984
31
0.0
0
LINE
8
0
6
CONTINUOUS
10
0.022805
20
-0.013984
30
0.0
11
0.023805
21
-0.013984
31
0.0
0
LINE
8
0
6
CONTINUOUS
10
0.002222
20
0.015368
30
0.0
11
0.003187
21
-0.013447
31
0.0
0
LINE
8
0
6
CONTINUOUS
10
0.024223
20
-0.013447
30
0.0
11
0.025189
21
0.015368
31
0.0
0
LINE
8
0
6
CONTINUOUS
10
0.002205
20
0.015868
30
0.0
11
0.002222
21
0.015368
31
0.0
0
LINE
8
0
6
CONTINUOUS
10
0.002675
20
0.015868
30
0.0
11
0.002205
21
0.015868
31
0.0
0
LINE
8
0
6
CONTINUOUS
10
0.003909
20
0.015868
30
0.0
11
0.002675
21
0.015868
31
0.0
0
LINE
8
0
6
CONTINUOUS
10
0.016693
20
0.015868
30
0.0
11
0.016830
21
0.015868
31
0.0
0
LINE
8
0
6
CONTINUOUS
10
0.019583
20
0.015868
30
0.0
11
0.016830
21
0.015868
31
0.0
0
LINE
8
0
6
CONTINUOUS
10
0.021924
20
0.015868
30
0.0
11
0.019583
21
0.015868
31
0.0
0
LINE
8
0
6
CONTINUOUS
10
0.010903
20
0.015868
30
0.0
11
0.008121
21
0.015868
31
0.0
0
LINE
8
0
6
CONTINUOUS
10
0.008121
20
0.015868
30
0.0
11
0.005756
21
0.015868
31
0.0
0
LINE
8
0
6
CONTINUOUS
10
0.006113
20
0.015868
30
0.0
11
0.004340
21
0.015868
31
0.0
0
LINE
8
0
6
CONTINUOUS
10
0.005756
20
0.015868
30
0.0
11
0.003909
21
0.015868
31
0.0
0
LINE
8
0
6
CONTINUOUS
10
0.023759
20
0.015868
30
0.0
11
0.023328
21
0.015868
31
0.0
0
LINE
8
0
6
CONTINUOUS
10
0.023759
20
0.015868
30
0.0
11
0.021924
21
0.015868
31
0.0
0
LINE
8
0
6
CONTINUOUS
10
0.025003
20
0.015868
30
0.0
11
0.023759
21
0.015868
31
0.0
0
LINE
8
0
6
CONTINUOUS
10
0.016830
20
0.015868
30
0.0
11
0.013857
21
0.015868
31
0.0
0
LINE
8
0
6
CONTINUOUS
10
0.025205
20
0.015868
30
0.0
11
0.025003
21
0.015868
31
0.0
0
LINE
8
0
6
CONTINUOUS
10
0.025189
20
0.015368
30
0.0
11
0.025205
21
0.015868
31
0.0
0
LINE
8
0
6
CONTINUOUS
10
0.013857
20
0.015868
30
0.0
11
0.010903
21
0.015868
31
0.0
0
LINE
8
0
6
CONTINUOUS
10
0.006055
20
0.015868
30
0.0
11
0.004306
21
0.015868
31
0.0
0
LINE
8
0
6
CONTINUOUS
10
0.013780
20
0.015868
30
0.0
11
0.006055
21
0.015868
31
0.0
0
LINE
8
0
6
CONTINUOUS
10
0.019321
20
0.015868
30
0.0
11
0.013845
21
0.015868
31
0.0
0
LINE
8
0
6
CONTINUOUS
10
0.013865
20
0.015868
30
0.0
11
0.016693
21
0.015868
31
0.0
0
LINE
8
0
6
CONTINUOUS
10
0.025484
20
0.016820
30
0.0
11
0.025652
21
0.017307
31
0.0
0
LINE
8
0
6
CONTINUOUS
10
0.001735
20
0.017537
30
0.0
11
0.001887
21
0.017045
31
0.0
0
LINE
8
0
6
CONTINUOUS
10
0.003395
20
0.018827
30
0.0
11
0.003223
21
0.019313
31
0.0
0
LINE
8
0
6
CONTINUOUS
10
0.001887
20
0.017045
30
0.0
11
0.002120
21
0.016291
31
0.0
0
LINE
8
0
6
CONTINUOUS
10
0.025299
20
0.016288
30
0.0
11
0.025484
21
0.016820
31
0.0
0
LINE
8
0
6
CONTINUOUS
10
0.012252
20
0.016016
30
0.0
11
0.015360
21
0.016016
31
0.0
0
LINE
8
0
6
CONTINUOUS
10
0.027857
20
0.020936
30
0.0
11
0.027857
21
0.023048
31
0.0
0
LINE
8
0
6
CONTINUOUS
10
0.027028
20
0.020428
30
0.0
11
0.027005
21
0.023048
31
0.0
0
LINE
8
0
6
CONTINUOUS
10
0.027857
20
0.031832
30
0.0
11
0.027857
21
0.047831
31
0.0
0
LINE
8
0
6
CONTINUOUS
10
0.021775
20
0.020748
30
0.0
11
0.024182
21
0.019313
31
0.0
0
LINE
8
0
6
CONTINUOUS
10
0.018778
20
0.021670
30
0.0
11
0.021775
21
0.020748
31
0.0
0
LINE
8
0
6
CONTINUOUS
10
0.027857
20
0.023048
30
0.0
11
0.027857
21
0.026893
31
0.0
0
LINE
8
0
6
CONTINUOUS
10
0.025652
20
0.017307
30
0.0
11
0.026269
21
0.018624
31
0.0
0
LINE
8
0
6
CONTINUOUS
10
-0.029143
20
0.036512
30
0.0
11
-0.029143
21
0.033872
31
0.0
0
LINE
8
0
6
CONTINUOUS
10
-0.029143
20
0.042144
30
0.0
11
-0.029143
21
0.036512
31
0.0
0
LINE
8
0
6
CONTINUOUS
10
-0.029143
20
0.026568
30
0.0
11
-0.029143
21
0.023048
31
0.0
0
LINE
8
0
6
CONTINUOUS
10
-0.029143
20
0.053056
30
0.0
11
-0.029143
21
0.047776
31
0.0
0
LINE
8
0
6
CONTINUOUS
10
-0.029143
20
0.061240
30
0.0
11
-0.029143
21
0.063352
31
0.0
0
LINE
8
0
6
CONTINUOUS
10
-0.029143
20
0.057720
30
0.0
11
-0.029143
21
0.061240
31
0.0
0
LINE
8
0
6
CONTINUOUS
10
-0.029143
20
0.031232
30
0.0
11
-0.029143
21
0.026568
31
0.0
0
LINE
8
0
6
CONTINUOUS
10
-0.029143
20
0.064144
30
0.0
11
-0.029143
21
0.063352
31
0.0
0
LINE
8
0
6
CONTINUOUS
10
-0.027963
20
0.064144
30
0.0
11
-0.029143
21
0.064144
31
0.0
0
LINE
8
0
6
CONTINUOUS
10
-0.029143
20
0.047776
30
0.0
11
-0.029143
21
0.042144
31
0.0
0
LINE
8
0
6
CONTINUOUS
10
-0.029143
20
0.057720
30
0.0
11
-0.029143
21
0.053056
31
0.0
0
LINE
8
0
6
CONTINUOUS
10
-0.029143
20
0.023048
30
0.0
11
-0.029143
21
0.020936
31
0.0
0
LINE
8
0
6
CONTINUOUS
10
-0.029143
20
0.033872
30
0.0
11
-0.029143
21
0.031232
31
0.0
0
LINE
8
0
6
CONTINUOUS
10
-0.029143
20
0.020144
30
0.0
11
-0.027963
21
0.020144
31
0.0
0
LINE
8
0
6
CONTINUOUS
10
-0.029143
20
0.020936
30
0.0
11
-0.029143
21
0.020144
31
0.0
0
LINE
8
0
6
CONTINUOUS
10
-0.001216
20
0.020144
30
0.0
11
0.000027
21
0.019793
31
0.0
0
LINE
8
0
6
CONTINUOUS
10
0.004664
20
0.062914
30
0.0
11
0.003697
21
0.061991
31
0.0
0
LINE
8
0
6
CONTINUOUS
10
0.006334
20
0.064001
30
0.0
11
0.004664
21
0.062914
31
0.0
0
LINE
8
0
6
CONTINUOUS
10
0.005892
20
0.064297
30
0.0
11
0.003611
21
0.064144
31
0.0
0
LINE
8
0
6
CONTINUOUS
10
0.001340
20
0.021615
30
0.0
11
0.002159
21
0.018046
31
0.0
0
LINE
8
0
6
CONTINUOUS
10
0.002159
20
0.018046
30
0.0
11
0.003223
21
0.019313
31
0.0
0
LINE
8
0
6
CONTINUOUS
10
0.000027
20
0.019793
30
0.0
11
0.001007
21
0.019233
31
0.0
0
LINE
8
0
6
CONTINUOUS
10
0.027857
20
0.026893
30
0.0
11
0.027857
21
0.028281
31
0.0
0
LINE
8
0
6
CONTINUOUS
10
0.008638
20
0.022090
30
0.0
11
0.011978
21
0.022090
31
0.0
0
LINE
8
0
6
CONTINUOUS
10
0.011837
20
0.024100
30
0.0
11
0.008048
21
0.023908
31
0.0
0
LINE
8
0
6
CONTINUOUS
10
0.025318
20
0.017816
30
0.0
11
0.025632
21
0.020964
31
0.0
0
LINE
8
0
6
CONTINUOUS
10
0.024182
20
0.019313
30
0.0
11
0.025318
21
0.017816
31
0.0
0
LINE
8
0
6
CONTINUOUS
10
0.011978
20
0.022090
30
0.0
11
0.015438
21
0.022090
31
0.0
0
LINE
8
0
6
CONTINUOUS
10
0.007937
20
0.065191
30
0.0
11
0.006334
21
0.064001
31
0.0
0
LINE
8
0
6
CONTINUOUS
10
0.027857
20
0.063829
30
0.0
11
0.027857
21
0.065130
31
0.0
0
LINE
8
0
6
CONTINUOUS
10
0.026894
20
0.065521
30
0.0
11
0.022977
21
0.067111
31
0.0
0
LINE
8
0
6
CONTINUOUS
10
0.027857
20
0.030531
30
0.0
11
0.027857
21
0.031832
31
0.0
0
LINE
8
0
6
CONTINUOUS
10
0.027124
20
0.030234
30
0.0
11
0.022977
21
0.028551
31
0.0
0
LINE
8
0
6
CONTINUOUS
10
0.027857
20
0.028281
30
0.0
11
0.027857
21
0.029989
31
0.0
0
LINE
8
0
6
CONTINUOUS
10
-0.027963
20
0.020144
30
0.0
11
-0.002548
21
0.020144
31
0.0
0
LINE
8
0
6
CONTINUOUS
10
-0.010797
20
0.064144
30
0.0
11
-0.027963
21
0.064144
31
0.0
0
LINE
8
0
6
CONTINUOUS
10
0.006622
20
0.064497
30
0.0
11
0.005892
21
0.064297
31
0.0
0
LINE
8
0
6
CONTINUOUS
10
0.027857
20
0.047831
30
0.0
11
0.027857
21
0.063829
31
0.0
0
LINE
8
0
6
CONTINUOUS
10
0.000497
20
0.037911
30
0.0
11
0.003697
21
0.033671
31
0.0
0
LINE
8
0
6
CONTINUOUS
10
0.003697
20
0.061991
30
0.0
11
0.000497
21
0.057751
31
0.0
0
LINE
8
0
6
CONTINUOUS
10
-0.001423
20
0.042711
30
0.0
11
0.000497
21
0.037911
31
0.0
0
LINE
8
0
6
CONTINUOUS
10
-0.001423
20
0.052951
30
0.0
11
-0.002143
21
0.047831
31
0.0
0
LINE
8
0
6
CONTINUOUS
10
0.017857
20
0.027831
30
0.0
11
0.022977
21
0.028551
31
0.0
0
LINE
8
0
6
CONTINUOUS
10
0.026894
20
0.065521
30
0.0
11
0.027857
21
0.065130
31
0.0
0
LINE
8
0
6
CONTINUOUS
10
0.003697
20
0.033671
30
0.0
11
0.007937
21
0.030471
31
0.0
0
LINE
8
0
6
CONTINUOUS
10
0.012737
20
0.028551
30
0.0
11
0.017857
21
0.027831
31
0.0
0
LINE
8
0
6
CONTINUOUS
10
0.000497
20
0.057751
30
0.0
11
-0.001423
21
0.052951
31
0.0
0
LINE
8
0
6
CONTINUOUS
10
0.007937
20
0.065191
30
0.0
11
0.003697
21
0.061991
31
0.0
0
LINE
8
0
6
CONTINUOUS
10
0.012737
20
0.067111
30
0.0
11
0.007937
21
0.065191
31
0.0
0
LINE
8
0
6
CONTINUOUS
10
0.017857
20
0.067831
30
0.0
11
0.012737
21
0.067111
31
0.0
0
LINE
8
0
6
CONTINUOUS
10
0.027124
20
0.030234
30
0.0
11
0.027857
21
0.030531
31
0.0
0
LINE
8
0
6
CONTINUOUS
10
-0.002143
20
0.047831
30
0.0
11
-0.001423
21
0.042711
31
0.0
0
LINE
8
0
6
CONTINUOUS
10
0.012737
20
0.028551
30
0.0
11
0.007937
21
0.030471
31
0.0
0
LINE
8
0
6
CONTINUOUS
10
0.022977
20
0.067111
30
0.0
11
0.017857
21
0.067831
31
0.0
0
LINE
8
0
6
CONTINUOUS
10
-0.003003
20
0.047821
30
0.0
11
-0.002273
21
0.042629
31
0.0
0
LINE
8
0
6
CONTINUOUS
10
0.002958
20
0.061878
30
0.0
11
-0.000102
21
0.058007
31
0.0
0
LINE
8
0
6
CONTINUOUS
10
0.026269
20
0.018624
30
0.0
11
0.027050
21
0.019867
31
0.0
0
LINE
8
0
6
CONTINUOUS
10
-0.002280
20
0.052966
30
0.0
11
-0.003003
21
0.047821
31
0.0
0
LINE
8
0
6
CONTINUOUS
10
-0.002273
20
0.042629
30
0.0
11
-0.000308
21
0.037719
31
0.0
0
LINE
8
0
6
CONTINUOUS
10
0.027857
20
0.020144
30
0.0
11
0.027857
21
0.020936
31
0.0
0
LINE
8
0
6
CONTINUOUS
10
0.027050
20
0.019867
30
0.0
11
0.027857
21
0.020144
31
0.0
0
LINE
8
0
6
CONTINUOUS
10
0.027028
20
0.020428
30
0.0
11
0.027050
21
0.019867
31
0.0
0
LINE
8
0
6
CONTINUOUS
10
-0.002280
20
0.052966
30
0.0
11
-0.000102
21
0.058007
31
0.0
0
LINE
8
0
6
CONTINUOUS
10
0.003223
20
0.019313
30
0.0
11
0.005649
21
0.020979
31
0.0
0
LINE
8
0
6
CONTINUOUS
10
0.001007
20
0.019233
30
0.0
11
0.001735
21
0.017537
31
0.0
0
LINE
8
0
6
CONTINUOUS
10
0.001154
20
0.019845
30
0.0
11
0.001007
21
0.019233
31
0.0
0
LINE
8
0
6
CONTINUOUS
10
-0.009465
20
0.064144
30
0.0
11
-0.010797
21
0.064144
31
0.0
0
LINE
8
0
6
CONTINUOUS
10
0.006933
20
0.030505
30
0.0
11
0.002733
21
0.033697
31
0.0
0
LINE
8
0
6
CONTINUOUS
10
0.007341
20
0.064721
30
0.0
11
0.006622
21
0.064497
31
0.0
0
LINE
8
0
6
CONTINUOUS
10
0.027113
20
0.029735
30
0.0
11
0.027857
21
0.029989
31
0.0
0
LINE
8
0
6
CONTINUOUS
10
0.027857
20
0.029989
30
0.0
11
0.027857
21
0.030531
31
0.0
0
LINE
8
0
6
CONTINUOUS
10
0.003611
20
0.064144
30
0.0
11
-0.002927
21
0.064144
31
0.0
0
LINE
8
0
6
CONTINUOUS
10
0.002733
20
0.033697
30
0.0
11
-0.000308
21
0.037719
31
0.0
0
LINE
8
0
6
CONTINUOUS
10
0.001340
20
0.021615
30
0.0
11
0.000275
21
0.022461
31
0.0
0
LINE
8
0
6
CONTINUOUS
10
0.001154
20
0.019845
30
0.0
11
0.001340
21
0.021615
31
0.0
0
LINE
8
0
6
CONTINUOUS
10
0.018360
20
0.016016
30
0.0
11
0.021052
21
0.016016
31
0.0
0
LINE
8
0
6
CONTINUOUS
10
0.021052
20
0.016016
30
0.0
11
0.023214
21
0.016016
31
0.0
0
LINE
8
0
6
CONTINUOUS
10
0.023214
20
0.016016
30
0.0
11
0.024845
21
0.016016
31
0.0
0
LINE
8
0
6
CONTINUOUS
10
0.006568
20
0.016016
30
0.0
11
0.009253
21
0.016016
31
0.0
0
LINE
8
0
6
CONTINUOUS
10
0.015360
20
0.016016
30
0.0
11
0.018360
21
0.016016
31
0.0
0
LINE
8
0
6
CONTINUOUS
10
0.025205
20
0.016016
30
0.0
11
0.025299
21
0.016288
31
0.0
0
LINE
8
0
6
CONTINUOUS
10
0.024845
20
0.016016
30
0.0
11
0.025205
21
0.016016
31
0.0
0
LINE
8
0
6
CONTINUOUS
10
0.009253
20
0.016016
30
0.0
11
0.012252
21
0.016016
31
0.0
0
LINE
8
0
6
CONTINUOUS
10
0.004389
20
0.016016
30
0.0
11
0.006568
21
0.016016
31
0.0
0
LINE
8
0
6
CONTINUOUS
10
0.002205
20
0.016016
30
0.0
11
0.002843
21
0.016016
31
0.0
0
LINE
8
0
6
CONTINUOUS
10
0.002120
20
0.016291
30
0.0
11
0.002205
21
0.016016
31
0.0
0
LINE
8
0
6
CONTINUOUS
10
0.002843
20
0.016016
30
0.0
11
0.004389
21
0.016016
31
0.0
0
LINE
8
0
6
CONTINUOUS
10
0.022902
20
0.028294
30
0.0
11
0.027082
21
0.028145
31
0.0
0
LINE
8
0
6
CONTINUOUS
10
0.027113
20
0.029735
30
0.0
11
0.022902
21
0.028294
31
0.0
0
LINE
8
0
6
CONTINUOUS
10
0.015438
20
0.022090
30
0.0
11
0.018778
21
0.021670
31
0.0
0
LINE
8
0
6
CONTINUOUS
10
0.008048
20
0.023908
30
0.0
11
0.004364
21
0.022843
31
0.0
0
LINE
8
0
6
CONTINUOUS
10
0.005649
20
0.020979
30
0.0
11
0.008638
21
0.022090
31
0.0
0
LINE
8
0
6
CONTINUOUS
10
-0.002548
20
0.020144
30
0.0
11
-0.001216
21
0.020144
31
0.0
0
LINE
8
0
6
CONTINUOUS
10
-0.002927
20
0.064144
30
0.0
11
-0.009465
21
0.064144
31
0.0
0
ENDSEC
0
EOF
