999
Erzeugt mit innoplus bad 
0
SECTION
2
HEADER
9
$ACADVER
1
AC1009
9
$DWGCODEPAGE
3
ISO8859-1
0
ENDSEC
0
SECTION
2
TABLES
0
TABLE
2
LAYER
70
1
0
LAYER
2
0
70
0
62
7
6
CONTINUOUS
0
ENDTAB
0
ENDSEC
0
SECTION
2
ENTITIES
0
LINE
8
0
6
CONTINUOUS
10
0.178031
20
0.014131
30
0.0
11
0.181137
21
0.012746
31
0.0
0
LINE
8
0
6
CONTINUOUS
10
0.175928
20
0.023977
30
0.0
11
0.178031
21
0.014131
31
0.0
0
LINE
8
0
6
CONTINUOUS
10
0.156279
20
0.043718
30
0.0
11
0.157972
21
0.042606
31
0.0
0
LINE
8
0
6
CONTINUOUS
10
0.157972
20
0.042606
30
0.0
11
0.159662
21
0.041496
31
0.0
0
LINE
8
0
6
CONTINUOUS
10
0.159662
20
0.041496
30
0.0
11
0.161352
21
0.040386
31
0.0
0
LINE
8
0
6
CONTINUOUS
10
0.141099
20
0.058014
30
0.0
11
0.147573
21
0.050181
31
0.0
0
LINE
8
0
6
CONTINUOUS
10
0.176357
20
0.104124
30
0.0
11
0.163627
21
0.100821
31
0.0
0
LINE
8
0
6
CONTINUOUS
10
0.147573
20
0.050181
30
0.0
11
0.151691
21
0.046790
31
0.0
0
LINE
8
0
6
CONTINUOUS
10
0.189564
20
0.105210
30
0.0
11
0.176357
21
0.104124
31
0.0
0
LINE
8
0
6
CONTINUOUS
10
0.169456
20
0.034967
30
0.0
11
0.172437
21
0.031792
31
0.0
0
LINE
8
0
6
CONTINUOUS
10
0.166532
20
0.036839
30
0.0
11
0.169456
21
0.034967
31
0.0
0
LINE
8
0
6
CONTINUOUS
10
0.181137
20
0.012746
30
0.0
11
0.185358
21
0.011805
31
0.0
0
LINE
8
0
6
CONTINUOUS
10
0.137873
20
0.066848
30
0.0
11
0.141099
21
0.058014
31
0.0
0
LINE
8
0
6
CONTINUOUS
10
0.163627
20
0.100821
30
0.0
11
0.152442
21
0.095134
31
0.0
0
LINE
8
0
6
CONTINUOUS
10
0.172437
20
0.031792
30
0.0
11
0.175928
21
0.023977
31
0.0
0
LINE
8
0
6
CONTINUOUS
10
0.185358
20
0.011805
30
0.0
11
0.189564
21
0.011619
31
0.0
0
LINE
8
0
6
CONTINUOUS
10
0.141671
20
0.084802
30
0.0
11
0.138137
21
0.075854
31
0.0
0
LINE
8
0
6
CONTINUOUS
10
0.138137
20
0.075854
30
0.0
11
0.137873
21
0.066848
31
0.0
0
LINE
8
0
6
CONTINUOUS
10
0.151691
20
0.046790
30
0.0
11
0.156279
21
0.043718
31
0.0
0
LINE
8
0
6
CONTINUOUS
10
0.161352
20
0.040386
30
0.0
11
0.166532
21
0.036839
31
0.0
0
LINE
8
0
6
CONTINUOUS
10
0.146297
20
0.090316
30
0.0
11
0.141671
21
0.084802
31
0.0
0
LINE
8
0
6
CONTINUOUS
10
0.152442
20
0.095134
30
0.0
11
0.146297
21
0.090316
31
0.0
0
LINE
8
0
6
CONTINUOUS
10
0.201096
20
0.014131
30
0.0
11
0.203199
21
0.023977
31
0.0
0
LINE
8
0
6
CONTINUOUS
10
0.197990
20
0.012746
30
0.0
11
0.201096
21
0.014131
31
0.0
0
LINE
8
0
6
CONTINUOUS
10
0.217775
20
0.040386
30
0.0
11
0.222848
21
0.043718
31
0.0
0
LINE
8
0
6
CONTINUOUS
10
0.231554
20
0.050181
30
0.0
11
0.238028
21
0.058014
31
0.0
0
LINE
8
0
6
CONTINUOUS
10
0.215500
20
0.100821
30
0.0
11
0.202770
21
0.104124
31
0.0
0
LINE
8
0
6
CONTINUOUS
10
0.227437
20
0.046790
30
0.0
11
0.231554
21
0.050181
31
0.0
0
LINE
8
0
6
CONTINUOUS
10
0.202770
20
0.104124
30
0.0
11
0.189564
21
0.105210
31
0.0
0
LINE
8
0
6
CONTINUOUS
10
0.206690
20
0.031792
30
0.0
11
0.209672
21
0.034967
31
0.0
0
LINE
8
0
6
CONTINUOUS
10
0.209672
20
0.034967
30
0.0
11
0.212595
21
0.036839
31
0.0
0
LINE
8
0
6
CONTINUOUS
10
0.193770
20
0.011805
30
0.0
11
0.197990
21
0.012746
31
0.0
0
LINE
8
0
6
CONTINUOUS
10
0.238028
20
0.058014
30
0.0
11
0.241255
21
0.066848
31
0.0
0
LINE
8
0
6
CONTINUOUS
10
0.226685
20
0.095134
30
0.0
11
0.215500
21
0.100821
31
0.0
0
LINE
8
0
6
CONTINUOUS
10
0.203199
20
0.023977
30
0.0
11
0.206690
21
0.031792
31
0.0
0
LINE
8
0
6
CONTINUOUS
10
0.189564
20
0.011619
30
0.0
11
0.193770
21
0.011805
31
0.0
0
LINE
8
0
6
CONTINUOUS
10
0.240990
20
0.075854
30
0.0
11
0.237456
21
0.084802
31
0.0
0
LINE
8
0
6
CONTINUOUS
10
0.241255
20
0.066848
30
0.0
11
0.240990
21
0.075854
31
0.0
0
LINE
8
0
6
CONTINUOUS
10
0.222848
20
0.043718
30
0.0
11
0.227437
21
0.046790
31
0.0
0
LINE
8
0
6
CONTINUOUS
10
0.212595
20
0.036839
30
0.0
11
0.217775
21
0.040386
31
0.0
0
LINE
8
0
6
CONTINUOUS
10
0.232831
20
0.090316
30
0.0
11
0.226685
21
0.095134
31
0.0
0
LINE
8
0
6
CONTINUOUS
10
0.237456
20
0.084802
30
0.0
11
0.232831
21
0.090316
31
0.0
0
LINE
8
0
6
CONTINUOUS
10
0.169456
20
0.034967
30
0.0
11
0.166532
21
0.036839
31
0.0
0
LINE
8
0
6
CONTINUOUS
10
0.172437
20
0.031792
30
0.0
11
0.169456
21
0.034967
31
0.0
0
LINE
8
0
6
CONTINUOUS
10
0.138137
20
0.075854
30
0.0
11
0.141671
21
0.084802
31
0.0
0
LINE
8
0
6
CONTINUOUS
10
0.141671
20
0.084802
30
0.0
11
0.146297
21
0.090316
31
0.0
0
LINE
8
0
6
CONTINUOUS
10
0.147573
20
0.050181
30
0.0
11
0.141099
21
0.058014
31
0.0
0
LINE
8
0
6
CONTINUOUS
10
0.140332
20
0.058020
30
0.0
11
0.146976
21
0.050142
31
0.0
0
LINE
8
0
6
CONTINUOUS
10
0.176357
20
0.104124
30
0.0
11
0.189564
21
0.105210
31
0.0
0
LINE
8
0
6
CONTINUOUS
10
0.163627
20
0.100821
30
0.0
11
0.176357
21
0.104124
31
0.0
0
LINE
8
0
6
CONTINUOUS
10
0.146297
20
0.090316
30
0.0
11
0.152442
21
0.095133
31
0.0
0
LINE
8
0
6
CONTINUOUS
10
0.151691
20
0.046790
30
0.0
11
0.147573
21
0.050181
31
0.0
0
LINE
8
0
6
CONTINUOUS
10
0.146976
20
0.050142
30
0.0
11
0.151189
21
0.046763
31
0.0
0
LINE
8
0
6
CONTINUOUS
10
0.185358
20
0.011805
30
0.0
11
0.181137
21
0.012746
31
0.0
0
LINE
8
0
6
CONTINUOUS
10
0.152442
20
0.095133
30
0.0
11
0.163627
21
0.100821
31
0.0
0
LINE
8
0
6
CONTINUOUS
10
0.176758
20
-0.073950
30
0.0
11
0.176765
21
-0.074085
31
0.0
0
LINE
8
0
6
CONTINUOUS
10
0.176765
20
-0.074085
30
0.0
11
0.176966
21
-0.075827
31
0.0
0
LINE
8
0
6
CONTINUOUS
10
0.178825
20
-0.078072
30
0.0
11
0.179139
21
-0.078364
31
0.0
0
LINE
8
0
6
CONTINUOUS
10
0.176966
20
-0.075827
30
0.0
11
0.177431
21
-0.076525
31
0.0
0
LINE
8
0
6
CONTINUOUS
10
0.177880
20
-0.077198
30
0.0
11
0.178510
21
-0.077781
31
0.0
0
LINE
8
0
6
CONTINUOUS
10
0.177431
20
-0.076525
30
0.0
11
0.177880
21
-0.077198
31
0.0
0
LINE
8
0
6
CONTINUOUS
10
0.181040
20
-0.079350
30
0.0
11
0.179139
21
-0.078364
31
0.0
0
LINE
8
0
6
CONTINUOUS
10
0.179426
20
-0.078584
30
0.0
11
0.181275
21
-0.079545
31
0.0
0
LINE
8
0
6
CONTINUOUS
10
0.179139
20
-0.078364
30
0.0
11
0.179426
21
-0.078584
31
0.0
0
LINE
8
0
6
CONTINUOUS
10
0.183518
20
-0.080106
30
0.0
11
0.181040
21
-0.079350
31
0.0
0
LINE
8
0
6
CONTINUOUS
10
0.181275
20
-0.079545
30
0.0
11
0.183682
21
-0.080282
31
0.0
0
LINE
8
0
6
CONTINUOUS
10
0.186416
20
-0.080581
30
0.0
11
0.183518
21
-0.080106
31
0.0
0
LINE
8
0
6
CONTINUOUS
10
0.183682
20
-0.080282
30
0.0
11
0.186500
21
-0.080745
31
0.0
0
LINE
8
0
6
CONTINUOUS
10
0.189564
20
-0.080743
30
0.0
11
0.186416
21
-0.080581
31
0.0
0
LINE
8
0
6
CONTINUOUS
10
0.186500
20
-0.080745
30
0.0
11
0.189564
21
-0.080903
31
0.0
0
LINE
8
0
6
CONTINUOUS
10
0.136667
20
0.068089
30
0.0
11
0.136691
21
0.067917
31
0.0
0
LINE
8
0
6
CONTINUOUS
10
0.178510
20
-0.077781
30
0.0
11
0.178825
21
-0.078072
31
0.0
0
LINE
8
0
6
CONTINUOUS
10
0.171395
20
0.027395
30
0.0
11
0.172279
21
0.016197
31
0.0
0
LINE
8
0
6
CONTINUOUS
10
0.139549
20
0.096741
30
0.0
11
0.135774
21
0.087627
31
0.0
0
LINE
8
0
6
CONTINUOUS
10
0.141099
20
0.058014
30
0.0
11
0.137873
21
0.066848
31
0.0
0
LINE
8
0
6
CONTINUOUS
10
0.137056
20
0.066838
30
0.0
11
0.140332
21
0.058020
31
0.0
0
LINE
8
0
6
CONTINUOUS
10
0.189564
20
0.119000
30
0.0
11
0.176501
21
0.118027
31
0.0
0
LINE
8
0
6
CONTINUOUS
10
0.156279
20
0.043717
30
0.0
11
0.151691
21
0.046790
31
0.0
0
LINE
8
0
6
CONTINUOUS
10
0.151189
20
0.046763
30
0.0
11
0.155837
21
0.043722
31
0.0
0
LINE
8
0
6
CONTINUOUS
10
0.161352
20
0.040386
30
0.0
11
0.159661
21
0.041497
31
0.0
0
LINE
8
0
6
CONTINUOUS
10
0.159279
20
0.041534
30
0.0
11
0.161000
21
0.040440
31
0.0
0
LINE
8
0
6
CONTINUOUS
10
0.163607
20
0.101379
30
0.0
11
0.176356
21
0.104721
31
0.0
0
LINE
8
0
6
CONTINUOUS
10
0.159661
20
0.041497
30
0.0
11
0.157970
21
0.042607
31
0.0
0
LINE
8
0
6
CONTINUOUS
10
0.157558
20
0.042628
30
0.0
11
0.159279
21
0.041534
31
0.0
0
LINE
8
0
6
CONTINUOUS
10
0.175562
20
-0.007129
30
0.0
11
0.176892
21
-0.032058
31
0.0
0
LINE
8
0
6
CONTINUOUS
10
0.165683
20
0.036899
30
0.0
11
0.169603
21
0.032056
31
0.0
0
LINE
8
0
6
CONTINUOUS
10
0.144556
20
0.102904
30
0.0
11
0.139549
21
0.096741
31
0.0
0
LINE
8
0
6
CONTINUOUS
10
0.169347
20
0.032373
30
0.0
11
0.171729
21
0.026585
31
0.0
0
LINE
8
0
6
CONTINUOUS
10
0.174415
20
-0.027034
30
0.0
11
0.176027
21
-0.059048
31
0.0
0
LINE
8
0
6
CONTINUOUS
10
0.135691
20
0.078085
30
0.0
11
0.135719
21
0.077637
31
0.0
0
LINE
8
0
6
CONTINUOUS
10
0.135774
20
0.087627
30
0.0
11
0.135691
21
0.078085
31
0.0
0
LINE
8
0
6
CONTINUOUS
10
0.136024
20
0.072751
30
0.0
11
0.136667
21
0.068089
31
0.0
0
LINE
8
0
6
CONTINUOUS
10
0.165528
20
0.036544
30
0.0
11
0.169214
21
0.032696
31
0.0
0
LINE
8
0
6
CONTINUOUS
10
0.144556
20
0.102904
30
0.0
11
0.151412
21
0.108374
31
0.0
0
LINE
8
0
6
CONTINUOUS
10
0.145093
20
0.103396
30
0.0
11
0.144556
21
0.102904
31
0.0
0
LINE
8
0
6
CONTINUOUS
10
0.174290
20
0.012786
30
0.0
11
0.172884
21
0.024890
31
0.0
0
LINE
8
0
6
CONTINUOUS
10
0.161000
20
0.040440
30
0.0
11
0.165528
21
0.036544
31
0.0
0
LINE
8
0
6
CONTINUOUS
10
0.137873
20
0.066848
30
0.0
11
0.138137
21
0.075854
31
0.0
0
LINE
8
0
6
CONTINUOUS
10
0.135719
20
0.077637
30
0.0
11
0.136024
21
0.072751
31
0.0
0
LINE
8
0
6
CONTINUOUS
10
0.172149
20
0.017866
30
0.0
11
0.173161
21
-0.002230
31
0.0
0
LINE
8
0
6
CONTINUOUS
10
0.166532
20
0.036839
30
0.0
11
0.161352
21
0.040386
31
0.0
0
LINE
8
0
6
CONTINUOUS
10
0.175672
20
0.117485
30
0.0
11
0.189564
21
0.118721
31
0.0
0
LINE
8
0
6
CONTINUOUS
10
0.173161
20
-0.002230
30
0.0
11
0.174415
21
-0.027034
31
0.0
0
LINE
8
0
6
CONTINUOUS
10
0.151412
20
0.108374
30
0.0
11
0.162939
21
0.114168
31
0.0
0
LINE
8
0
6
CONTINUOUS
10
0.169603
20
0.032056
30
0.0
11
0.172884
21
0.024890
31
0.0
0
LINE
8
0
6
CONTINUOUS
10
0.176501
20
0.118027
30
0.0
11
0.164132
21
0.114926
31
0.0
0
LINE
8
0
6
CONTINUOUS
10
0.181137
20
0.012746
30
0.0
11
0.178031
21
0.014131
31
0.0
0
LINE
8
0
6
CONTINUOUS
10
0.152900
20
0.109568
30
0.0
11
0.145629
21
0.103888
31
0.0
0
LINE
8
0
6
CONTINUOUS
10
0.145629
20
0.103888
30
0.0
11
0.145093
21
0.103396
31
0.0
0
LINE
8
0
6
CONTINUOUS
10
0.179464
20
-0.033101
30
0.0
11
0.180486
21
-0.064785
31
0.0
0
LINE
8
0
6
CONTINUOUS
10
0.137056
20
0.066838
30
0.0
11
0.137332
21
0.075805
31
0.0
0
LINE
8
0
6
CONTINUOUS
10
0.136691
20
0.067917
30
0.0
11
0.137056
21
0.066838
31
0.0
0
LINE
8
0
6
CONTINUOUS
10
0.140976
20
0.084659
30
0.0
11
0.145877
21
0.090502
31
0.0
0
LINE
8
0
6
CONTINUOUS
10
0.176356
20
0.104721
30
0.0
11
0.189564
21
0.105831
31
0.0
0
LINE
8
0
6
CONTINUOUS
10
0.145877
20
0.090502
30
0.0
11
0.152389
21
0.095597
31
0.0
0
LINE
8
0
6
CONTINUOUS
10
0.176027
20
-0.059048
30
0.0
11
0.176758
21
-0.073950
31
0.0
0
LINE
8
0
6
CONTINUOUS
10
0.175928
20
0.023977
30
0.0
11
0.172437
21
0.031792
31
0.0
0
LINE
8
0
6
CONTINUOUS
10
0.178441
20
-0.008208
30
0.0
11
0.177513
21
0.011870
31
0.0
0
LINE
8
0
6
CONTINUOUS
10
0.174290
20
0.012786
30
0.0
11
0.175562
21
-0.007129
31
0.0
0
LINE
8
0
6
CONTINUOUS
10
0.164132
20
0.114926
30
0.0
11
0.152900
21
0.109568
31
0.0
0
LINE
8
0
6
CONTINUOUS
10
0.178031
20
0.014131
30
0.0
11
0.175928
21
0.023977
31
0.0
0
LINE
8
0
6
CONTINUOUS
10
0.157970
20
0.042607
30
0.0
11
0.156279
21
0.043717
31
0.0
0
LINE
8
0
6
CONTINUOUS
10
0.155837
20
0.043722
30
0.0
11
0.157558
21
0.042628
31
0.0
0
LINE
8
0
6
CONTINUOUS
10
0.178441
20
-0.008208
30
0.0
11
0.179464
21
-0.033101
31
0.0
0
LINE
8
0
6
CONTINUOUS
10
0.152389
20
0.095597
30
0.0
11
0.163607
21
0.101379
31
0.0
0
LINE
8
0
6
CONTINUOUS
10
0.162939
20
0.114168
30
0.0
11
0.175672
21
0.117485
31
0.0
0
LINE
8
0
6
CONTINUOUS
10
0.137332
20
0.075805
30
0.0
11
0.140976
21
0.084659
31
0.0
0
LINE
8
0
6
CONTINUOUS
10
0.209672
20
0.034967
30
0.0
11
0.206690
21
0.031792
31
0.0
0
LINE
8
0
6
CONTINUOUS
10
0.212595
20
0.036839
30
0.0
11
0.209672
21
0.034967
31
0.0
0
LINE
8
0
6
CONTINUOUS
10
0.237456
20
0.084802
30
0.0
11
0.240990
21
0.075854
31
0.0
0
LINE
8
0
6
CONTINUOUS
10
0.232831
20
0.090316
30
0.0
11
0.237456
21
0.084802
31
0.0
0
LINE
8
0
6
CONTINUOUS
10
0.232151
20
0.050142
30
0.0
11
0.238795
21
0.058020
31
0.0
0
LINE
8
0
6
CONTINUOUS
10
0.238028
20
0.058014
30
0.0
11
0.231554
21
0.050181
31
0.0
0
LINE
8
0
6
CONTINUOUS
10
0.189564
20
0.105210
30
0.0
11
0.202770
21
0.104124
31
0.0
0
LINE
8
0
6
CONTINUOUS
10
0.202770
20
0.104124
30
0.0
11
0.215500
21
0.100821
31
0.0
0
LINE
8
0
6
CONTINUOUS
10
0.226685
20
0.095133
30
0.0
11
0.232831
21
0.090316
31
0.0
0
LINE
8
0
6
CONTINUOUS
10
0.227938
20
0.046763
30
0.0
11
0.232151
21
0.050142
31
0.0
0
LINE
8
0
6
CONTINUOUS
10
0.231554
20
0.050181
30
0.0
11
0.227437
21
0.046790
31
0.0
0
LINE
8
0
6
CONTINUOUS
10
0.197990
20
0.012746
30
0.0
11
0.193770
21
0.011805
31
0.0
0
LINE
8
0
6
CONTINUOUS
10
0.215500
20
0.100821
30
0.0
11
0.226685
21
0.095133
31
0.0
0
LINE
8
0
6
CONTINUOUS
10
0.202161
20
-0.075827
30
0.0
11
0.202363
21
-0.074085
31
0.0
0
LINE
8
0
6
CONTINUOUS
10
0.202363
20
-0.074085
30
0.0
11
0.202369
21
-0.073950
31
0.0
0
LINE
8
0
6
CONTINUOUS
10
0.199988
20
-0.078364
30
0.0
11
0.200302
21
-0.078072
31
0.0
0
LINE
8
0
6
CONTINUOUS
10
0.201696
20
-0.076525
30
0.0
11
0.202161
21
-0.075827
31
0.0
0
LINE
8
0
6
CONTINUOUS
10
0.200617
20
-0.077781
30
0.0
11
0.201247
21
-0.077198
31
0.0
0
LINE
8
0
6
CONTINUOUS
10
0.201247
20
-0.077198
30
0.0
11
0.201696
21
-0.076525
31
0.0
0
LINE
8
0
6
CONTINUOUS
10
0.199701
20
-0.078584
30
0.0
11
0.199988
21
-0.078364
31
0.0
0
LINE
8
0
6
CONTINUOUS
10
0.197852
20
-0.079545
30
0.0
11
0.199701
21
-0.078584
31
0.0
0
LINE
8
0
6
CONTINUOUS
10
0.199988
20
-0.078364
30
0.0
11
0.198087
21
-0.079350
31
0.0
0
LINE
8
0
6
CONTINUOUS
10
0.195445
20
-0.080282
30
0.0
11
0.197852
21
-0.079545
31
0.0
0
LINE
8
0
6
CONTINUOUS
10
0.198087
20
-0.079350
30
0.0
11
0.195610
21
-0.080106
31
0.0
0
LINE
8
0
6
CONTINUOUS
10
0.192627
20
-0.080745
30
0.0
11
0.195445
21
-0.080282
31
0.0
0
LINE
8
0
6
CONTINUOUS
10
0.195610
20
-0.080106
30
0.0
11
0.192711
21
-0.080581
31
0.0
0
LINE
8
0
6
CONTINUOUS
10
0.189564
20
-0.080903
30
0.0
11
0.192627
21
-0.080745
31
0.0
0
LINE
8
0
6
CONTINUOUS
10
0.192711
20
-0.080581
30
0.0
11
0.189564
21
-0.080743
31
0.0
0
LINE
8
0
6
CONTINUOUS
10
0.242436
20
0.067917
30
0.0
11
0.242460
21
0.068089
31
0.0
0
LINE
8
0
6
CONTINUOUS
10
0.200302
20
-0.078072
30
0.0
11
0.200617
21
-0.077781
31
0.0
0
LINE
8
0
6
CONTINUOUS
10
0.206848
20
0.016197
30
0.0
11
0.207732
21
0.027395
31
0.0
0
LINE
8
0
6
CONTINUOUS
10
0.243353
20
0.087627
30
0.0
11
0.239578
21
0.096741
31
0.0
0
LINE
8
0
6
CONTINUOUS
10
0.238795
20
0.058020
30
0.0
11
0.242071
21
0.066838
31
0.0
0
LINE
8
0
6
CONTINUOUS
10
0.241255
20
0.066848
30
0.0
11
0.238028
21
0.058014
31
0.0
0
LINE
8
0
6
CONTINUOUS
10
0.202626
20
0.118027
30
0.0
11
0.189564
21
0.119000
31
0.0
0
LINE
8
0
6
CONTINUOUS
10
0.223290
20
0.043722
30
0.0
11
0.227938
21
0.046763
31
0.0
0
LINE
8
0
6
CONTINUOUS
10
0.227437
20
0.046790
30
0.0
11
0.222848
21
0.043717
31
0.0
0
LINE
8
0
6
CONTINUOUS
10
0.218128
20
0.040440
30
0.0
11
0.219848
21
0.041534
31
0.0
0
LINE
8
0
6
CONTINUOUS
10
0.219466
20
0.041497
30
0.0
11
0.217775
21
0.040386
31
0.0
0
LINE
8
0
6
CONTINUOUS
10
0.202771
20
0.104721
30
0.0
11
0.215521
21
0.101379
31
0.0
0
LINE
8
0
6
CONTINUOUS
10
0.219848
20
0.041534
30
0.0
11
0.221569
21
0.042628
31
0.0
0
LINE
8
0
6
CONTINUOUS
10
0.221157
20
0.042607
30
0.0
11
0.219466
21
0.041497
31
0.0
0
LINE
8
0
6
CONTINUOUS
10
0.202235
20
-0.032058
30
0.0
11
0.203565
21
-0.007129
31
0.0
0
LINE
8
0
6
CONTINUOUS
10
0.209524
20
0.032056
30
0.0
11
0.213444
21
0.036899
31
0.0
0
LINE
8
0
6
CONTINUOUS
10
0.239578
20
0.096741
30
0.0
11
0.234571
21
0.102904
31
0.0
0
LINE
8
0
6
CONTINUOUS
10
0.207399
20
0.026585
30
0.0
11
0.209781
21
0.032373
31
0.0
0
LINE
8
0
6
CONTINUOUS
10
0.203100
20
-0.059048
30
0.0
11
0.204712
21
-0.027034
31
0.0
0
LINE
8
0
6
CONTINUOUS
10
0.243436
20
0.078085
30
0.0
11
0.243353
21
0.087627
31
0.0
0
LINE
8
0
6
CONTINUOUS
10
0.243408
20
0.077637
30
0.0
11
0.243436
21
0.078085
31
0.0
0
LINE
8
0
6
CONTINUOUS
10
0.242460
20
0.068089
30
0.0
11
0.243103
21
0.072751
31
0.0
0
LINE
8
0
6
CONTINUOUS
10
0.209914
20
0.032696
30
0.0
11
0.213600
21
0.036544
31
0.0
0
LINE
8
0
6
CONTINUOUS
10
0.234571
20
0.102904
30
0.0
11
0.234035
21
0.103396
31
0.0
0
LINE
8
0
6
CONTINUOUS
10
0.227715
20
0.108374
30
0.0
11
0.234571
21
0.102904
31
0.0
0
LINE
8
0
6
CONTINUOUS
10
0.206243
20
0.024890
30
0.0
11
0.204837
21
0.012786
31
0.0
0
LINE
8
0
6
CONTINUOUS
10
0.213600
20
0.036544
30
0.0
11
0.218128
21
0.040440
31
0.0
0
LINE
8
0
6
CONTINUOUS
10
0.240990
20
0.075854
30
0.0
11
0.241255
21
0.066848
31
0.0
0
LINE
8
0
6
CONTINUOUS
10
0.243103
20
0.072751
30
0.0
11
0.243408
21
0.077637
31
0.0
0
LINE
8
0
6
CONTINUOUS
10
0.205966
20
-0.002230
30
0.0
11
0.206978
21
0.017866
31
0.0
0
LINE
8
0
6
CONTINUOUS
10
0.217775
20
0.040386
30
0.0
11
0.212595
21
0.036839
31
0.0
0
LINE
8
0
6
CONTINUOUS
10
0.189564
20
0.118721
30
0.0
11
0.203455
21
0.117485
31
0.0
0
LINE
8
0
6
CONTINUOUS
10
0.204712
20
-0.027034
30
0.0
11
0.205966
21
-0.002230
31
0.0
0
LINE
8
0
6
CONTINUOUS
10
0.216189
20
0.114168
30
0.0
11
0.227715
21
0.108374
31
0.0
0
LINE
8
0
6
CONTINUOUS
10
0.206243
20
0.024890
30
0.0
11
0.209524
21
0.032056
31
0.0
0
LINE
8
0
6
CONTINUOUS
10
0.214995
20
0.114926
30
0.0
11
0.202626
21
0.118027
31
0.0
0
LINE
8
0
6
CONTINUOUS
10
0.201096
20
0.014131
30
0.0
11
0.197990
21
0.012746
31
0.0
0
LINE
8
0
6
CONTINUOUS
10
0.234035
20
0.103396
30
0.0
11
0.233498
21
0.103888
31
0.0
0
LINE
8
0
6
CONTINUOUS
10
0.233498
20
0.103888
30
0.0
11
0.226227
21
0.109568
31
0.0
0
LINE
8
0
6
CONTINUOUS
10
0.198641
20
-0.064785
30
0.0
11
0.199664
21
-0.033101
31
0.0
0
LINE
8
0
6
CONTINUOUS
10
0.242071
20
0.066838
30
0.0
11
0.242436
21
0.067917
31
0.0
0
LINE
8
0
6
CONTINUOUS
10
0.241795
20
0.075805
30
0.0
11
0.242071
21
0.066838
31
0.0
0
LINE
8
0
6
CONTINUOUS
10
0.233250
20
0.090502
30
0.0
11
0.238151
21
0.084659
31
0.0
0
LINE
8
0
6
CONTINUOUS
10
0.189564
20
0.105831
30
0.0
11
0.202771
21
0.104721
31
0.0
0
LINE
8
0
6
CONTINUOUS
10
0.226739
20
0.095597
30
0.0
11
0.233250
21
0.090502
31
0.0
0
LINE
8
0
6
CONTINUOUS
10
0.202369
20
-0.073950
30
0.0
11
0.203100
21
-0.059048
31
0.0
0
LINE
8
0
6
CONTINUOUS
10
0.206690
20
0.031792
30
0.0
11
0.203199
21
0.023977
31
0.0
0
LINE
8
0
6
CONTINUOUS
10
0.203565
20
-0.007129
30
0.0
11
0.204837
21
0.012786
31
0.0
0
LINE
8
0
6
CONTINUOUS
10
0.201614
20
0.011870
30
0.0
11
0.200686
21
-0.008208
31
0.0
0
LINE
8
0
6
CONTINUOUS
10
0.226227
20
0.109568
30
0.0
11
0.214995
21
0.114926
31
0.0
0
LINE
8
0
6
CONTINUOUS
10
0.203199
20
0.023977
30
0.0
11
0.201096
21
0.014131
31
0.0
0
LINE
8
0
6
CONTINUOUS
10
0.221569
20
0.042628
30
0.0
11
0.223290
21
0.043722
31
0.0
0
LINE
8
0
6
CONTINUOUS
10
0.222848
20
0.043717
30
0.0
11
0.221157
21
0.042607
31
0.0
0
LINE
8
0
6
CONTINUOUS
10
0.199664
20
-0.033101
30
0.0
11
0.200686
21
-0.008208
31
0.0
0
LINE
8
0
6
CONTINUOUS
10
0.215521
20
0.101379
30
0.0
11
0.226739
21
0.095597
31
0.0
0
LINE
8
0
6
CONTINUOUS
10
0.203455
20
0.117485
30
0.0
11
0.216189
21
0.114168
31
0.0
0
LINE
8
0
6
CONTINUOUS
10
0.238151
20
0.084659
30
0.0
11
0.241795
21
0.075805
31
0.0
0
LINE
8
0
6
CONTINUOUS
10
0.189247
20
0.044923
30
0.0
11
0.184973
21
0.045118
31
0.0
0
LINE
8
0
6
CONTINUOUS
10
0.184973
20
0.045118
30
0.0
11
0.180873
21
0.045684
31
0.0
0
LINE
8
0
6
CONTINUOUS
10
0.180873
20
0.045684
30
0.0
11
0.176986
21
0.046597
31
0.0
0
LINE
8
0
6
CONTINUOUS
10
0.176986
20
0.046597
30
0.0
11
0.173348
21
0.047831
31
0.0
0
LINE
8
0
6
CONTINUOUS
10
0.169292
20
0.049499
30
0.0
11
0.172765
21
0.047914
31
0.0
0
LINE
8
0
6
CONTINUOUS
10
0.173348
20
0.047831
30
0.0
11
0.169997
21
0.049360
31
0.0
0
LINE
8
0
6
CONTINUOUS
10
0.166156
20
0.051365
30
0.0
11
0.169292
21
0.049499
31
0.0
0
LINE
8
0
6
CONTINUOUS
10
0.169997
20
0.049360
30
0.0
11
0.166972
21
0.051160
31
0.0
0
LINE
8
0
6
CONTINUOUS
10
0.163396
20
0.053484
30
0.0
11
0.166156
21
0.051365
31
0.0
0
LINE
8
0
6
CONTINUOUS
10
0.166972
20
0.051160
30
0.0
11
0.164308
21
0.053204
31
0.0
0
LINE
8
0
6
CONTINUOUS
10
0.161049
20
0.055831
30
0.0
11
0.163396
21
0.053484
31
0.0
0
LINE
8
0
6
CONTINUOUS
10
0.164308
20
0.053204
30
0.0
11
0.162045
21
0.055469
31
0.0
0
LINE
8
0
6
CONTINUOUS
10
0.159156
20
0.058379
30
0.0
11
0.161049
21
0.055831
31
0.0
0
LINE
8
0
6
CONTINUOUS
10
0.162045
20
0.055469
30
0.0
11
0.160219
21
0.057927
31
0.0
0
LINE
8
0
6
CONTINUOUS
10
0.157756
20
0.061103
30
0.0
11
0.159156
21
0.058379
31
0.0
0
LINE
8
0
6
CONTINUOUS
10
0.160219
20
0.057927
30
0.0
11
0.158868
21
0.060553
31
0.0
0
LINE
8
0
6
CONTINUOUS
10
0.156887
20
0.063975
30
0.0
11
0.157756
21
0.061103
31
0.0
0
LINE
8
0
6
CONTINUOUS
10
0.158868
20
0.060553
30
0.0
11
0.158030
21
0.063324
31
0.0
0
LINE
8
0
6
CONTINUOUS
10
0.156589
20
0.066967
30
0.0
11
0.156887
21
0.063975
31
0.0
0
LINE
8
0
6
CONTINUOUS
10
0.158030
20
0.063324
30
0.0
11
0.157742
21
0.066211
31
0.0
0
LINE
8
0
6
CONTINUOUS
10
0.156887
20
0.069960
30
0.0
11
0.156589
21
0.066967
31
0.0
0
LINE
8
0
6
CONTINUOUS
10
0.157742
20
0.066211
30
0.0
11
0.158030
21
0.069099
31
0.0
0
LINE
8
0
6
CONTINUOUS
10
0.157756
20
0.072832
30
0.0
11
0.156887
21
0.069960
31
0.0
0
LINE
8
0
6
CONTINUOUS
10
0.158030
20
0.069099
30
0.0
11
0.158868
21
0.071869
31
0.0
0
LINE
8
0
6
CONTINUOUS
10
0.159156
20
0.075555
30
0.0
11
0.157756
21
0.072832
31
0.0
0
LINE
8
0
6
CONTINUOUS
10
0.158868
20
0.071869
30
0.0
11
0.160219
21
0.074496
31
0.0
0
LINE
8
0
6
CONTINUOUS
10
0.161049
20
0.078104
30
0.0
11
0.159156
21
0.075555
31
0.0
0
LINE
8
0
6
CONTINUOUS
10
0.160219
20
0.074496
30
0.0
11
0.162045
21
0.076954
31
0.0
0
LINE
8
0
6
CONTINUOUS
10
0.162045
20
0.076954
30
0.0
11
0.164308
21
0.079218
31
0.0
0
LINE
8
0
6
CONTINUOUS
10
0.164308
20
0.079218
30
0.0
11
0.166972
21
0.081263
31
0.0
0
LINE
8
0
6
CONTINUOUS
10
0.166972
20
0.081263
30
0.0
11
0.169997
21
0.083063
31
0.0
0
LINE
8
0
6
CONTINUOUS
10
0.169997
20
0.083063
30
0.0
11
0.173348
21
0.084592
31
0.0
0
LINE
8
0
6
CONTINUOUS
10
0.173348
20
0.084592
30
0.0
11
0.176986
21
0.085826
31
0.0
0
LINE
8
0
6
CONTINUOUS
10
0.176986
20
0.085826
30
0.0
11
0.180873
21
0.086739
31
0.0
0
LINE
8
0
6
CONTINUOUS
10
0.180873
20
0.086739
30
0.0
11
0.184973
21
0.087305
31
0.0
0
LINE
8
0
6
CONTINUOUS
10
0.184973
20
0.087305
30
0.0
11
0.189247
21
0.087499
31
0.0
0
LINE
8
0
6
CONTINUOUS
10
0.189247
20
0.087499
30
0.0
11
0.193521
21
0.087305
31
0.0
0
LINE
8
0
6
CONTINUOUS
10
0.193521
20
0.087305
30
0.0
11
0.197620
21
0.086739
31
0.0
0
LINE
8
0
6
CONTINUOUS
10
0.197620
20
0.086739
30
0.0
11
0.201507
21
0.085826
31
0.0
0
LINE
8
0
6
CONTINUOUS
10
0.201507
20
0.085826
30
0.0
11
0.205145
21
0.084592
31
0.0
0
LINE
8
0
6
CONTINUOUS
10
0.205145
20
0.084592
30
0.0
11
0.208496
21
0.083063
31
0.0
0
LINE
8
0
6
CONTINUOUS
10
0.208496
20
0.083063
30
0.0
11
0.211522
21
0.081263
31
0.0
0
LINE
8
0
6
CONTINUOUS
10
0.211522
20
0.081263
30
0.0
11
0.214185
21
0.079218
31
0.0
0
LINE
8
0
6
CONTINUOUS
10
0.214185
20
0.079218
30
0.0
11
0.216448
21
0.076954
31
0.0
0
LINE
8
0
6
CONTINUOUS
10
0.216448
20
0.076954
30
0.0
11
0.218274
21
0.074496
31
0.0
0
LINE
8
0
6
CONTINUOUS
10
0.220737
20
0.072832
30
0.0
11
0.219337
21
0.075555
31
0.0
0
LINE
8
0
6
CONTINUOUS
10
0.218274
20
0.074496
30
0.0
11
0.219625
21
0.071869
31
0.0
0
LINE
8
0
6
CONTINUOUS
10
0.221606
20
0.069960
30
0.0
11
0.220737
21
0.072832
31
0.0
0
LINE
8
0
6
CONTINUOUS
10
0.219625
20
0.071869
30
0.0
11
0.220463
21
0.069099
31
0.0
0
LINE
8
0
6
CONTINUOUS
10
0.221904
20
0.066967
30
0.0
11
0.221606
21
0.069960
31
0.0
0
LINE
8
0
6
CONTINUOUS
10
0.220463
20
0.069099
30
0.0
11
0.220751
21
0.066211
31
0.0
0
LINE
8
0
6
CONTINUOUS
10
0.221606
20
0.063975
30
0.0
11
0.221904
21
0.066967
31
0.0
0
LINE
8
0
6
CONTINUOUS
10
0.220751
20
0.066211
30
0.0
11
0.220463
21
0.063323
31
0.0
0
LINE
8
0
6
CONTINUOUS
10
0.220737
20
0.061103
30
0.0
11
0.221606
21
0.063975
31
0.0
0
LINE
8
0
6
CONTINUOUS
10
0.220463
20
0.063323
30
0.0
11
0.219625
21
0.060553
31
0.0
0
LINE
8
0
6
CONTINUOUS
10
0.219337
20
0.058379
30
0.0
11
0.220737
21
0.061103
31
0.0
0
LINE
8
0
6
CONTINUOUS
10
0.219625
20
0.060553
30
0.0
11
0.218274
21
0.057927
31
0.0
0
LINE
8
0
6
CONTINUOUS
10
0.217444
20
0.055831
30
0.0
11
0.219337
21
0.058379
31
0.0
0
LINE
8
0
6
CONTINUOUS
10
0.218274
20
0.057927
30
0.0
11
0.216448
21
0.055468
31
0.0
0
LINE
8
0
6
CONTINUOUS
10
0.215098
20
0.053484
30
0.0
11
0.217444
21
0.055831
31
0.0
0
LINE
8
0
6
CONTINUOUS
10
0.216448
20
0.055468
30
0.0
11
0.214185
21
0.053204
31
0.0
0
LINE
8
0
6
CONTINUOUS
10
0.212337
20
0.051365
30
0.0
11
0.215098
21
0.053484
31
0.0
0
LINE
8
0
6
CONTINUOUS
10
0.214185
20
0.053204
30
0.0
11
0.211522
21
0.051160
31
0.0
0
LINE
8
0
6
CONTINUOUS
10
0.209201
20
0.049499
30
0.0
11
0.212337
21
0.051365
31
0.0
0
LINE
8
0
6
CONTINUOUS
10
0.211522
20
0.051160
30
0.0
11
0.208527
21
0.049378
31
0.0
0
LINE
8
0
6
CONTINUOUS
10
0.205728
20
0.047914
30
0.0
11
0.209201
21
0.049499
31
0.0
0
LINE
8
0
6
CONTINUOUS
10
0.208496
20
0.049360
30
0.0
11
0.205145
21
0.047831
31
0.0
0
LINE
8
0
6
CONTINUOUS
10
0.205145
20
0.047831
30
0.0
11
0.201507
21
0.046597
31
0.0
0
LINE
8
0
6
CONTINUOUS
10
0.201507
20
0.046597
30
0.0
11
0.197620
21
0.045684
31
0.0
0
LINE
8
0
6
CONTINUOUS
10
0.197620
20
0.045684
30
0.0
11
0.193520
21
0.045118
31
0.0
0
LINE
8
0
6
CONTINUOUS
10
0.193520
20
0.045118
30
0.0
11
0.189247
21
0.044923
31
0.0
0
LINE
8
0
6
CONTINUOUS
10
0.234702
20
0.064204
30
0.0
11
0.234993
21
0.063129
31
0.0
0
LINE
8
0
6
CONTINUOUS
10
0.193935
20
0.053124
30
0.0
11
0.194226
21
0.054199
31
0.0
0
LINE
8
0
6
CONTINUOUS
10
0.193935
20
0.053835
30
0.0
11
0.193935
21
0.053124
31
0.0
0
LINE
8
0
6
CONTINUOUS
10
0.194226
20
0.054199
30
0.0
11
0.195774
21
0.054569
31
0.0
0
LINE
8
0
6
CONTINUOUS
10
0.194226
20
0.054814
30
0.0
11
0.194226
21
0.054199
31
0.0
0
LINE
8
0
6
CONTINUOUS
10
0.216571
20
0.045459
30
0.0
11
0.217828
21
0.046163
31
0.0
0
LINE
8
0
6
CONTINUOUS
10
0.216571
20
0.045991
30
0.0
11
0.216571
21
0.045459
31
0.0
0
LINE
8
0
6
CONTINUOUS
10
0.208527
20
0.047630
30
0.0
11
0.209784
21
0.048335
31
0.0
0
LINE
8
0
6
CONTINUOUS
10
0.208527
20
0.047982
30
0.0
11
0.208527
21
0.047630
31
0.0
0
LINE
8
0
6
CONTINUOUS
10
0.212176
20
0.057591
30
0.0
11
0.213725
21
0.057221
31
0.0
0
LINE
8
0
6
CONTINUOUS
10
0.213725
20
0.057221
30
0.0
11
0.214016
21
0.056146
31
0.0
0
LINE
8
0
6
CONTINUOUS
10
0.213725
20
0.058001
30
0.0
11
0.213725
21
0.057221
31
0.0
0
LINE
8
0
6
CONTINUOUS
10
0.214618
20
0.065212
30
0.0
11
0.214910
21
0.066287
31
0.0
0
LINE
8
0
6
CONTINUOUS
10
0.214618
20
0.065813
30
0.0
11
0.214618
21
0.065212
31
0.0
0
LINE
8
0
6
CONTINUOUS
10
0.202448
20
0.074081
30
0.0
11
0.202448
21
0.074821
31
0.0
0
LINE
8
0
6
CONTINUOUS
10
0.202012
20
0.075134
30
0.0
11
0.202448
21
0.074081
31
0.0
0
LINE
8
0
6
CONTINUOUS
10
0.205613
20
0.067330
30
0.0
11
0.206990
21
0.067928
31
0.0
0
LINE
8
0
6
CONTINUOUS
10
0.205613
20
0.067915
30
0.0
11
0.205613
21
0.067330
31
0.0
0
LINE
8
0
6
CONTINUOUS
10
0.206990
20
0.067928
30
0.0
11
0.208459
21
0.067436
31
0.0
0
LINE
8
0
6
CONTINUOUS
10
0.206990
20
0.068628
30
0.0
11
0.206990
21
0.067928
31
0.0
0
LINE
8
0
6
CONTINUOUS
10
0.195603
20
0.067810
30
0.0
11
0.196980
21
0.068408
31
0.0
0
LINE
8
0
6
CONTINUOUS
10
0.195603
20
0.068498
30
0.0
11
0.195603
21
0.067810
31
0.0
0
LINE
8
0
6
CONTINUOUS
10
0.231726
20
0.073382
30
0.0
11
0.232017
21
0.074457
31
0.0
0
LINE
8
0
6
CONTINUOUS
10
0.231726
20
0.073829
30
0.0
11
0.231726
21
0.073382
31
0.0
0
LINE
8
0
6
CONTINUOUS
10
0.232017
20
0.074457
30
0.0
11
0.233566
21
0.074827
31
0.0
0
LINE
8
0
6
CONTINUOUS
10
0.232017
20
0.074962
30
0.0
11
0.232017
21
0.074457
31
0.0
0
LINE
8
0
6
CONTINUOUS
10
0.234823
20
0.074122
30
0.0
11
0.234823
21
0.075142
31
0.0
0
LINE
8
0
6
CONTINUOUS
10
0.233566
20
0.074827
30
0.0
11
0.234823
21
0.074122
31
0.0
0
LINE
8
0
6
CONTINUOUS
10
0.233566
20
0.075615
30
0.0
11
0.233566
21
0.074827
31
0.0
0
LINE
8
0
6
CONTINUOUS
10
0.205984
20
0.096719
30
0.0
11
0.205984
21
0.097635
31
0.0
0
LINE
8
0
6
CONTINUOUS
10
0.204933
20
0.097559
30
0.0
11
0.205984
21
0.096719
31
0.0
0
LINE
8
0
6
CONTINUOUS
10
0.146275
20
0.074620
30
0.0
11
0.146567
21
0.073545
31
0.0
0
LINE
8
0
6
CONTINUOUS
10
0.144727
20
0.074990
30
0.0
11
0.146275
21
0.074620
31
0.0
0
LINE
8
0
6
CONTINUOUS
10
0.143470
20
0.074285
30
0.0
11
0.144727
21
0.074990
31
0.0
0
LINE
8
0
6
CONTINUOUS
10
0.143470
20
0.075295
30
0.0
11
0.143470
21
0.074285
31
0.0
0
LINE
8
0
6
CONTINUOUS
10
0.179751
20
0.066853
30
0.0
11
0.179843
21
0.067943
31
0.0
0
LINE
8
0
6
CONTINUOUS
10
0.179751
20
0.067626
30
0.0
11
0.179751
21
0.066853
31
0.0
0
LINE
8
0
6
CONTINUOUS
10
0.179843
20
0.067943
30
0.0
11
0.181313
21
0.068435
31
0.0
0
LINE
8
0
6
CONTINUOUS
10
0.179843
20
0.068710
30
0.0
11
0.179843
21
0.067943
31
0.0
0
LINE
8
0
6
CONTINUOUS
10
0.169741
20
0.066417
30
0.0
11
0.169833
21
0.067507
31
0.0
0
LINE
8
0
6
CONTINUOUS
10
0.169741
20
0.067294
30
0.0
11
0.169741
21
0.066417
31
0.0
0
LINE
8
0
6
CONTINUOUS
10
0.169833
20
0.067507
30
0.0
11
0.171302
21
0.067999
31
0.0
0
LINE
8
0
6
CONTINUOUS
10
0.169833
20
0.068355
30
0.0
11
0.169833
21
0.067507
31
0.0
0
LINE
8
0
6
CONTINUOUS
10
0.164326
20
0.074557
30
0.0
11
0.164418
21
0.075647
31
0.0
0
LINE
8
0
6
CONTINUOUS
10
0.164326
20
0.075351
30
0.0
11
0.164326
21
0.074557
31
0.0
0
LINE
8
0
6
CONTINUOUS
10
0.165887
20
0.076139
30
0.0
11
0.167264
21
0.075541
31
0.0
0
LINE
8
0
6
CONTINUOUS
10
0.164418
20
0.075647
30
0.0
11
0.165887
21
0.076139
31
0.0
0
LINE
8
0
6
CONTINUOUS
10
0.164418
20
0.076513
30
0.0
11
0.164418
21
0.075647
31
0.0
0
LINE
8
0
6
CONTINUOUS
10
0.189715
20
0.071461
30
0.0
11
0.190872
21
0.070684
31
0.0
0
LINE
8
0
6
CONTINUOUS
10
0.188123
20
0.071185
30
0.0
11
0.189715
21
0.071461
31
0.0
0
LINE
8
0
6
CONTINUOUS
10
0.175844
20
0.074115
30
0.0
11
0.176281
21
0.075168
31
0.0
0
LINE
8
0
6
CONTINUOUS
10
0.175844
20
0.074843
30
0.0
11
0.175844
21
0.074115
31
0.0
0
LINE
8
0
6
CONTINUOUS
10
0.175367
20
0.089869
30
0.0
11
0.176251
21
0.088948
31
0.0
0
LINE
8
0
6
CONTINUOUS
10
0.188254
20
0.084740
30
0.0
11
0.189876
21
0.084556
31
0.0
0
LINE
8
0
6
CONTINUOUS
10
0.154576
20
0.065021
30
0.0
11
0.154867
21
0.063947
31
0.0
0
LINE
8
0
6
CONTINUOUS
10
0.153027
20
0.065391
30
0.0
11
0.154576
21
0.065021
31
0.0
0
LINE
8
0
6
CONTINUOUS
10
0.151770
20
0.064687
30
0.0
11
0.153027
21
0.065391
31
0.0
0
LINE
8
0
6
CONTINUOUS
10
0.151770
20
0.065606
30
0.0
11
0.151770
21
0.064687
31
0.0
0
LINE
8
0
6
CONTINUOUS
10
0.175202
20
0.040403
30
0.0
11
0.175493
21
0.039329
31
0.0
0
LINE
8
0
6
CONTINUOUS
10
0.173654
20
0.040773
30
0.0
11
0.175202
21
0.040403
31
0.0
0
LINE
8
0
6
CONTINUOUS
10
0.190292
20
0.038580
30
0.0
11
0.190583
21
0.037505
31
0.0
0
LINE
8
0
6
CONTINUOUS
10
0.188744
20
0.038950
30
0.0
11
0.190292
21
0.038580
31
0.0
0
LINE
8
0
6
CONTINUOUS
10
0.159499
20
0.055459
30
0.0
11
0.159499
21
0.055932
31
0.0
0
LINE
8
0
6
CONTINUOUS
10
0.158241
20
0.056163
30
0.0
11
0.159499
21
0.055459
31
0.0
0
LINE
8
0
6
CONTINUOUS
10
0.158241
20
0.056163
30
0.0
11
0.158241
21
0.056734
31
0.0
0
LINE
8
0
6
CONTINUOUS
10
0.156693
20
0.055793
30
0.0
11
0.158241
21
0.056163
31
0.0
0
LINE
8
0
6
CONTINUOUS
10
0.169766
20
0.047554
30
0.0
11
0.169766
21
0.048046
31
0.0
0
LINE
8
0
6
CONTINUOUS
10
0.168509
20
0.048259
30
0.0
11
0.169766
21
0.047554
31
0.0
0
LINE
8
0
6
CONTINUOUS
10
0.168509
20
0.048259
30
0.0
11
0.168509
21
0.048805
31
0.0
0
LINE
8
0
6
CONTINUOUS
10
0.166960
20
0.047888
30
0.0
11
0.168509
21
0.048259
31
0.0
0
LINE
8
0
6
CONTINUOUS
10
0.183003
20
0.043624
30
0.0
11
0.183295
21
0.042549
31
0.0
0
LINE
8
0
6
CONTINUOUS
10
0.181455
20
0.043994
30
0.0
11
0.183003
21
0.043624
31
0.0
0
LINE
8
0
6
CONTINUOUS
10
0.190791
20
0.076998
30
0.0
11
0.190791
21
0.077751
31
0.0
0
LINE
8
0
6
CONTINUOUS
10
0.190030
20
0.077966
30
0.0
11
0.190791
21
0.076998
31
0.0
0
LINE
8
0
6
CONTINUOUS
10
0.189247
20
0.056441
30
0.0
11
0.187566
21
0.056516
31
0.0
0
LINE
8
0
6
CONTINUOUS
10
0.187566
20
0.056516
30
0.0
11
0.185954
21
0.056736
31
0.0
0
LINE
8
0
6
CONTINUOUS
10
0.185954
20
0.056736
30
0.0
11
0.184425
21
0.057089
31
0.0
0
LINE
8
0
6
CONTINUOUS
10
0.184425
20
0.057089
30
0.0
11
0.182995
21
0.057567
31
0.0
0
LINE
8
0
6
CONTINUOUS
10
0.182995
20
0.057567
30
0.0
11
0.181677
21
0.058160
31
0.0
0
LINE
8
0
6
CONTINUOUS
10
0.181677
20
0.058160
30
0.0
11
0.180487
21
0.058857
31
0.0
0
LINE
8
0
6
CONTINUOUS
10
0.180487
20
0.058857
30
0.0
11
0.179440
21
0.059649
31
0.0
0
LINE
8
0
6
CONTINUOUS
10
0.177759
20
0.060767
30
0.0
11
0.178715
21
0.059825
31
0.0
0
LINE
8
0
6
CONTINUOUS
10
0.179440
20
0.059649
30
0.0
11
0.178550
21
0.060526
31
0.0
0
LINE
8
0
6
CONTINUOUS
10
0.176988
20
0.061790
30
0.0
11
0.177759
21
0.060767
31
0.0
0
LINE
8
0
6
CONTINUOUS
10
0.178550
20
0.060526
30
0.0
11
0.177832
21
0.061478
31
0.0
0
LINE
8
0
6
CONTINUOUS
10
0.176417
20
0.062883
30
0.0
11
0.176988
21
0.061790
31
0.0
0
LINE
8
0
6
CONTINUOUS
10
0.177832
20
0.061478
30
0.0
11
0.177301
21
0.062495
31
0.0
0
LINE
8
0
6
CONTINUOUS
10
0.176063
20
0.064036
30
0.0
11
0.176417
21
0.062883
31
0.0
0
LINE
8
0
6
CONTINUOUS
10
0.177301
20
0.062495
30
0.0
11
0.176971
21
0.063569
31
0.0
0
LINE
8
0
6
CONTINUOUS
10
0.175942
20
0.065237
30
0.0
11
0.176063
21
0.064036
31
0.0
0
LINE
8
0
6
CONTINUOUS
10
0.176971
20
0.063569
30
0.0
11
0.176858
21
0.064687
31
0.0
0
LINE
8
0
6
CONTINUOUS
10
0.176063
20
0.066438
30
0.0
11
0.175942
21
0.065237
31
0.0
0
LINE
8
0
6
CONTINUOUS
10
0.176858
20
0.064687
30
0.0
11
0.176971
21
0.065806
31
0.0
0
LINE
8
0
6
CONTINUOUS
10
0.176417
20
0.067590
30
0.0
11
0.176063
21
0.066438
31
0.0
0
LINE
8
0
6
CONTINUOUS
10
0.176971
20
0.065806
30
0.0
11
0.177301
21
0.066879
31
0.0
0
LINE
8
0
6
CONTINUOUS
10
0.177301
20
0.066879
30
0.0
11
0.177832
21
0.067896
31
0.0
0
LINE
8
0
6
CONTINUOUS
10
0.177832
20
0.067896
30
0.0
11
0.178550
21
0.068849
31
0.0
0
LINE
8
0
6
CONTINUOUS
10
0.178715
20
0.070648
30
0.0
11
0.177759
21
0.069706
31
0.0
0
LINE
8
0
6
CONTINUOUS
10
0.178550
20
0.068849
30
0.0
11
0.179440
21
0.069726
31
0.0
0
LINE
8
0
6
CONTINUOUS
10
0.179840
20
0.071498
30
0.0
11
0.178715
21
0.070648
31
0.0
0
LINE
8
0
6
CONTINUOUS
10
0.179440
20
0.069726
30
0.0
11
0.180487
21
0.070518
31
0.0
0
LINE
8
0
6
CONTINUOUS
10
0.181117
20
0.072247
30
0.0
11
0.179840
21
0.071498
31
0.0
0
LINE
8
0
6
CONTINUOUS
10
0.180487
20
0.070518
30
0.0
11
0.181677
21
0.071215
31
0.0
0
LINE
8
0
6
CONTINUOUS
10
0.182532
20
0.072883
30
0.0
11
0.181117
21
0.072247
31
0.0
0
LINE
8
0
6
CONTINUOUS
10
0.181677
20
0.071215
30
0.0
11
0.182995
21
0.071807
31
0.0
0
LINE
8
0
6
CONTINUOUS
10
0.184069
20
0.073396
30
0.0
11
0.182532
21
0.072883
31
0.0
0
LINE
8
0
6
CONTINUOUS
10
0.182995
20
0.071807
30
0.0
11
0.184425
21
0.072285
31
0.0
0
LINE
8
0
6
CONTINUOUS
10
0.185711
20
0.073776
30
0.0
11
0.184069
21
0.073396
31
0.0
0
LINE
8
0
6
CONTINUOUS
10
0.184425
20
0.072285
30
0.0
11
0.185954
21
0.072639
31
0.0
0
LINE
8
0
6
CONTINUOUS
10
0.187442
20
0.074012
30
0.0
11
0.185711
21
0.073776
31
0.0
0
LINE
8
0
6
CONTINUOUS
10
0.185954
20
0.072639
30
0.0
11
0.187566
21
0.072858
31
0.0
0
LINE
8
0
6
CONTINUOUS
10
0.189247
20
0.074093
30
0.0
11
0.187442
21
0.074012
31
0.0
0
LINE
8
0
6
CONTINUOUS
10
0.187566
20
0.072858
30
0.0
11
0.189247
21
0.072933
31
0.0
0
LINE
8
0
6
CONTINUOUS
10
0.191051
20
0.074012
30
0.0
11
0.189247
21
0.074093
31
0.0
0
LINE
8
0
6
CONTINUOUS
10
0.189247
20
0.072933
30
0.0
11
0.190927
21
0.072858
31
0.0
0
LINE
8
0
6
CONTINUOUS
10
0.192782
20
0.073776
30
0.0
11
0.191051
21
0.074012
31
0.0
0
LINE
8
0
6
CONTINUOUS
10
0.190927
20
0.072858
30
0.0
11
0.192539
21
0.072639
31
0.0
0
LINE
8
0
6
CONTINUOUS
10
0.194425
20
0.073396
30
0.0
11
0.192782
21
0.073776
31
0.0
0
LINE
8
0
6
CONTINUOUS
10
0.192539
20
0.072639
30
0.0
11
0.194068
21
0.072285
31
0.0
0
LINE
8
0
6
CONTINUOUS
10
0.195961
20
0.072883
30
0.0
11
0.194425
21
0.073396
31
0.0
0
LINE
8
0
6
CONTINUOUS
10
0.194068
20
0.072285
30
0.0
11
0.195499
21
0.071807
31
0.0
0
LINE
8
0
6
CONTINUOUS
10
0.197376
20
0.072247
30
0.0
11
0.195961
21
0.072883
31
0.0
0
LINE
8
0
6
CONTINUOUS
10
0.195499
20
0.071807
30
0.0
11
0.196816
21
0.071215
31
0.0
0
LINE
8
0
6
CONTINUOUS
10
0.198654
20
0.071498
30
0.0
11
0.197376
21
0.072247
31
0.0
0
LINE
8
0
6
CONTINUOUS
10
0.196816
20
0.071215
30
0.0
11
0.198006
21
0.070518
31
0.0
0
LINE
8
0
6
CONTINUOUS
10
0.199778
20
0.070648
30
0.0
11
0.198654
21
0.071498
31
0.0
0
LINE
8
0
6
CONTINUOUS
10
0.198006
20
0.070518
30
0.0
11
0.199053
21
0.069726
31
0.0
0
LINE
8
0
6
CONTINUOUS
10
0.199053
20
0.069726
30
0.0
11
0.199943
21
0.068849
31
0.0
0
LINE
8
0
6
CONTINUOUS
10
0.199943
20
0.068849
30
0.0
11
0.200661
21
0.067896
31
0.0
0
LINE
8
0
6
CONTINUOUS
10
0.200661
20
0.067896
30
0.0
11
0.201193
21
0.066879
31
0.0
0
LINE
8
0
6
CONTINUOUS
10
0.201193
20
0.066879
30
0.0
11
0.201522
21
0.065806
31
0.0
0
LINE
8
0
6
CONTINUOUS
10
0.202551
20
0.065237
30
0.0
11
0.202430
21
0.066438
31
0.0
0
LINE
8
0
6
CONTINUOUS
10
0.201522
20
0.065806
30
0.0
11
0.201635
21
0.064687
31
0.0
0
LINE
8
0
6
CONTINUOUS
10
0.202430
20
0.064036
30
0.0
11
0.202551
21
0.065237
31
0.0
0
LINE
8
0
6
CONTINUOUS
10
0.201635
20
0.064687
30
0.0
11
0.201522
21
0.063569
31
0.0
0
LINE
8
0
6
CONTINUOUS
10
0.202076
20
0.062883
30
0.0
11
0.202430
21
0.064036
31
0.0
0
LINE
8
0
6
CONTINUOUS
10
0.201522
20
0.063569
30
0.0
11
0.201193
21
0.062495
31
0.0
0
LINE
8
0
6
CONTINUOUS
10
0.201505
20
0.061790
30
0.0
11
0.202076
21
0.062883
31
0.0
0
LINE
8
0
6
CONTINUOUS
10
0.201193
20
0.062495
30
0.0
11
0.200661
21
0.061478
31
0.0
0
LINE
8
0
6
CONTINUOUS
10
0.200734
20
0.060767
30
0.0
11
0.201505
21
0.061790
31
0.0
0
LINE
8
0
6
CONTINUOUS
10
0.200661
20
0.061478
30
0.0
11
0.199943
21
0.060526
31
0.0
0
LINE
8
0
6
CONTINUOUS
10
0.199943
20
0.060526
30
0.0
11
0.199053
21
0.059649
31
0.0
0
LINE
8
0
6
CONTINUOUS
10
0.199053
20
0.059649
30
0.0
11
0.198006
21
0.058857
31
0.0
0
LINE
8
0
6
CONTINUOUS
10
0.198006
20
0.058857
30
0.0
11
0.196816
21
0.058160
31
0.0
0
LINE
8
0
6
CONTINUOUS
10
0.196816
20
0.058160
30
0.0
11
0.195498
21
0.057567
31
0.0
0
LINE
8
0
6
CONTINUOUS
10
0.195498
20
0.057567
30
0.0
11
0.194068
21
0.057089
31
0.0
0
LINE
8
0
6
CONTINUOUS
10
0.194068
20
0.057089
30
0.0
11
0.192539
21
0.056736
31
0.0
0
LINE
8
0
6
CONTINUOUS
10
0.192539
20
0.056736
30
0.0
11
0.190927
21
0.056516
31
0.0
0
LINE
8
0
6
CONTINUOUS
10
0.190927
20
0.056516
30
0.0
11
0.189247
21
0.056441
31
0.0
0
LINE
8
0
6
CONTINUOUS
10
0.143590
20
0.064370
30
0.0
11
0.145139
21
0.064740
31
0.0
0
LINE
8
0
6
CONTINUOUS
10
0.231896
20
0.063869
30
0.0
11
0.233154
21
0.064574
31
0.0
0
LINE
8
0
6
CONTINUOUS
10
0.231896
20
0.064276
30
0.0
11
0.231896
21
0.063869
31
0.0
0
LINE
8
0
6
CONTINUOUS
10
0.233154
20
0.064574
30
0.0
11
0.234702
21
0.064204
31
0.0
0
LINE
8
0
6
CONTINUOUS
10
0.233154
20
0.065169
30
0.0
11
0.233154
21
0.064574
31
0.0
0
LINE
8
0
6
CONTINUOUS
10
0.197032
20
0.053865
30
0.0
11
0.197032
21
0.054602
31
0.0
0
LINE
8
0
6
CONTINUOUS
10
0.195774
20
0.054569
30
0.0
11
0.197032
21
0.053865
31
0.0
0
LINE
8
0
6
CONTINUOUS
10
0.195774
20
0.055196
30
0.0
11
0.195774
21
0.054569
31
0.0
0
LINE
8
0
6
CONTINUOUS
10
0.194998
20
0.042495
30
0.0
11
0.195289
21
0.043570
31
0.0
0
LINE
8
0
6
CONTINUOUS
10
0.194998
20
0.043253
30
0.0
11
0.194998
21
0.042495
31
0.0
0
LINE
8
0
6
CONTINUOUS
10
0.195289
20
0.043570
30
0.0
11
0.196837
21
0.043940
31
0.0
0
LINE
8
0
6
CONTINUOUS
10
0.195289
20
0.044156
30
0.0
11
0.195289
21
0.043570
31
0.0
0
LINE
8
0
6
CONTINUOUS
10
0.198095
20
0.043235
30
0.0
11
0.198095
21
0.043975
31
0.0
0
LINE
8
0
6
CONTINUOUS
10
0.196837
20
0.043940
30
0.0
11
0.198095
21
0.043235
31
0.0
0
LINE
8
0
6
CONTINUOUS
10
0.196837
20
0.044517
30
0.0
11
0.196837
21
0.043940
31
0.0
0
LINE
8
0
6
CONTINUOUS
10
0.195711
20
0.060882
30
0.0
11
0.196003
21
0.061957
31
0.0
0
LINE
8
0
6
CONTINUOUS
10
0.195711
20
0.061554
30
0.0
11
0.195711
21
0.060882
31
0.0
0
LINE
8
0
6
CONTINUOUS
10
0.196003
20
0.061957
30
0.0
11
0.197551
21
0.062327
31
0.0
0
LINE
8
0
6
CONTINUOUS
10
0.196003
20
0.062639
30
0.0
11
0.196003
21
0.061957
31
0.0
0
LINE
8
0
6
CONTINUOUS
10
0.198808
20
0.061622
30
0.0
11
0.198808
21
0.062395
31
0.0
0
LINE
8
0
6
CONTINUOUS
10
0.197551
20
0.062327
30
0.0
11
0.198808
21
0.061622
31
0.0
0
LINE
8
0
6
CONTINUOUS
10
0.197551
20
0.063060
30
0.0
11
0.197551
21
0.062327
31
0.0
0
LINE
8
0
6
CONTINUOUS
10
0.226749
20
0.053977
30
0.0
11
0.228006
21
0.054681
31
0.0
0
LINE
8
0
6
CONTINUOUS
10
0.226749
20
0.054328
30
0.0
11
0.226749
21
0.053977
31
0.0
0
LINE
8
0
6
CONTINUOUS
10
0.228006
20
0.054681
30
0.0
11
0.229555
21
0.054311
31
0.0
0
LINE
8
0
6
CONTINUOUS
10
0.228006
20
0.055188
30
0.0
11
0.228006
21
0.054681
31
0.0
0
LINE
8
0
6
CONTINUOUS
10
0.229555
20
0.054311
30
0.0
11
0.229846
21
0.053236
31
0.0
0
LINE
8
0
6
CONTINUOUS
10
0.229555
20
0.055167
30
0.0
11
0.229555
21
0.054311
31
0.0
0
LINE
8
0
6
CONTINUOUS
10
0.217828
20
0.046163
30
0.0
11
0.219377
21
0.045793
31
0.0
0
LINE
8
0
6
CONTINUOUS
10
0.217828
20
0.046720
30
0.0
11
0.217828
21
0.046163
31
0.0
0
LINE
8
0
6
CONTINUOUS
10
0.219377
20
0.045793
30
0.0
11
0.219668
21
0.044718
31
0.0
0
LINE
8
0
6
CONTINUOUS
10
0.219377
20
0.046709
30
0.0
11
0.219377
21
0.045793
31
0.0
0
LINE
8
0
6
CONTINUOUS
10
0.209784
20
0.048335
30
0.0
11
0.211332
21
0.047965
31
0.0
0
LINE
8
0
6
CONTINUOUS
10
0.209784
20
0.048712
30
0.0
11
0.209784
21
0.048335
31
0.0
0
LINE
8
0
6
CONTINUOUS
10
0.211332
20
0.047965
30
0.0
11
0.211623
21
0.046890
31
0.0
0
LINE
8
0
6
CONTINUOUS
10
0.211332
20
0.048588
30
0.0
11
0.211332
21
0.047965
31
0.0
0
LINE
8
0
6
CONTINUOUS
10
0.210919
20
0.056886
30
0.0
11
0.212176
21
0.057591
31
0.0
0
LINE
8
0
6
CONTINUOUS
10
0.210919
20
0.057439
30
0.0
11
0.210919
21
0.056886
31
0.0
0
LINE
8
0
6
CONTINUOUS
10
0.218794
20
0.055360
30
0.0
11
0.220051
21
0.056065
31
0.0
0
LINE
8
0
6
CONTINUOUS
10
0.218794
20
0.055817
30
0.0
11
0.218794
21
0.055360
31
0.0
0
LINE
8
0
6
CONTINUOUS
10
0.220051
20
0.056065
30
0.0
11
0.221600
21
0.055695
31
0.0
0
LINE
8
0
6
CONTINUOUS
10
0.220051
20
0.056619
30
0.0
11
0.220051
21
0.056065
31
0.0
0
LINE
8
0
6
CONTINUOUS
10
0.221600
20
0.055695
30
0.0
11
0.221891
21
0.054620
31
0.0
0
LINE
8
0
6
CONTINUOUS
10
0.221600
20
0.056503
30
0.0
11
0.221600
21
0.055695
31
0.0
0
LINE
8
0
6
CONTINUOUS
10
0.201119
20
0.049520
30
0.0
11
0.201410
21
0.050594
31
0.0
0
LINE
8
0
6
CONTINUOUS
10
0.201119
20
0.050151
30
0.0
11
0.201119
21
0.049520
31
0.0
0
LINE
8
0
6
CONTINUOUS
10
0.201410
20
0.050594
30
0.0
11
0.202958
21
0.050964
31
0.0
0
LINE
8
0
6
CONTINUOUS
10
0.201410
20
0.051131
30
0.0
11
0.201410
21
0.050594
31
0.0
0
LINE
8
0
6
CONTINUOUS
10
0.204215
20
0.050260
30
0.0
11
0.204215
21
0.051049
31
0.0
0
LINE
8
0
6
CONTINUOUS
10
0.202958
20
0.050964
30
0.0
11
0.204215
21
0.050260
31
0.0
0
LINE
8
0
6
CONTINUOUS
10
0.202958
20
0.051579
30
0.0
11
0.202958
21
0.050964
31
0.0
0
LINE
8
0
6
CONTINUOUS
10
0.202799
20
0.038825
30
0.0
11
0.203090
21
0.039899
31
0.0
0
LINE
8
0
6
CONTINUOUS
10
0.202799
20
0.039932
30
0.0
11
0.202799
21
0.038825
31
0.0
0
LINE
8
0
6
CONTINUOUS
10
0.203090
20
0.039899
30
0.0
11
0.204639
21
0.040270
31
0.0
0
LINE
8
0
6
CONTINUOUS
10
0.203090
20
0.040823
30
0.0
11
0.203090
21
0.039899
31
0.0
0
LINE
8
0
6
CONTINUOUS
10
0.205896
20
0.039565
30
0.0
11
0.205896
21
0.040775
31
0.0
0
LINE
8
0
6
CONTINUOUS
10
0.204639
20
0.040270
30
0.0
11
0.205896
21
0.039565
31
0.0
0
LINE
8
0
6
CONTINUOUS
10
0.204639
20
0.041249
30
0.0
11
0.204639
21
0.040270
31
0.0
0
LINE
8
0
6
CONTINUOUS
10
0.223426
20
0.063820
30
0.0
11
0.223717
21
0.064895
31
0.0
0
LINE
8
0
6
CONTINUOUS
10
0.223426
20
0.064358
30
0.0
11
0.223426
21
0.063820
31
0.0
0
LINE
8
0
6
CONTINUOUS
10
0.223717
20
0.064895
30
0.0
11
0.225265
21
0.065265
31
0.0
0
LINE
8
0
6
CONTINUOUS
10
0.223717
20
0.065430
30
0.0
11
0.223717
21
0.064895
31
0.0
0
LINE
8
0
6
CONTINUOUS
10
0.226523
20
0.064560
30
0.0
11
0.226523
21
0.065492
31
0.0
0
LINE
8
0
6
CONTINUOUS
10
0.225265
20
0.065265
30
0.0
11
0.226523
21
0.064560
31
0.0
0
LINE
8
0
6
CONTINUOUS
10
0.225265
20
0.065997
30
0.0
11
0.225265
21
0.065265
31
0.0
0
LINE
8
0
6
CONTINUOUS
10
0.214910
20
0.066287
30
0.0
11
0.216458
21
0.066657
31
0.0
0
LINE
8
0
6
CONTINUOUS
10
0.214910
20
0.066895
30
0.0
11
0.214910
21
0.066287
31
0.0
0
LINE
8
0
6
CONTINUOUS
10
0.217715
20
0.065952
30
0.0
11
0.217715
21
0.066890
31
0.0
0
LINE
8
0
6
CONTINUOUS
10
0.216458
20
0.066657
30
0.0
11
0.217715
21
0.065952
31
0.0
0
LINE
8
0
6
CONTINUOUS
10
0.216458
20
0.067399
30
0.0
11
0.216458
21
0.066657
31
0.0
0
LINE
8
0
6
CONTINUOUS
10
0.203191
20
0.058282
30
0.0
11
0.203482
21
0.059357
31
0.0
0
LINE
8
0
6
CONTINUOUS
10
0.203191
20
0.058842
30
0.0
11
0.203191
21
0.058282
31
0.0
0
LINE
8
0
6
CONTINUOUS
10
0.203482
20
0.059357
30
0.0
11
0.205030
21
0.059727
31
0.0
0
LINE
8
0
6
CONTINUOUS
10
0.203482
20
0.059936
30
0.0
11
0.203482
21
0.059357
31
0.0
0
LINE
8
0
6
CONTINUOUS
10
0.206287
20
0.059023
30
0.0
11
0.206287
21
0.059888
31
0.0
0
LINE
8
0
6
CONTINUOUS
10
0.205030
20
0.059727
30
0.0
11
0.206287
21
0.059023
31
0.0
0
LINE
8
0
6
CONTINUOUS
10
0.205030
20
0.060459
30
0.0
11
0.205030
21
0.059727
31
0.0
0
LINE
8
0
6
CONTINUOUS
10
0.205330
20
0.088785
30
0.0
11
0.205330
21
0.089656
31
0.0
0
LINE
8
0
6
CONTINUOUS
10
0.204570
20
0.089753
30
0.0
11
0.205330
21
0.088785
31
0.0
0
LINE
8
0
6
CONTINUOUS
10
0.202042
20
0.088879
30
0.0
11
0.202925
21
0.089801
31
0.0
0
LINE
8
0
6
CONTINUOUS
10
0.202042
20
0.089529
30
0.0
11
0.202042
21
0.088879
31
0.0
0
LINE
8
0
6
CONTINUOUS
10
0.204570
20
0.089753
30
0.0
11
0.204570
21
0.090743
31
0.0
0
LINE
8
0
6
CONTINUOUS
10
0.202925
20
0.089801
30
0.0
11
0.204570
21
0.089753
31
0.0
0
LINE
8
0
6
CONTINUOUS
10
0.202925
20
0.090650
30
0.0
11
0.202925
21
0.089801
31
0.0
0
LINE
8
0
6
CONTINUOUS
10
0.204394
20
0.081293
30
0.0
11
0.204394
21
0.082102
31
0.0
0
LINE
8
0
6
CONTINUOUS
10
0.203633
20
0.082262
30
0.0
11
0.204394
21
0.081293
31
0.0
0
LINE
8
0
6
CONTINUOUS
10
0.201105
20
0.081388
30
0.0
11
0.201989
21
0.082309
31
0.0
0
LINE
8
0
6
CONTINUOUS
10
0.201105
20
0.082071
30
0.0
11
0.201105
21
0.081388
31
0.0
0
LINE
8
0
6
CONTINUOUS
10
0.203633
20
0.082262
30
0.0
11
0.203633
21
0.083190
31
0.0
0
LINE
8
0
6
CONTINUOUS
10
0.201989
20
0.082309
30
0.0
11
0.203633
21
0.082262
31
0.0
0
LINE
8
0
6
CONTINUOUS
10
0.201989
20
0.083206
30
0.0
11
0.201989
21
0.082309
31
0.0
0
LINE
8
0
6
CONTINUOUS
10
0.217624
20
0.082768
30
0.0
11
0.217624
21
0.083701
31
0.0
0
LINE
8
0
6
CONTINUOUS
10
0.217188
20
0.083821
30
0.0
11
0.217624
21
0.082768
31
0.0
0
LINE
8
0
6
CONTINUOUS
10
0.214439
20
0.083320
30
0.0
11
0.215595
21
0.084097
31
0.0
0
LINE
8
0
6
CONTINUOUS
10
0.214439
20
0.083985
30
0.0
11
0.214439
21
0.083320
31
0.0
0
LINE
8
0
6
CONTINUOUS
10
0.217188
20
0.083821
30
0.0
11
0.217188
21
0.084867
31
0.0
0
LINE
8
0
6
CONTINUOUS
10
0.215595
20
0.084097
30
0.0
11
0.217188
21
0.083821
31
0.0
0
LINE
8
0
6
CONTINUOUS
10
0.215595
20
0.084961
30
0.0
11
0.215595
21
0.084097
31
0.0
0
LINE
8
0
6
CONTINUOUS
10
0.199263
20
0.074633
30
0.0
11
0.200419
21
0.075410
31
0.0
0
LINE
8
0
6
CONTINUOUS
10
0.199263
20
0.075350
30
0.0
11
0.199263
21
0.074633
31
0.0
0
LINE
8
0
6
CONTINUOUS
10
0.202012
20
0.075134
30
0.0
11
0.202012
21
0.075975
31
0.0
0
LINE
8
0
6
CONTINUOUS
10
0.200419
20
0.075410
30
0.0
11
0.202012
21
0.075134
31
0.0
0
LINE
8
0
6
CONTINUOUS
10
0.200419
20
0.076240
30
0.0
11
0.200419
21
0.075410
31
0.0
0
LINE
8
0
6
CONTINUOUS
10
0.225093
20
0.074031
30
0.0
11
0.225093
21
0.074931
31
0.0
0
LINE
8
0
6
CONTINUOUS
10
0.225001
20
0.075121
30
0.0
11
0.225093
21
0.074031
31
0.0
0
LINE
8
0
6
CONTINUOUS
10
0.222154
20
0.075015
30
0.0
11
0.223532
21
0.075613
31
0.0
0
LINE
8
0
6
CONTINUOUS
10
0.222154
20
0.075591
30
0.0
11
0.222154
21
0.075015
31
0.0
0
LINE
8
0
6
CONTINUOUS
10
0.225001
20
0.075121
30
0.0
11
0.225001
21
0.076049
31
0.0
0
LINE
8
0
6
CONTINUOUS
10
0.223532
20
0.075613
30
0.0
11
0.225001
21
0.075121
31
0.0
0
LINE
8
0
6
CONTINUOUS
10
0.223532
20
0.076379
30
0.0
11
0.223532
21
0.075613
31
0.0
0
LINE
8
0
6
CONTINUOUS
10
0.213967
20
0.074481
30
0.0
11
0.213967
21
0.075289
31
0.0
0
LINE
8
0
6
CONTINUOUS
10
0.213875
20
0.075571
30
0.0
11
0.213967
21
0.074481
31
0.0
0
LINE
8
0
6
CONTINUOUS
10
0.211029
20
0.075465
30
0.0
11
0.212406
21
0.076063
31
0.0
0
LINE
8
0
6
CONTINUOUS
10
0.211029
20
0.076125
30
0.0
11
0.211029
21
0.075465
31
0.0
0
LINE
8
0
6
CONTINUOUS
10
0.213875
20
0.075571
30
0.0
11
0.213875
21
0.076450
31
0.0
0
LINE
8
0
6
CONTINUOUS
10
0.212406
20
0.076063
30
0.0
11
0.213875
21
0.075571
31
0.0
0
LINE
8
0
6
CONTINUOUS
10
0.212406
20
0.076868
30
0.0
11
0.212406
21
0.076063
31
0.0
0
LINE
8
0
6
CONTINUOUS
10
0.208551
20
0.066346
30
0.0
11
0.208551
21
0.067218
31
0.0
0
LINE
8
0
6
CONTINUOUS
10
0.208459
20
0.067436
30
0.0
11
0.208551
21
0.066346
31
0.0
0
LINE
8
0
6
CONTINUOUS
10
0.208459
20
0.068279
30
0.0
11
0.208459
21
0.067436
31
0.0
0
LINE
8
0
6
CONTINUOUS
10
0.198541
20
0.066826
30
0.0
11
0.198541
21
0.067602
31
0.0
0
LINE
8
0
6
CONTINUOUS
10
0.198449
20
0.067916
30
0.0
11
0.198541
21
0.066826
31
0.0
0
LINE
8
0
6
CONTINUOUS
10
0.198449
20
0.067916
30
0.0
11
0.198449
21
0.068685
31
0.0
0
LINE
8
0
6
CONTINUOUS
10
0.196980
20
0.068408
30
0.0
11
0.198449
21
0.067916
31
0.0
0
LINE
8
0
6
CONTINUOUS
10
0.196980
20
0.069133
30
0.0
11
0.196980
21
0.068408
31
0.0
0
LINE
8
0
6
CONTINUOUS
10
0.202739
20
0.096352
30
0.0
11
0.203310
21
0.097376
31
0.0
0
LINE
8
0
6
CONTINUOUS
10
0.202739
20
0.096860
30
0.0
11
0.202739
21
0.096352
31
0.0
0
LINE
8
0
6
CONTINUOUS
10
0.204933
20
0.097559
30
0.0
11
0.204933
21
0.098658
31
0.0
0
LINE
8
0
6
CONTINUOUS
10
0.203310
20
0.097376
30
0.0
11
0.204933
21
0.097559
31
0.0
0
LINE
8
0
6
CONTINUOUS
10
0.203310
20
0.098268
30
0.0
11
0.203310
21
0.097376
31
0.0
0
LINE
8
0
6
CONTINUOUS
10
0.219527
20
0.091174
30
0.0
11
0.219527
21
0.092061
31
0.0
0
LINE
8
0
6
CONTINUOUS
10
0.219091
20
0.092227
30
0.0
11
0.219527
21
0.091174
31
0.0
0
LINE
8
0
6
CONTINUOUS
10
0.216342
20
0.091725
30
0.0
11
0.217498
21
0.092502
31
0.0
0
LINE
8
0
6
CONTINUOUS
10
0.216342
20
0.092266
30
0.0
11
0.216342
21
0.091725
31
0.0
0
LINE
8
0
6
CONTINUOUS
10
0.219091
20
0.092227
30
0.0
11
0.219091
21
0.093325
31
0.0
0
LINE
8
0
6
CONTINUOUS
10
0.217498
20
0.092502
30
0.0
11
0.219091
21
0.092227
31
0.0
0
LINE
8
0
6
CONTINUOUS
10
0.217498
20
0.093450
30
0.0
11
0.217498
21
0.092502
31
0.0
0
LINE
8
0
6
CONTINUOUS
10
0.229423
20
0.083086
30
0.0
11
0.229423
21
0.084061
31
0.0
0
LINE
8
0
6
CONTINUOUS
10
0.229331
20
0.084176
30
0.0
11
0.229423
21
0.083086
31
0.0
0
LINE
8
0
6
CONTINUOUS
10
0.226485
20
0.084071
30
0.0
11
0.227862
21
0.084669
31
0.0
0
LINE
8
0
6
CONTINUOUS
10
0.226485
20
0.084539
30
0.0
11
0.226485
21
0.084071
31
0.0
0
LINE
8
0
6
CONTINUOUS
10
0.229331
20
0.084176
30
0.0
11
0.229331
21
0.085264
31
0.0
0
LINE
8
0
6
CONTINUOUS
10
0.227862
20
0.084669
30
0.0
11
0.229331
21
0.084176
31
0.0
0
LINE
8
0
6
CONTINUOUS
10
0.227862
20
0.085507
30
0.0
11
0.227862
21
0.084669
31
0.0
0
LINE
8
0
6
CONTINUOUS
10
0.148869
20
0.083251
30
0.0
11
0.148961
21
0.084342
31
0.0
0
LINE
8
0
6
CONTINUOUS
10
0.148869
20
0.084244
30
0.0
11
0.148869
21
0.083251
31
0.0
0
LINE
8
0
6
CONTINUOUS
10
0.150430
20
0.084834
30
0.0
11
0.151808
21
0.084236
31
0.0
0
LINE
8
0
6
CONTINUOUS
10
0.148961
20
0.084342
30
0.0
11
0.150430
21
0.084834
31
0.0
0
LINE
8
0
6
CONTINUOUS
10
0.148961
20
0.085414
30
0.0
11
0.148961
21
0.084342
31
0.0
0
LINE
8
0
6
CONTINUOUS
10
0.158766
20
0.091291
30
0.0
11
0.159202
21
0.092344
31
0.0
0
LINE
8
0
6
CONTINUOUS
10
0.158766
20
0.092188
30
0.0
11
0.158766
21
0.091291
31
0.0
0
LINE
8
0
6
CONTINUOUS
10
0.160794
20
0.092620
30
0.0
11
0.161951
21
0.091843
31
0.0
0
LINE
8
0
6
CONTINUOUS
10
0.159202
20
0.092344
30
0.0
11
0.160794
21
0.092620
31
0.0
0
LINE
8
0
6
CONTINUOUS
10
0.159202
20
0.093448
30
0.0
11
0.159202
21
0.092344
31
0.0
0
LINE
8
0
6
CONTINUOUS
10
0.187558
20
0.097857
30
0.0
11
0.188050
21
0.098899
31
0.0
0
LINE
8
0
6
CONTINUOUS
10
0.187558
20
0.098547
30
0.0
11
0.187558
21
0.097857
31
0.0
0
LINE
8
0
6
CONTINUOUS
10
0.188050
20
0.098899
30
0.0
11
0.189656
21
0.099138
31
0.0
0
LINE
8
0
6
CONTINUOUS
10
0.188050
20
0.099922
30
0.0
11
0.188050
21
0.098899
31
0.0
0
LINE
8
0
6
CONTINUOUS
10
0.189656
20
0.099138
30
0.0
11
0.190770
21
0.098334
31
0.0
0
LINE
8
0
6
CONTINUOUS
10
0.189656
20
0.100198
30
0.0
11
0.189656
21
0.099138
31
0.0
0
LINE
8
0
6
CONTINUOUS
10
0.172309
20
0.096785
30
0.0
11
0.173360
21
0.097625
31
0.0
0
LINE
8
0
6
CONTINUOUS
10
0.172309
20
0.097710
30
0.0
11
0.172309
21
0.096785
31
0.0
0
LINE
8
0
6
CONTINUOUS
10
0.174982
20
0.097442
30
0.0
11
0.175554
21
0.096418
31
0.0
0
LINE
8
0
6
CONTINUOUS
10
0.173360
20
0.097625
30
0.0
11
0.174982
21
0.097442
31
0.0
0
LINE
8
0
6
CONTINUOUS
10
0.173360
20
0.098733
30
0.0
11
0.173360
21
0.097625
31
0.0
0
LINE
8
0
6
CONTINUOUS
10
0.181313
20
0.068435
30
0.0
11
0.182690
21
0.067837
31
0.0
0
LINE
8
0
6
CONTINUOUS
10
0.181313
20
0.069158
30
0.0
11
0.181313
21
0.068435
31
0.0
0
LINE
8
0
6
CONTINUOUS
10
0.171302
20
0.067999
30
0.0
11
0.172679
21
0.067401
31
0.0
0
LINE
8
0
6
CONTINUOUS
10
0.171302
20
0.068704
30
0.0
11
0.171302
21
0.067999
31
0.0
0
LINE
8
0
6
CONTINUOUS
10
0.153200
20
0.074149
30
0.0
11
0.153292
21
0.075240
31
0.0
0
LINE
8
0
6
CONTINUOUS
10
0.153200
20
0.075033
30
0.0
11
0.153200
21
0.074149
31
0.0
0
LINE
8
0
6
CONTINUOUS
10
0.154761
20
0.075732
30
0.0
11
0.156138
21
0.075134
31
0.0
0
LINE
8
0
6
CONTINUOUS
10
0.153292
20
0.075240
30
0.0
11
0.154761
21
0.075732
31
0.0
0
LINE
8
0
6
CONTINUOUS
10
0.153292
20
0.076152
30
0.0
11
0.153292
21
0.075240
31
0.0
0
LINE
8
0
6
CONTINUOUS
10
0.187687
20
0.070132
30
0.0
11
0.188123
21
0.071185
31
0.0
0
LINE
8
0
6
CONTINUOUS
10
0.187687
20
0.070878
30
0.0
11
0.187687
21
0.070132
31
0.0
0
LINE
8
0
6
CONTINUOUS
10
0.177873
20
0.075444
30
0.0
11
0.179029
21
0.074667
31
0.0
0
LINE
8
0
6
CONTINUOUS
10
0.176281
20
0.075168
30
0.0
11
0.177873
21
0.075444
31
0.0
0
LINE
8
0
6
CONTINUOUS
10
0.176281
20
0.075997
30
0.0
11
0.176281
21
0.075168
31
0.0
0
LINE
8
0
6
CONTINUOUS
10
0.160669
20
0.082888
30
0.0
11
0.161105
21
0.083941
31
0.0
0
LINE
8
0
6
CONTINUOUS
10
0.160669
20
0.083844
30
0.0
11
0.160669
21
0.082888
31
0.0
0
LINE
8
0
6
CONTINUOUS
10
0.162697
20
0.084217
30
0.0
11
0.163854
21
0.083440
31
0.0
0
LINE
8
0
6
CONTINUOUS
10
0.161105
20
0.083941
30
0.0
11
0.162697
21
0.084217
31
0.0
0
LINE
8
0
6
CONTINUOUS
10
0.161105
20
0.085010
30
0.0
11
0.161105
21
0.083941
31
0.0
0
LINE
8
0
6
CONTINUOUS
10
0.173899
20
0.081329
30
0.0
11
0.174659
21
0.082297
31
0.0
0
LINE
8
0
6
CONTINUOUS
10
0.173899
20
0.082185
30
0.0
11
0.173899
21
0.081329
31
0.0
0
LINE
8
0
6
CONTINUOUS
10
0.176303
20
0.082344
30
0.0
11
0.177187
21
0.081423
31
0.0
0
LINE
8
0
6
CONTINUOUS
10
0.174659
20
0.082297
30
0.0
11
0.176303
21
0.082344
31
0.0
0
LINE
8
0
6
CONTINUOUS
10
0.174659
20
0.083273
30
0.0
11
0.174659
21
0.082297
31
0.0
0
LINE
8
0
6
CONTINUOUS
10
0.172962
20
0.088854
30
0.0
11
0.173723
21
0.089822
31
0.0
0
LINE
8
0
6
CONTINUOUS
10
0.172962
20
0.089739
30
0.0
11
0.172962
21
0.088854
31
0.0
0
LINE
8
0
6
CONTINUOUS
10
0.173723
20
0.089822
30
0.0
11
0.175367
21
0.089869
31
0.0
0
LINE
8
0
6
CONTINUOUS
10
0.173723
20
0.090826
30
0.0
11
0.173723
21
0.089822
31
0.0
0
LINE
8
0
6
CONTINUOUS
10
0.187203
20
0.083899
30
0.0
11
0.188254
21
0.084740
31
0.0
0
LINE
8
0
6
CONTINUOUS
10
0.187203
20
0.084711
30
0.0
11
0.187203
21
0.083899
31
0.0
0
LINE
8
0
6
CONTINUOUS
10
0.189876
20
0.084556
30
0.0
11
0.190448
21
0.083532
31
0.0
0
LINE
8
0
6
CONTINUOUS
10
0.189876
20
0.085439
30
0.0
11
0.189876
21
0.084556
31
0.0
0
LINE
8
0
6
CONTINUOUS
10
0.187320
20
0.091240
30
0.0
11
0.188371
21
0.092080
31
0.0
0
LINE
8
0
6
CONTINUOUS
10
0.187320
20
0.092059
30
0.0
11
0.187320
21
0.091240
31
0.0
0
LINE
8
0
6
CONTINUOUS
10
0.189993
20
0.091897
30
0.0
11
0.190565
21
0.090873
31
0.0
0
LINE
8
0
6
CONTINUOUS
10
0.188371
20
0.092080
30
0.0
11
0.189993
21
0.091897
31
0.0
0
LINE
8
0
6
CONTINUOUS
10
0.188371
20
0.093038
30
0.0
11
0.188371
21
0.092080
31
0.0
0
LINE
8
0
6
CONTINUOUS
10
0.174811
20
0.059425
30
0.0
11
0.175102
21
0.058350
31
0.0
0
LINE
8
0
6
CONTINUOUS
10
0.173262
20
0.059795
30
0.0
11
0.174811
21
0.059425
31
0.0
0
LINE
8
0
6
CONTINUOUS
10
0.172005
20
0.059090
30
0.0
11
0.173262
21
0.059795
31
0.0
0
LINE
8
0
6
CONTINUOUS
10
0.172005
20
0.059973
30
0.0
11
0.172005
21
0.059090
31
0.0
0
LINE
8
0
6
CONTINUOUS
10
0.163383
20
0.066389
30
0.0
11
0.163674
21
0.065315
31
0.0
0
LINE
8
0
6
CONTINUOUS
10
0.161834
20
0.066760
30
0.0
11
0.163383
21
0.066389
31
0.0
0
LINE
8
0
6
CONTINUOUS
10
0.160577
20
0.066055
30
0.0
11
0.161834
21
0.066760
31
0.0
0
LINE
8
0
6
CONTINUOUS
10
0.160577
20
0.067013
30
0.0
11
0.160577
21
0.066055
31
0.0
0
LINE
8
0
6
CONTINUOUS
10
0.172396
20
0.040069
30
0.0
11
0.173654
21
0.040773
31
0.0
0
LINE
8
0
6
CONTINUOUS
10
0.172396
20
0.040836
30
0.0
11
0.172396
21
0.040069
31
0.0
0
LINE
8
0
6
CONTINUOUS
10
0.187486
20
0.038246
30
0.0
11
0.188744
21
0.038950
31
0.0
0
LINE
8
0
6
CONTINUOUS
10
0.187486
20
0.039013
30
0.0
11
0.187486
21
0.038246
31
0.0
0
LINE
8
0
6
CONTINUOUS
10
0.176883
20
0.050640
30
0.0
11
0.177174
21
0.049565
31
0.0
0
LINE
8
0
6
CONTINUOUS
10
0.175334
20
0.051010
30
0.0
11
0.176883
21
0.050640
31
0.0
0
LINE
8
0
6
CONTINUOUS
10
0.174077
20
0.050305
30
0.0
11
0.175334
21
0.051010
31
0.0
0
LINE
8
0
6
CONTINUOUS
10
0.174077
20
0.051113
30
0.0
11
0.174077
21
0.050305
31
0.0
0
LINE
8
0
6
CONTINUOUS
10
0.156693
20
0.055793
30
0.0
11
0.156693
21
0.056618
31
0.0
0
LINE
8
0
6
CONTINUOUS
10
0.156402
20
0.054719
30
0.0
11
0.156693
21
0.055793
31
0.0
0
LINE
8
0
6
CONTINUOUS
10
0.156402
20
0.055699
30
0.0
11
0.156402
21
0.054719
31
0.0
0
LINE
8
0
6
CONTINUOUS
10
0.167373
20
0.056969
30
0.0
11
0.167373
21
0.057516
31
0.0
0
LINE
8
0
6
CONTINUOUS
10
0.166116
20
0.057674
30
0.0
11
0.167373
21
0.056969
31
0.0
0
LINE
8
0
6
CONTINUOUS
10
0.166116
20
0.057674
30
0.0
11
0.166116
21
0.058269
31
0.0
0
LINE
8
0
6
CONTINUOUS
10
0.164568
20
0.057304
30
0.0
11
0.166116
21
0.057674
31
0.0
0
LINE
8
0
6
CONTINUOUS
10
0.164568
20
0.057304
30
0.0
11
0.164568
21
0.058078
31
0.0
0
LINE
8
0
6
CONTINUOUS
10
0.164277
20
0.056229
30
0.0
11
0.164568
21
0.057304
31
0.0
0
LINE
8
0
6
CONTINUOUS
10
0.164277
20
0.057147
30
0.0
11
0.164277
21
0.056229
31
0.0
0
LINE
8
0
6
CONTINUOUS
10
0.166960
20
0.047888
30
0.0
11
0.166960
21
0.048706
31
0.0
0
LINE
8
0
6
CONTINUOUS
10
0.166669
20
0.046814
30
0.0
11
0.166960
21
0.047888
31
0.0
0
LINE
8
0
6
CONTINUOUS
10
0.166669
20
0.047822
30
0.0
11
0.166669
21
0.046814
31
0.0
0
LINE
8
0
6
CONTINUOUS
10
0.161721
20
0.045713
30
0.0
11
0.161721
21
0.046092
31
0.0
0
LINE
8
0
6
CONTINUOUS
10
0.160464
20
0.046418
30
0.0
11
0.161721
21
0.045713
31
0.0
0
LINE
8
0
6
CONTINUOUS
10
0.160464
20
0.046418
30
0.0
11
0.160464
21
0.046863
31
0.0
0
LINE
8
0
6
CONTINUOUS
10
0.158915
20
0.046048
30
0.0
11
0.160464
21
0.046418
31
0.0
0
LINE
8
0
6
CONTINUOUS
10
0.158915
20
0.046048
30
0.0
11
0.158915
21
0.046863
31
0.0
0
LINE
8
0
6
CONTINUOUS
10
0.158624
20
0.044973
30
0.0
11
0.158915
21
0.046048
31
0.0
0
LINE
8
0
6
CONTINUOUS
10
0.158624
20
0.046088
30
0.0
11
0.158624
21
0.044973
31
0.0
0
LINE
8
0
6
CONTINUOUS
10
0.151544
20
0.054129
30
0.0
11
0.151544
21
0.054501
31
0.0
0
LINE
8
0
6
CONTINUOUS
10
0.150286
20
0.054834
30
0.0
11
0.151544
21
0.054129
31
0.0
0
LINE
8
0
6
CONTINUOUS
10
0.150286
20
0.054834
30
0.0
11
0.150286
21
0.055345
31
0.0
0
LINE
8
0
6
CONTINUOUS
10
0.148738
20
0.054464
30
0.0
11
0.150286
21
0.054834
31
0.0
0
LINE
8
0
6
CONTINUOUS
10
0.148738
20
0.054464
30
0.0
11
0.148738
21
0.055325
31
0.0
0
LINE
8
0
6
CONTINUOUS
10
0.148447
20
0.053389
30
0.0
11
0.148738
21
0.054464
31
0.0
0
LINE
8
0
6
CONTINUOUS
10
0.148447
20
0.054471
30
0.0
11
0.148447
21
0.053389
31
0.0
0
LINE
8
0
6
CONTINUOUS
10
0.182290
20
0.061985
30
0.0
11
0.182581
21
0.060911
31
0.0
0
LINE
8
0
6
CONTINUOUS
10
0.180741
20
0.062355
30
0.0
11
0.182290
21
0.061985
31
0.0
0
LINE
8
0
6
CONTINUOUS
10
0.179484
20
0.061651
30
0.0
11
0.180741
21
0.062355
31
0.0
0
LINE
8
0
6
CONTINUOUS
10
0.179484
20
0.062419
30
0.0
11
0.179484
21
0.061651
31
0.0
0
LINE
8
0
6
CONTINUOUS
10
0.180198
20
0.043289
30
0.0
11
0.181455
21
0.043994
31
0.0
0
LINE
8
0
6
CONTINUOUS
10
0.180198
20
0.044004
30
0.0
11
0.180198
21
0.043289
31
0.0
0
LINE
8
0
6
CONTINUOUS
10
0.190229
20
0.047878
30
0.0
11
0.190520
21
0.046803
31
0.0
0
LINE
8
0
6
CONTINUOUS
10
0.188680
20
0.048248
30
0.0
11
0.190229
21
0.047878
31
0.0
0
LINE
8
0
6
CONTINUOUS
10
0.187423
20
0.047543
30
0.0
11
0.188680
21
0.048248
31
0.0
0
LINE
8
0
6
CONTINUOUS
10
0.187423
20
0.048275
30
0.0
11
0.187423
21
0.047543
31
0.0
0
LINE
8
0
6
CONTINUOUS
10
0.184067
20
0.054223
30
0.0
11
0.184358
21
0.053149
31
0.0
0
LINE
8
0
6
CONTINUOUS
10
0.182518
20
0.054593
30
0.0
11
0.184067
21
0.054223
31
0.0
0
LINE
8
0
6
CONTINUOUS
10
0.181261
20
0.053889
30
0.0
11
0.182518
21
0.054593
31
0.0
0
LINE
8
0
6
CONTINUOUS
10
0.181261
20
0.054628
30
0.0
11
0.181261
21
0.053889
31
0.0
0
LINE
8
0
6
CONTINUOUS
10
0.190480
20
0.058574
30
0.0
11
0.190772
21
0.057500
31
0.0
0
LINE
8
0
6
CONTINUOUS
10
0.188932
20
0.058944
30
0.0
11
0.190480
21
0.058574
31
0.0
0
LINE
8
0
6
CONTINUOUS
10
0.187675
20
0.058240
30
0.0
11
0.188932
21
0.058944
31
0.0
0
LINE
8
0
6
CONTINUOUS
10
0.187675
20
0.059019
30
0.0
11
0.187675
21
0.058240
31
0.0
0
LINE
8
0
6
CONTINUOUS
10
0.187502
20
0.077092
30
0.0
11
0.188386
21
0.078014
31
0.0
0
LINE
8
0
6
CONTINUOUS
10
0.187502
20
0.077884
30
0.0
11
0.187502
21
0.077092
31
0.0
0
LINE
8
0
6
CONTINUOUS
10
0.190030
20
0.077966
30
0.0
11
0.190030
21
0.078807
31
0.0
0
LINE
8
0
6
CONTINUOUS
10
0.188386
20
0.078014
30
0.0
11
0.190030
21
0.077966
31
0.0
0
LINE
8
0
6
CONTINUOUS
10
0.188386
20
0.078883
30
0.0
11
0.188386
21
0.078014
31
0.0
0
LINE
8
0
6
CONTINUOUS
10
0.146396
20
0.064035
30
0.0
11
0.146396
21
0.064437
31
0.0
0
LINE
8
0
6
CONTINUOUS
10
0.145139
20
0.064740
30
0.0
11
0.146396
21
0.064035
31
0.0
0
LINE
8
0
6
CONTINUOUS
10
0.145139
20
0.065330
30
0.0
11
0.145139
21
0.064740
31
0.0
0
LINE
8
0
6
CONTINUOUS
10
0.143590
20
0.064370
30
0.0
11
0.143590
21
0.065286
31
0.0
0
LINE
8
0
6
CONTINUOUS
10
0.143299
20
0.063295
30
0.0
11
0.143590
21
0.064370
31
0.0
0
LINE
8
0
6
CONTINUOUS
10
0.143299
20
0.064350
30
0.0
11
0.143299
21
0.063295
31
0.0
0
LINE
8
0
6
CONTINUOUS
10
0.188672
20
0.097054
30
0.0
11
0.190278
21
0.097292
31
0.0
0
LINE
8
0
6
CONTINUOUS
10
0.187558
20
0.097857
30
0.0
11
0.188672
21
0.097054
31
0.0
0
LINE
8
0
6
CONTINUOUS
10
0.188050
20
0.098899
30
0.0
11
0.187558
21
0.097857
31
0.0
0
LINE
8
0
6
CONTINUOUS
10
0.189656
20
0.099138
30
0.0
11
0.188050
21
0.098899
31
0.0
0
LINE
8
0
6
CONTINUOUS
10
0.190770
20
0.098334
30
0.0
11
0.189656
21
0.099138
31
0.0
0
LINE
8
0
6
CONTINUOUS
10
0.190278
20
0.097292
30
0.0
11
0.190770
21
0.098334
31
0.0
0
LINE
8
0
6
CONTINUOUS
10
0.232983
20
0.072677
30
0.0
11
0.234532
21
0.073047
31
0.0
0
LINE
8
0
6
CONTINUOUS
10
0.231726
20
0.073382
30
0.0
11
0.232983
21
0.072677
31
0.0
0
LINE
8
0
6
CONTINUOUS
10
0.232017
20
0.074457
30
0.0
11
0.231726
21
0.073382
31
0.0
0
LINE
8
0
6
CONTINUOUS
10
0.233566
20
0.074827
30
0.0
11
0.232017
21
0.074457
31
0.0
0
LINE
8
0
6
CONTINUOUS
10
0.234823
20
0.074122
30
0.0
11
0.233566
21
0.074827
31
0.0
0
LINE
8
0
6
CONTINUOUS
10
0.234532
20
0.073047
30
0.0
11
0.234823
21
0.074122
31
0.0
0
LINE
8
0
6
CONTINUOUS
10
0.175202
20
0.040403
30
0.0
11
0.173654
21
0.040773
31
0.0
0
LINE
8
0
6
CONTINUOUS
10
0.175493
20
0.039329
30
0.0
11
0.175202
21
0.040403
31
0.0
0
LINE
8
0
6
CONTINUOUS
10
0.174236
20
0.038624
30
0.0
11
0.175493
21
0.039329
31
0.0
0
LINE
8
0
6
CONTINUOUS
10
0.172687
20
0.038994
30
0.0
11
0.174236
21
0.038624
31
0.0
0
LINE
8
0
6
CONTINUOUS
10
0.172396
20
0.040069
30
0.0
11
0.172687
21
0.038994
31
0.0
0
LINE
8
0
6
CONTINUOUS
10
0.173654
20
0.040773
30
0.0
11
0.172396
21
0.040069
31
0.0
0
LINE
8
0
6
CONTINUOUS
10
0.174782
20
0.080408
30
0.0
11
0.176427
21
0.080455
31
0.0
0
LINE
8
0
6
CONTINUOUS
10
0.173899
20
0.081329
30
0.0
11
0.174782
21
0.080408
31
0.0
0
LINE
8
0
6
CONTINUOUS
10
0.174659
20
0.082297
30
0.0
11
0.173899
21
0.081329
31
0.0
0
LINE
8
0
6
CONTINUOUS
10
0.176303
20
0.082344
30
0.0
11
0.174659
21
0.082297
31
0.0
0
LINE
8
0
6
CONTINUOUS
10
0.177187
20
0.081423
30
0.0
11
0.176303
21
0.082344
31
0.0
0
LINE
8
0
6
CONTINUOUS
10
0.176427
20
0.080455
30
0.0
11
0.177187
21
0.081423
31
0.0
0
LINE
8
0
6
CONTINUOUS
10
0.165534
20
0.055524
30
0.0
11
0.167082
21
0.055894
31
0.0
0
LINE
8
0
6
CONTINUOUS
10
0.164277
20
0.056229
30
0.0
11
0.165534
21
0.055524
31
0.0
0
LINE
8
0
6
CONTINUOUS
10
0.164568
20
0.057304
30
0.0
11
0.164277
21
0.056229
31
0.0
0
LINE
8
0
6
CONTINUOUS
10
0.166116
20
0.057674
30
0.0
11
0.164568
21
0.057304
31
0.0
0
LINE
8
0
6
CONTINUOUS
10
0.167373
20
0.056969
30
0.0
11
0.166116
21
0.057674
31
0.0
0
LINE
8
0
6
CONTINUOUS
10
0.167082
20
0.055894
30
0.0
11
0.167373
21
0.056969
31
0.0
0
LINE
8
0
6
CONTINUOUS
10
0.175917
20
0.048860
30
0.0
11
0.177174
21
0.049565
31
0.0
0
LINE
8
0
6
CONTINUOUS
10
0.174368
20
0.049231
30
0.0
11
0.175917
21
0.048860
31
0.0
0
LINE
8
0
6
CONTINUOUS
10
0.174077
20
0.050305
30
0.0
11
0.174368
21
0.049231
31
0.0
0
LINE
8
0
6
CONTINUOUS
10
0.175334
20
0.051010
30
0.0
11
0.174077
21
0.050305
31
0.0
0
LINE
8
0
6
CONTINUOUS
10
0.176883
20
0.050640
30
0.0
11
0.175334
21
0.051010
31
0.0
0
LINE
8
0
6
CONTINUOUS
10
0.177174
20
0.049565
30
0.0
11
0.176883
21
0.050640
31
0.0
0
LINE
8
0
6
CONTINUOUS
10
0.197164
20
0.066228
30
0.0
11
0.198541
21
0.066826
31
0.0
0
LINE
8
0
6
CONTINUOUS
10
0.195695
20
0.066720
30
0.0
11
0.197164
21
0.066228
31
0.0
0
LINE
8
0
6
CONTINUOUS
10
0.195603
20
0.067810
30
0.0
11
0.195695
21
0.066720
31
0.0
0
LINE
8
0
6
CONTINUOUS
10
0.196980
20
0.068408
30
0.0
11
0.195603
21
0.067810
31
0.0
0
LINE
8
0
6
CONTINUOUS
10
0.198449
20
0.067916
30
0.0
11
0.196980
21
0.068408
31
0.0
0
LINE
8
0
6
CONTINUOUS
10
0.198541
20
0.066826
30
0.0
11
0.198449
21
0.067916
31
0.0
0
LINE
8
0
6
CONTINUOUS
10
0.150430
20
0.084834
30
0.0
11
0.148961
21
0.084342
31
0.0
0
LINE
8
0
6
CONTINUOUS
10
0.151808
20
0.084236
30
0.0
11
0.150430
21
0.084834
31
0.0
0
LINE
8
0
6
CONTINUOUS
10
0.151715
20
0.083145
30
0.0
11
0.151808
21
0.084236
31
0.0
0
LINE
8
0
6
CONTINUOUS
10
0.150246
20
0.082653
30
0.0
11
0.151715
21
0.083145
31
0.0
0
LINE
8
0
6
CONTINUOUS
10
0.148869
20
0.083251
30
0.0
11
0.150246
21
0.082653
31
0.0
0
LINE
8
0
6
CONTINUOUS
10
0.148961
20
0.084342
30
0.0
11
0.148869
21
0.083251
31
0.0
0
LINE
8
0
6
CONTINUOUS
10
0.213725
20
0.057221
30
0.0
11
0.212176
21
0.057591
31
0.0
0
LINE
8
0
6
CONTINUOUS
10
0.214016
20
0.056146
30
0.0
11
0.213725
21
0.057221
31
0.0
0
LINE
8
0
6
CONTINUOUS
10
0.212759
20
0.055441
30
0.0
11
0.214016
21
0.056146
31
0.0
0
LINE
8
0
6
CONTINUOUS
10
0.211210
20
0.055811
30
0.0
11
0.212759
21
0.055441
31
0.0
0
LINE
8
0
6
CONTINUOUS
10
0.210919
20
0.056886
30
0.0
11
0.211210
21
0.055811
31
0.0
0
LINE
8
0
6
CONTINUOUS
10
0.212176
20
0.057591
30
0.0
11
0.210919
21
0.056886
31
0.0
0
LINE
8
0
6
CONTINUOUS
10
0.163418
20
0.082387
30
0.0
11
0.163854
21
0.083440
31
0.0
0
LINE
8
0
6
CONTINUOUS
10
0.161825
20
0.082111
30
0.0
11
0.163418
21
0.082387
31
0.0
0
LINE
8
0
6
CONTINUOUS
10
0.160669
20
0.082888
30
0.0
11
0.161825
21
0.082111
31
0.0
0
LINE
8
0
6
CONTINUOUS
10
0.161105
20
0.083941
30
0.0
11
0.160669
21
0.082888
31
0.0
0
LINE
8
0
6
CONTINUOUS
10
0.162697
20
0.084217
30
0.0
11
0.161105
21
0.083941
31
0.0
0
LINE
8
0
6
CONTINUOUS
10
0.163854
20
0.083440
30
0.0
11
0.162697
21
0.084217
31
0.0
0
LINE
8
0
6
CONTINUOUS
10
0.196837
20
0.043940
30
0.0
11
0.195289
21
0.043570
31
0.0
0
LINE
8
0
6
CONTINUOUS
10
0.198095
20
0.043235
30
0.0
11
0.196837
21
0.043940
31
0.0
0
LINE
8
0
6
CONTINUOUS
10
0.197804
20
0.042160
30
0.0
11
0.198095
21
0.043235
31
0.0
0
LINE
8
0
6
CONTINUOUS
10
0.196255
20
0.041790
30
0.0
11
0.197804
21
0.042160
31
0.0
0
LINE
8
0
6
CONTINUOUS
10
0.194998
20
0.042495
30
0.0
11
0.196255
21
0.041790
31
0.0
0
LINE
8
0
6
CONTINUOUS
10
0.195289
20
0.043570
30
0.0
11
0.194998
21
0.042495
31
0.0
0
LINE
8
0
6
CONTINUOUS
10
0.181128
20
0.066255
30
0.0
11
0.182598
21
0.066747
31
0.0
0
LINE
8
0
6
CONTINUOUS
10
0.179751
20
0.066853
30
0.0
11
0.181128
21
0.066255
31
0.0
0
LINE
8
0
6
CONTINUOUS
10
0.179843
20
0.067943
30
0.0
11
0.179751
21
0.066853
31
0.0
0
LINE
8
0
6
CONTINUOUS
10
0.181313
20
0.068435
30
0.0
11
0.179843
21
0.067943
31
0.0
0
LINE
8
0
6
CONTINUOUS
10
0.182690
20
0.067837
30
0.0
11
0.181313
21
0.068435
31
0.0
0
LINE
8
0
6
CONTINUOUS
10
0.182598
20
0.066747
30
0.0
11
0.182690
21
0.067837
31
0.0
0
LINE
8
0
6
CONTINUOUS
10
0.215876
20
0.064507
30
0.0
11
0.217424
21
0.064877
31
0.0
0
LINE
8
0
6
CONTINUOUS
10
0.214618
20
0.065212
30
0.0
11
0.215876
21
0.064507
31
0.0
0
LINE
8
0
6
CONTINUOUS
10
0.214910
20
0.066287
30
0.0
11
0.214618
21
0.065212
31
0.0
0
LINE
8
0
6
CONTINUOUS
10
0.216458
20
0.066657
30
0.0
11
0.214910
21
0.066287
31
0.0
0
LINE
8
0
6
CONTINUOUS
10
0.217715
20
0.065952
30
0.0
11
0.216458
21
0.066657
31
0.0
0
LINE
8
0
6
CONTINUOUS
10
0.217424
20
0.064877
30
0.0
11
0.217715
21
0.065952
31
0.0
0
LINE
8
0
6
CONTINUOUS
10
0.208459
20
0.067436
30
0.0
11
0.206990
21
0.067928
31
0.0
0
LINE
8
0
6
CONTINUOUS
10
0.208551
20
0.066346
30
0.0
11
0.208459
21
0.067436
31
0.0
0
LINE
8
0
6
CONTINUOUS
10
0.207174
20
0.065748
30
0.0
11
0.208551
21
0.066346
31
0.0
0
LINE
8
0
6
CONTINUOUS
10
0.205705
20
0.066240
30
0.0
11
0.207174
21
0.065748
31
0.0
0
LINE
8
0
6
CONTINUOUS
10
0.205613
20
0.067330
30
0.0
11
0.205705
21
0.066240
31
0.0
0
LINE
8
0
6
CONTINUOUS
10
0.206990
20
0.067928
30
0.0
11
0.205613
21
0.067330
31
0.0
0
LINE
8
0
6
CONTINUOUS
10
0.189876
20
0.084556
30
0.0
11
0.188254
21
0.084740
31
0.0
0
LINE
8
0
6
CONTINUOUS
10
0.190448
20
0.083532
30
0.0
11
0.189876
21
0.084556
31
0.0
0
LINE
8
0
6
CONTINUOUS
10
0.189397
20
0.082691
30
0.0
11
0.190448
21
0.083532
31
0.0
0
LINE
8
0
6
CONTINUOUS
10
0.187774
20
0.082875
30
0.0
11
0.189397
21
0.082691
31
0.0
0
LINE
8
0
6
CONTINUOUS
10
0.187203
20
0.083899
30
0.0
11
0.187774
21
0.082875
31
0.0
0
LINE
8
0
6
CONTINUOUS
10
0.188254
20
0.084740
30
0.0
11
0.187203
21
0.083899
31
0.0
0
LINE
8
0
6
CONTINUOUS
10
0.174811
20
0.059425
30
0.0
11
0.173262
21
0.059795
31
0.0
0
LINE
8
0
6
CONTINUOUS
10
0.175102
20
0.058350
30
0.0
11
0.174811
21
0.059425
31
0.0
0
LINE
8
0
6
CONTINUOUS
10
0.173845
20
0.057645
30
0.0
11
0.175102
21
0.058350
31
0.0
0
LINE
8
0
6
CONTINUOUS
10
0.172296
20
0.058015
30
0.0
11
0.173845
21
0.057645
31
0.0
0
LINE
8
0
6
CONTINUOUS
10
0.172005
20
0.059090
30
0.0
11
0.172296
21
0.058015
31
0.0
0
LINE
8
0
6
CONTINUOUS
10
0.173262
20
0.059795
30
0.0
11
0.172005
21
0.059090
31
0.0
0
LINE
8
0
6
CONTINUOUS
10
0.201989
20
0.082309
30
0.0
11
0.201105
21
0.081388
31
0.0
0
LINE
8
0
6
CONTINUOUS
10
0.203633
20
0.082262
30
0.0
11
0.201989
21
0.082309
31
0.0
0
LINE
8
0
6
CONTINUOUS
10
0.204394
20
0.081293
30
0.0
11
0.203633
21
0.082262
31
0.0
0
LINE
8
0
6
CONTINUOUS
10
0.203510
20
0.080372
30
0.0
11
0.204394
21
0.081293
31
0.0
0
LINE
8
0
6
CONTINUOUS
10
0.201866
20
0.080419
30
0.0
11
0.203510
21
0.080372
31
0.0
0
LINE
8
0
6
CONTINUOUS
10
0.201105
20
0.081388
30
0.0
11
0.201866
21
0.080419
31
0.0
0
LINE
8
0
6
CONTINUOUS
10
0.174982
20
0.097442
30
0.0
11
0.173360
21
0.097625
31
0.0
0
LINE
8
0
6
CONTINUOUS
10
0.175554
20
0.096418
30
0.0
11
0.174982
21
0.097442
31
0.0
0
LINE
8
0
6
CONTINUOUS
10
0.174503
20
0.095577
30
0.0
11
0.175554
21
0.096418
31
0.0
0
LINE
8
0
6
CONTINUOUS
10
0.172880
20
0.095761
30
0.0
11
0.174503
21
0.095577
31
0.0
0
LINE
8
0
6
CONTINUOUS
10
0.172309
20
0.096785
30
0.0
11
0.172880
21
0.095761
31
0.0
0
LINE
8
0
6
CONTINUOUS
10
0.173360
20
0.097625
30
0.0
11
0.172309
21
0.096785
31
0.0
0
LINE
8
0
6
CONTINUOUS
10
0.156046
20
0.074044
30
0.0
11
0.156138
21
0.075134
31
0.0
0
LINE
8
0
6
CONTINUOUS
10
0.154577
20
0.073551
30
0.0
11
0.156046
21
0.074044
31
0.0
0
LINE
8
0
6
CONTINUOUS
10
0.153200
20
0.074149
30
0.0
11
0.154577
21
0.073551
31
0.0
0
LINE
8
0
6
CONTINUOUS
10
0.153292
20
0.075240
30
0.0
11
0.153200
21
0.074149
31
0.0
0
LINE
8
0
6
CONTINUOUS
10
0.154761
20
0.075732
30
0.0
11
0.153292
21
0.075240
31
0.0
0
LINE
8
0
6
CONTINUOUS
10
0.156138
20
0.075134
30
0.0
11
0.154761
21
0.075732
31
0.0
0
LINE
8
0
6
CONTINUOUS
10
0.215595
20
0.084097
30
0.0
11
0.214439
21
0.083320
31
0.0
0
LINE
8
0
6
CONTINUOUS
10
0.217188
20
0.083821
30
0.0
11
0.215595
21
0.084097
31
0.0
0
LINE
8
0
6
CONTINUOUS
10
0.217624
20
0.082768
30
0.0
11
0.217188
21
0.083821
31
0.0
0
LINE
8
0
6
CONTINUOUS
10
0.216467
20
0.081991
30
0.0
11
0.217624
21
0.082768
31
0.0
0
LINE
8
0
6
CONTINUOUS
10
0.214875
20
0.082267
30
0.0
11
0.216467
21
0.081991
31
0.0
0
LINE
8
0
6
CONTINUOUS
10
0.214439
20
0.083320
30
0.0
11
0.214875
21
0.082267
31
0.0
0
LINE
8
0
6
CONTINUOUS
10
0.182518
20
0.054593
30
0.0
11
0.181261
21
0.053889
31
0.0
0
LINE
8
0
6
CONTINUOUS
10
0.184067
20
0.054223
30
0.0
11
0.182518
21
0.054593
31
0.0
0
LINE
8
0
6
CONTINUOUS
10
0.184358
20
0.053149
30
0.0
11
0.184067
21
0.054223
31
0.0
0
LINE
8
0
6
CONTINUOUS
10
0.183100
20
0.052444
30
0.0
11
0.184358
21
0.053149
31
0.0
0
LINE
8
0
6
CONTINUOUS
10
0.181552
20
0.052814
30
0.0
11
0.183100
21
0.052444
31
0.0
0
LINE
8
0
6
CONTINUOUS
10
0.181261
20
0.053889
30
0.0
11
0.181552
21
0.052814
31
0.0
0
LINE
8
0
6
CONTINUOUS
10
0.145139
20
0.064740
30
0.0
11
0.143590
21
0.064370
31
0.0
0
LINE
8
0
6
CONTINUOUS
10
0.146396
20
0.064035
30
0.0
11
0.145139
21
0.064740
31
0.0
0
LINE
8
0
6
CONTINUOUS
10
0.146105
20
0.062961
30
0.0
11
0.146396
21
0.064035
31
0.0
0
LINE
8
0
6
CONTINUOUS
10
0.144556
20
0.062591
30
0.0
11
0.146105
21
0.062961
31
0.0
0
LINE
8
0
6
CONTINUOUS
10
0.143299
20
0.063295
30
0.0
11
0.144556
21
0.062591
31
0.0
0
LINE
8
0
6
CONTINUOUS
10
0.143590
20
0.064370
30
0.0
11
0.143299
21
0.063295
31
0.0
0
LINE
8
0
6
CONTINUOUS
10
0.205412
20
0.095695
30
0.0
11
0.205984
21
0.096719
31
0.0
0
LINE
8
0
6
CONTINUOUS
10
0.203790
20
0.095511
30
0.0
11
0.205412
21
0.095695
31
0.0
0
LINE
8
0
6
CONTINUOUS
10
0.202739
20
0.096352
30
0.0
11
0.203790
21
0.095511
31
0.0
0
LINE
8
0
6
CONTINUOUS
10
0.203310
20
0.097376
30
0.0
11
0.202739
21
0.096352
31
0.0
0
LINE
8
0
6
CONTINUOUS
10
0.204933
20
0.097559
30
0.0
11
0.203310
21
0.097376
31
0.0
0
LINE
8
0
6
CONTINUOUS
10
0.205984
20
0.096719
30
0.0
11
0.204933
21
0.097559
31
0.0
0
LINE
8
0
6
CONTINUOUS
10
0.189514
20
0.090032
30
0.0
11
0.190565
21
0.090873
31
0.0
0
LINE
8
0
6
CONTINUOUS
10
0.187892
20
0.090216
30
0.0
11
0.189514
21
0.090032
31
0.0
0
LINE
8
0
6
CONTINUOUS
10
0.187320
20
0.091240
30
0.0
11
0.187892
21
0.090216
31
0.0
0
LINE
8
0
6
CONTINUOUS
10
0.188371
20
0.092080
30
0.0
11
0.187320
21
0.091240
31
0.0
0
LINE
8
0
6
CONTINUOUS
10
0.189993
20
0.091897
30
0.0
11
0.188371
21
0.092080
31
0.0
0
LINE
8
0
6
CONTINUOUS
10
0.190565
20
0.090873
30
0.0
11
0.189993
21
0.091897
31
0.0
0
LINE
8
0
6
CONTINUOUS
10
0.220633
20
0.053915
30
0.0
11
0.221891
21
0.054620
31
0.0
0
LINE
8
0
6
CONTINUOUS
10
0.219085
20
0.054285
30
0.0
11
0.220633
21
0.053915
31
0.0
0
LINE
8
0
6
CONTINUOUS
10
0.218794
20
0.055360
30
0.0
11
0.219085
21
0.054285
31
0.0
0
LINE
8
0
6
CONTINUOUS
10
0.220051
20
0.056065
30
0.0
11
0.218794
21
0.055360
31
0.0
0
LINE
8
0
6
CONTINUOUS
10
0.221600
20
0.055695
30
0.0
11
0.220051
21
0.056065
31
0.0
0
LINE
8
0
6
CONTINUOUS
10
0.221891
20
0.054620
30
0.0
11
0.221600
21
0.055695
31
0.0
0
LINE
8
0
6
CONTINUOUS
10
0.190292
20
0.038580
30
0.0
11
0.188744
21
0.038950
31
0.0
0
LINE
8
0
6
CONTINUOUS
10
0.190583
20
0.037505
30
0.0
11
0.190292
21
0.038580
31
0.0
0
LINE
8
0
6
CONTINUOUS
10
0.189326
20
0.036801
30
0.0
11
0.190583
21
0.037505
31
0.0
0
LINE
8
0
6
CONTINUOUS
10
0.187777
20
0.037171
30
0.0
11
0.189326
21
0.036801
31
0.0
0
LINE
8
0
6
CONTINUOUS
10
0.187486
20
0.038246
30
0.0
11
0.187777
21
0.037171
31
0.0
0
LINE
8
0
6
CONTINUOUS
10
0.188744
20
0.038950
30
0.0
11
0.187486
21
0.038246
31
0.0
0
LINE
8
0
6
CONTINUOUS
10
0.205030
20
0.059727
30
0.0
11
0.203482
21
0.059357
31
0.0
0
LINE
8
0
6
CONTINUOUS
10
0.206287
20
0.059023
30
0.0
11
0.205030
21
0.059727
31
0.0
0
LINE
8
0
6
CONTINUOUS
10
0.205996
20
0.057948
30
0.0
11
0.206287
21
0.059023
31
0.0
0
LINE
8
0
6
CONTINUOUS
10
0.204448
20
0.057578
30
0.0
11
0.205996
21
0.057948
31
0.0
0
LINE
8
0
6
CONTINUOUS
10
0.203191
20
0.058282
30
0.0
11
0.204448
21
0.057578
31
0.0
0
LINE
8
0
6
CONTINUOUS
10
0.203482
20
0.059357
30
0.0
11
0.203191
21
0.058282
31
0.0
0
LINE
8
0
6
CONTINUOUS
10
0.145309
20
0.072841
30
0.0
11
0.146567
21
0.073545
31
0.0
0
LINE
8
0
6
CONTINUOUS
10
0.143761
20
0.073211
30
0.0
11
0.145309
21
0.072841
31
0.0
0
LINE
8
0
6
CONTINUOUS
10
0.143470
20
0.074285
30
0.0
11
0.143761
21
0.073211
31
0.0
0
LINE
8
0
6
CONTINUOUS
10
0.144727
20
0.074990
30
0.0
11
0.143470
21
0.074285
31
0.0
0
LINE
8
0
6
CONTINUOUS
10
0.146275
20
0.074620
30
0.0
11
0.144727
21
0.074990
31
0.0
0
LINE
8
0
6
CONTINUOUS
10
0.146567
20
0.073545
30
0.0
11
0.146275
21
0.074620
31
0.0
0
LINE
8
0
6
CONTINUOUS
10
0.188680
20
0.048248
30
0.0
11
0.187423
21
0.047543
31
0.0
0
LINE
8
0
6
CONTINUOUS
10
0.190229
20
0.047878
30
0.0
11
0.188680
21
0.048248
31
0.0
0
LINE
8
0
6
CONTINUOUS
10
0.190520
20
0.046803
30
0.0
11
0.190229
21
0.047878
31
0.0
0
LINE
8
0
6
CONTINUOUS
10
0.189263
20
0.046099
30
0.0
11
0.190520
21
0.046803
31
0.0
0
LINE
8
0
6
CONTINUOUS
10
0.187714
20
0.046469
30
0.0
11
0.189263
21
0.046099
31
0.0
0
LINE
8
0
6
CONTINUOUS
10
0.187423
20
0.047543
30
0.0
11
0.187714
21
0.046469
31
0.0
0
LINE
8
0
6
CONTINUOUS
10
0.190030
20
0.077966
30
0.0
11
0.188386
21
0.078014
31
0.0
0
LINE
8
0
6
CONTINUOUS
10
0.190791
20
0.076998
30
0.0
11
0.190030
21
0.077966
31
0.0
0
LINE
8
0
6
CONTINUOUS
10
0.189907
20
0.076077
30
0.0
11
0.190791
21
0.076998
31
0.0
0
LINE
8
0
6
CONTINUOUS
10
0.188262
20
0.076124
30
0.0
11
0.189907
21
0.076077
31
0.0
0
LINE
8
0
6
CONTINUOUS
10
0.187502
20
0.077092
30
0.0
11
0.188262
21
0.076124
31
0.0
0
LINE
8
0
6
CONTINUOUS
10
0.188386
20
0.078014
30
0.0
11
0.187502
21
0.077092
31
0.0
0
LINE
8
0
6
CONTINUOUS
10
0.181324
20
0.060206
30
0.0
11
0.182581
21
0.060911
31
0.0
0
LINE
8
0
6
CONTINUOUS
10
0.179775
20
0.060576
30
0.0
11
0.181324
21
0.060206
31
0.0
0
LINE
8
0
6
CONTINUOUS
10
0.179484
20
0.061651
30
0.0
11
0.179775
21
0.060576
31
0.0
0
LINE
8
0
6
CONTINUOUS
10
0.180741
20
0.062355
30
0.0
11
0.179484
21
0.061651
31
0.0
0
LINE
8
0
6
CONTINUOUS
10
0.182290
20
0.061985
30
0.0
11
0.180741
21
0.062355
31
0.0
0
LINE
8
0
6
CONTINUOUS
10
0.182581
20
0.060911
30
0.0
11
0.182290
21
0.061985
31
0.0
0
LINE
8
0
6
CONTINUOUS
10
0.196969
20
0.060177
30
0.0
11
0.198517
21
0.060547
31
0.0
0
LINE
8
0
6
CONTINUOUS
10
0.195711
20
0.060882
30
0.0
11
0.196969
21
0.060177
31
0.0
0
LINE
8
0
6
CONTINUOUS
10
0.196003
20
0.061957
30
0.0
11
0.195711
21
0.060882
31
0.0
0
LINE
8
0
6
CONTINUOUS
10
0.197551
20
0.062327
30
0.0
11
0.196003
21
0.061957
31
0.0
0
LINE
8
0
6
CONTINUOUS
10
0.198808
20
0.061622
30
0.0
11
0.197551
21
0.062327
31
0.0
0
LINE
8
0
6
CONTINUOUS
10
0.198517
20
0.060547
30
0.0
11
0.198808
21
0.061622
31
0.0
0
LINE
8
0
6
CONTINUOUS
10
0.218411
20
0.044014
30
0.0
11
0.219668
21
0.044718
31
0.0
0
LINE
8
0
6
CONTINUOUS
10
0.216862
20
0.044384
30
0.0
11
0.218411
21
0.044014
31
0.0
0
LINE
8
0
6
CONTINUOUS
10
0.216571
20
0.045459
30
0.0
11
0.216862
21
0.044384
31
0.0
0
LINE
8
0
6
CONTINUOUS
10
0.217828
20
0.046163
30
0.0
11
0.216571
21
0.045459
31
0.0
0
LINE
8
0
6
CONTINUOUS
10
0.219377
20
0.045793
30
0.0
11
0.217828
21
0.046163
31
0.0
0
LINE
8
0
6
CONTINUOUS
10
0.219668
20
0.044718
30
0.0
11
0.219377
21
0.045793
31
0.0
0
LINE
8
0
6
CONTINUOUS
10
0.195192
20
0.052420
30
0.0
11
0.196740
21
0.052790
31
0.0
0
LINE
8
0
6
CONTINUOUS
10
0.193935
20
0.053124
30
0.0
11
0.195192
21
0.052420
31
0.0
0
LINE
8
0
6
CONTINUOUS
10
0.194226
20
0.054199
30
0.0
11
0.193935
21
0.053124
31
0.0
0
LINE
8
0
6
CONTINUOUS
10
0.195774
20
0.054569
30
0.0
11
0.194226
21
0.054199
31
0.0
0
LINE
8
0
6
CONTINUOUS
10
0.197032
20
0.053865
30
0.0
11
0.195774
21
0.054569
31
0.0
0
LINE
8
0
6
CONTINUOUS
10
0.196740
20
0.052790
30
0.0
11
0.197032
21
0.053865
31
0.0
0
LINE
8
0
6
CONTINUOUS
10
0.161834
20
0.066760
30
0.0
11
0.160577
21
0.066055
31
0.0
0
LINE
8
0
6
CONTINUOUS
10
0.163383
20
0.066389
30
0.0
11
0.161834
21
0.066760
31
0.0
0
LINE
8
0
6
CONTINUOUS
10
0.163674
20
0.065315
30
0.0
11
0.163383
21
0.066389
31
0.0
0
LINE
8
0
6
CONTINUOUS
10
0.162417
20
0.064610
30
0.0
11
0.163674
21
0.065315
31
0.0
0
LINE
8
0
6
CONTINUOUS
10
0.160868
20
0.064980
30
0.0
11
0.162417
21
0.064610
31
0.0
0
LINE
8
0
6
CONTINUOUS
10
0.160577
20
0.066055
30
0.0
11
0.160868
21
0.064980
31
0.0
0
LINE
8
0
6
CONTINUOUS
10
0.189514
20
0.056795
30
0.0
11
0.190772
21
0.057500
31
0.0
0
LINE
8
0
6
CONTINUOUS
10
0.187966
20
0.057165
30
0.0
11
0.189514
21
0.056795
31
0.0
0
LINE
8
0
6
CONTINUOUS
10
0.187675
20
0.058240
30
0.0
11
0.187966
21
0.057165
31
0.0
0
LINE
8
0
6
CONTINUOUS
10
0.188932
20
0.058944
30
0.0
11
0.187675
21
0.058240
31
0.0
0
LINE
8
0
6
CONTINUOUS
10
0.190480
20
0.058574
30
0.0
11
0.188932
21
0.058944
31
0.0
0
LINE
8
0
6
CONTINUOUS
10
0.190772
20
0.057500
30
0.0
11
0.190480
21
0.058574
31
0.0
0
LINE
8
0
6
CONTINUOUS
10
0.161430
20
0.044639
30
0.0
11
0.161721
21
0.045713
31
0.0
0
LINE
8
0
6
CONTINUOUS
10
0.159882
20
0.044269
30
0.0
11
0.161430
21
0.044639
31
0.0
0
LINE
8
0
6
CONTINUOUS
10
0.158624
20
0.044973
30
0.0
11
0.159882
21
0.044269
31
0.0
0
LINE
8
0
6
CONTINUOUS
10
0.158915
20
0.046048
30
0.0
11
0.158624
21
0.044973
31
0.0
0
LINE
8
0
6
CONTINUOUS
10
0.160464
20
0.046418
30
0.0
11
0.158915
21
0.046048
31
0.0
0
LINE
8
0
6
CONTINUOUS
10
0.161721
20
0.045713
30
0.0
11
0.160464
21
0.046418
31
0.0
0
LINE
8
0
6
CONTINUOUS
10
0.229331
20
0.084176
30
0.0
11
0.227862
21
0.084669
31
0.0
0
LINE
8
0
6
CONTINUOUS
10
0.229423
20
0.083086
30
0.0
11
0.229331
21
0.084176
31
0.0
0
LINE
8
0
6
CONTINUOUS
10
0.228046
20
0.082488
30
0.0
11
0.229423
21
0.083086
31
0.0
0
LINE
8
0
6
CONTINUOUS
10
0.226577
20
0.082980
30
0.0
11
0.228046
21
0.082488
31
0.0
0
LINE
8
0
6
CONTINUOUS
10
0.226485
20
0.084071
30
0.0
11
0.226577
21
0.082980
31
0.0
0
LINE
8
0
6
CONTINUOUS
10
0.227862
20
0.084669
30
0.0
11
0.226485
21
0.084071
31
0.0
0
LINE
8
0
6
CONTINUOUS
10
0.212406
20
0.076063
30
0.0
11
0.211029
21
0.075465
31
0.0
0
LINE
8
0
6
CONTINUOUS
10
0.213875
20
0.075571
30
0.0
11
0.212406
21
0.076063
31
0.0
0
LINE
8
0
6
CONTINUOUS
10
0.213967
20
0.074481
30
0.0
11
0.213875
21
0.075571
31
0.0
0
LINE
8
0
6
CONTINUOUS
10
0.212590
20
0.073882
30
0.0
11
0.213967
21
0.074481
31
0.0
0
LINE
8
0
6
CONTINUOUS
10
0.211121
20
0.074375
30
0.0
11
0.212590
21
0.073882
31
0.0
0
LINE
8
0
6
CONTINUOUS
10
0.211029
20
0.075465
30
0.0
11
0.211121
21
0.074375
31
0.0
0
LINE
8
0
6
CONTINUOUS
10
0.202376
20
0.048815
30
0.0
11
0.203924
21
0.049185
31
0.0
0
LINE
8
0
6
CONTINUOUS
10
0.201119
20
0.049520
30
0.0
11
0.202376
21
0.048815
31
0.0
0
LINE
8
0
6
CONTINUOUS
10
0.201410
20
0.050594
30
0.0
11
0.201119
21
0.049520
31
0.0
0
LINE
8
0
6
CONTINUOUS
10
0.202958
20
0.050964
30
0.0
11
0.201410
21
0.050594
31
0.0
0
LINE
8
0
6
CONTINUOUS
10
0.204215
20
0.050260
30
0.0
11
0.202958
21
0.050964
31
0.0
0
LINE
8
0
6
CONTINUOUS
10
0.203924
20
0.049185
30
0.0
11
0.204215
21
0.050260
31
0.0
0
LINE
8
0
6
CONTINUOUS
10
0.204639
20
0.040270
30
0.0
11
0.203090
21
0.039899
31
0.0
0
LINE
8
0
6
CONTINUOUS
10
0.205896
20
0.039565
30
0.0
11
0.204639
21
0.040270
31
0.0
0
LINE
8
0
6
CONTINUOUS
10
0.205605
20
0.038490
30
0.0
11
0.205896
21
0.039565
31
0.0
0
LINE
8
0
6
CONTINUOUS
10
0.204056
20
0.038120
30
0.0
11
0.205605
21
0.038490
31
0.0
0
LINE
8
0
6
CONTINUOUS
10
0.202799
20
0.038825
30
0.0
11
0.204056
21
0.038120
31
0.0
0
LINE
8
0
6
CONTINUOUS
10
0.203090
20
0.039899
30
0.0
11
0.202799
21
0.038825
31
0.0
0
LINE
8
0
6
CONTINUOUS
10
0.160794
20
0.092620
30
0.0
11
0.159202
21
0.092344
31
0.0
0
LINE
8
0
6
CONTINUOUS
10
0.161951
20
0.091843
30
0.0
11
0.160794
21
0.092620
31
0.0
0
LINE
8
0
6
CONTINUOUS
10
0.161514
20
0.090790
30
0.0
11
0.161951
21
0.091843
31
0.0
0
LINE
8
0
6
CONTINUOUS
10
0.159922
20
0.090514
30
0.0
11
0.161514
21
0.090790
31
0.0
0
LINE
8
0
6
CONTINUOUS
10
0.158766
20
0.091291
30
0.0
11
0.159922
21
0.090514
31
0.0
0
LINE
8
0
6
CONTINUOUS
10
0.159202
20
0.092344
30
0.0
11
0.158766
21
0.091291
31
0.0
0
LINE
8
0
6
CONTINUOUS
10
0.226231
20
0.063486
30
0.0
11
0.226523
21
0.064560
31
0.0
0
LINE
8
0
6
CONTINUOUS
10
0.224683
20
0.063116
30
0.0
11
0.226231
21
0.063486
31
0.0
0
LINE
8
0
6
CONTINUOUS
10
0.223426
20
0.063820
30
0.0
11
0.224683
21
0.063116
31
0.0
0
LINE
8
0
6
CONTINUOUS
10
0.223717
20
0.064895
30
0.0
11
0.223426
21
0.063820
31
0.0
0
LINE
8
0
6
CONTINUOUS
10
0.225265
20
0.065265
30
0.0
11
0.223717
21
0.064895
31
0.0
0
LINE
8
0
6
CONTINUOUS
10
0.226523
20
0.064560
30
0.0
11
0.225265
21
0.065265
31
0.0
0
LINE
8
0
6
CONTINUOUS
10
0.168509
20
0.048259
30
0.0
11
0.166960
21
0.047888
31
0.0
0
LINE
8
0
6
CONTINUOUS
10
0.169766
20
0.047554
30
0.0
11
0.168509
21
0.048259
31
0.0
0
LINE
8
0
6
CONTINUOUS
10
0.169475
20
0.046479
30
0.0
11
0.169766
21
0.047554
31
0.0
0
LINE
8
0
6
CONTINUOUS
10
0.167926
20
0.046109
30
0.0
11
0.169475
21
0.046479
31
0.0
0
LINE
8
0
6
CONTINUOUS
10
0.166669
20
0.046814
30
0.0
11
0.167926
21
0.046109
31
0.0
0
LINE
8
0
6
CONTINUOUS
10
0.166960
20
0.047888
30
0.0
11
0.166669
21
0.046814
31
0.0
0
LINE
8
0
6
CONTINUOUS
10
0.175367
20
0.089869
30
0.0
11
0.173723
21
0.089822
31
0.0
0
LINE
8
0
6
CONTINUOUS
10
0.176251
20
0.088948
30
0.0
11
0.175367
21
0.089869
31
0.0
0
LINE
8
0
6
CONTINUOUS
10
0.175491
20
0.087980
30
0.0
11
0.176251
21
0.088948
31
0.0
0
LINE
8
0
6
CONTINUOUS
10
0.173846
20
0.087932
30
0.0
11
0.175491
21
0.087980
31
0.0
0
LINE
8
0
6
CONTINUOUS
10
0.172962
20
0.088854
30
0.0
11
0.173846
21
0.087932
31
0.0
0
LINE
8
0
6
CONTINUOUS
10
0.173723
20
0.089822
30
0.0
11
0.172962
21
0.088854
31
0.0
0
LINE
8
0
6
CONTINUOUS
10
0.165887
20
0.076139
30
0.0
11
0.164418
21
0.075647
31
0.0
0
LINE
8
0
6
CONTINUOUS
10
0.167264
20
0.075541
30
0.0
11
0.165887
21
0.076139
31
0.0
0
LINE
8
0
6
CONTINUOUS
10
0.167172
20
0.074451
30
0.0
11
0.167264
21
0.075541
31
0.0
0
LINE
8
0
6
CONTINUOUS
10
0.165703
20
0.073959
30
0.0
11
0.167172
21
0.074451
31
0.0
0
LINE
8
0
6
CONTINUOUS
10
0.164326
20
0.074557
30
0.0
11
0.165703
21
0.073959
31
0.0
0
LINE
8
0
6
CONTINUOUS
10
0.164418
20
0.075647
30
0.0
11
0.164326
21
0.074557
31
0.0
0
LINE
8
0
6
CONTINUOUS
10
0.183003
20
0.043624
30
0.0
11
0.181455
21
0.043994
31
0.0
0
LINE
8
0
6
CONTINUOUS
10
0.183295
20
0.042549
30
0.0
11
0.183003
21
0.043624
31
0.0
0
LINE
8
0
6
CONTINUOUS
10
0.182037
20
0.041844
30
0.0
11
0.183295
21
0.042549
31
0.0
0
LINE
8
0
6
CONTINUOUS
10
0.180489
20
0.042214
30
0.0
11
0.182037
21
0.041844
31
0.0
0
LINE
8
0
6
CONTINUOUS
10
0.180198
20
0.043289
30
0.0
11
0.180489
21
0.042214
31
0.0
0
LINE
8
0
6
CONTINUOUS
10
0.181455
20
0.043994
30
0.0
11
0.180198
21
0.043289
31
0.0
0
LINE
8
0
6
CONTINUOUS
10
0.171118
20
0.065819
30
0.0
11
0.172587
21
0.066311
31
0.0
0
LINE
8
0
6
CONTINUOUS
10
0.169741
20
0.066417
30
0.0
11
0.171118
21
0.065819
31
0.0
0
LINE
8
0
6
CONTINUOUS
10
0.169833
20
0.067507
30
0.0
11
0.169741
21
0.066417
31
0.0
0
LINE
8
0
6
CONTINUOUS
10
0.171302
20
0.067999
30
0.0
11
0.169833
21
0.067507
31
0.0
0
LINE
8
0
6
CONTINUOUS
10
0.172679
20
0.067401
30
0.0
11
0.171302
21
0.067999
31
0.0
0
LINE
8
0
6
CONTINUOUS
10
0.172587
20
0.066311
30
0.0
11
0.172679
21
0.067401
31
0.0
0
LINE
8
0
6
CONTINUOUS
10
0.202925
20
0.089801
30
0.0
11
0.202042
21
0.088879
31
0.0
0
LINE
8
0
6
CONTINUOUS
10
0.204570
20
0.089753
30
0.0
11
0.202925
21
0.089801
31
0.0
0
LINE
8
0
6
CONTINUOUS
10
0.205330
20
0.088785
30
0.0
11
0.204570
21
0.089753
31
0.0
0
LINE
8
0
6
CONTINUOUS
10
0.204446
20
0.087864
30
0.0
11
0.205330
21
0.088785
31
0.0
0
LINE
8
0
6
CONTINUOUS
10
0.202802
20
0.087911
30
0.0
11
0.204446
21
0.087864
31
0.0
0
LINE
8
0
6
CONTINUOUS
10
0.202042
20
0.088879
30
0.0
11
0.202802
21
0.087911
31
0.0
0
LINE
8
0
6
CONTINUOUS
10
0.209784
20
0.048335
30
0.0
11
0.208527
21
0.047630
31
0.0
0
LINE
8
0
6
CONTINUOUS
10
0.211332
20
0.047965
30
0.0
11
0.209784
21
0.048335
31
0.0
0
LINE
8
0
6
CONTINUOUS
10
0.211623
20
0.046890
30
0.0
11
0.211332
21
0.047965
31
0.0
0
LINE
8
0
6
CONTINUOUS
10
0.210366
20
0.046185
30
0.0
11
0.211623
21
0.046890
31
0.0
0
LINE
8
0
6
CONTINUOUS
10
0.208818
20
0.046556
30
0.0
11
0.210366
21
0.046185
31
0.0
0
LINE
8
0
6
CONTINUOUS
10
0.208527
20
0.047630
30
0.0
11
0.208818
21
0.046556
31
0.0
0
LINE
8
0
6
CONTINUOUS
10
0.157659
20
0.054014
30
0.0
11
0.159207
21
0.054384
31
0.0
0
LINE
8
0
6
CONTINUOUS
10
0.156402
20
0.054719
30
0.0
11
0.157659
21
0.054014
31
0.0
0
LINE
8
0
6
CONTINUOUS
10
0.156693
20
0.055793
30
0.0
11
0.156402
21
0.054719
31
0.0
0
LINE
8
0
6
CONTINUOUS
10
0.158241
20
0.056163
30
0.0
11
0.156693
21
0.055793
31
0.0
0
LINE
8
0
6
CONTINUOUS
10
0.159499
20
0.055459
30
0.0
11
0.158241
21
0.056163
31
0.0
0
LINE
8
0
6
CONTINUOUS
10
0.159207
20
0.054384
30
0.0
11
0.159499
21
0.055459
31
0.0
0
LINE
8
0
6
CONTINUOUS
10
0.153027
20
0.065391
30
0.0
11
0.151770
21
0.064687
31
0.0
0
LINE
8
0
6
CONTINUOUS
10
0.154576
20
0.065021
30
0.0
11
0.153027
21
0.065391
31
0.0
0
LINE
8
0
6
CONTINUOUS
10
0.154867
20
0.063947
30
0.0
11
0.154576
21
0.065021
31
0.0
0
LINE
8
0
6
CONTINUOUS
10
0.153609
20
0.063242
30
0.0
11
0.154867
21
0.063947
31
0.0
0
LINE
8
0
6
CONTINUOUS
10
0.152061
20
0.063612
30
0.0
11
0.153609
21
0.063242
31
0.0
0
LINE
8
0
6
CONTINUOUS
10
0.151770
20
0.064687
30
0.0
11
0.152061
21
0.063612
31
0.0
0
LINE
8
0
6
CONTINUOUS
10
0.223716
20
0.073433
30
0.0
11
0.225093
21
0.074031
31
0.0
0
LINE
8
0
6
CONTINUOUS
10
0.222247
20
0.073925
30
0.0
11
0.223716
21
0.073433
31
0.0
0
LINE
8
0
6
CONTINUOUS
10
0.222154
20
0.075015
30
0.0
11
0.222247
21
0.073925
31
0.0
0
LINE
8
0
6
CONTINUOUS
10
0.223532
20
0.075613
30
0.0
11
0.222154
21
0.075015
31
0.0
0
LINE
8
0
6
CONTINUOUS
10
0.225001
20
0.075121
30
0.0
11
0.223532
21
0.075613
31
0.0
0
LINE
8
0
6
CONTINUOUS
10
0.225093
20
0.074031
30
0.0
11
0.225001
21
0.075121
31
0.0
0
LINE
8
0
6
CONTINUOUS
10
0.190436
20
0.069631
30
0.0
11
0.190872
21
0.070684
31
0.0
0
LINE
8
0
6
CONTINUOUS
10
0.188843
20
0.069355
30
0.0
11
0.190436
21
0.069631
31
0.0
0
LINE
8
0
6
CONTINUOUS
10
0.187687
20
0.070132
30
0.0
11
0.188843
21
0.069355
31
0.0
0
LINE
8
0
6
CONTINUOUS
10
0.188123
20
0.071185
30
0.0
11
0.187687
21
0.070132
31
0.0
0
LINE
8
0
6
CONTINUOUS
10
0.189715
20
0.071461
30
0.0
11
0.188123
21
0.071185
31
0.0
0
LINE
8
0
6
CONTINUOUS
10
0.190872
20
0.070684
30
0.0
11
0.189715
21
0.071461
31
0.0
0
LINE
8
0
6
CONTINUOUS
10
0.228588
20
0.052532
30
0.0
11
0.229846
21
0.053236
31
0.0
0
LINE
8
0
6
CONTINUOUS
10
0.227040
20
0.052902
30
0.0
11
0.228588
21
0.052532
31
0.0
0
LINE
8
0
6
CONTINUOUS
10
0.226749
20
0.053977
30
0.0
11
0.227040
21
0.052902
31
0.0
0
LINE
8
0
6
CONTINUOUS
10
0.228006
20
0.054681
30
0.0
11
0.226749
21
0.053977
31
0.0
0
LINE
8
0
6
CONTINUOUS
10
0.229555
20
0.054311
30
0.0
11
0.228006
21
0.054681
31
0.0
0
LINE
8
0
6
CONTINUOUS
10
0.229846
20
0.053236
30
0.0
11
0.229555
21
0.054311
31
0.0
0
LINE
8
0
6
CONTINUOUS
10
0.233154
20
0.064574
30
0.0
11
0.231896
21
0.063869
31
0.0
0
LINE
8
0
6
CONTINUOUS
10
0.234702
20
0.064204
30
0.0
11
0.233154
21
0.064574
31
0.0
0
LINE
8
0
6
CONTINUOUS
10
0.234993
20
0.063129
30
0.0
11
0.234702
21
0.064204
31
0.0
0
LINE
8
0
6
CONTINUOUS
10
0.233736
20
0.062424
30
0.0
11
0.234993
21
0.063129
31
0.0
0
LINE
8
0
6
CONTINUOUS
10
0.232188
20
0.062794
30
0.0
11
0.233736
21
0.062424
31
0.0
0
LINE
8
0
6
CONTINUOUS
10
0.231896
20
0.063869
30
0.0
11
0.232188
21
0.062794
31
0.0
0
LINE
8
0
6
CONTINUOUS
10
0.177001
20
0.073338
30
0.0
11
0.178593
21
0.073614
31
0.0
0
LINE
8
0
6
CONTINUOUS
10
0.175844
20
0.074115
30
0.0
11
0.177001
21
0.073338
31
0.0
0
LINE
8
0
6
CONTINUOUS
10
0.176281
20
0.075168
30
0.0
11
0.175844
21
0.074115
31
0.0
0
LINE
8
0
6
CONTINUOUS
10
0.177873
20
0.075444
30
0.0
11
0.176281
21
0.075168
31
0.0
0
LINE
8
0
6
CONTINUOUS
10
0.179029
20
0.074667
30
0.0
11
0.177873
21
0.075444
31
0.0
0
LINE
8
0
6
CONTINUOUS
10
0.178593
20
0.073614
30
0.0
11
0.179029
21
0.074667
31
0.0
0
LINE
8
0
6
CONTINUOUS
10
0.201292
20
0.073304
30
0.0
11
0.202448
21
0.074081
31
0.0
0
LINE
8
0
6
CONTINUOUS
10
0.199699
20
0.073580
30
0.0
11
0.201292
21
0.073304
31
0.0
0
LINE
8
0
6
CONTINUOUS
10
0.199263
20
0.074633
30
0.0
11
0.199699
21
0.073580
31
0.0
0
LINE
8
0
6
CONTINUOUS
10
0.200419
20
0.075410
30
0.0
11
0.199263
21
0.074633
31
0.0
0
LINE
8
0
6
CONTINUOUS
10
0.202012
20
0.075134
30
0.0
11
0.200419
21
0.075410
31
0.0
0
LINE
8
0
6
CONTINUOUS
10
0.202448
20
0.074081
30
0.0
11
0.202012
21
0.075134
31
0.0
0
LINE
8
0
6
CONTINUOUS
10
0.218371
20
0.090397
30
0.0
11
0.219527
21
0.091174
31
0.0
0
LINE
8
0
6
CONTINUOUS
10
0.216778
20
0.090672
30
0.0
11
0.218371
21
0.090397
31
0.0
0
LINE
8
0
6
CONTINUOUS
10
0.216342
20
0.091725
30
0.0
11
0.216778
21
0.090672
31
0.0
0
LINE
8
0
6
CONTINUOUS
10
0.217498
20
0.092502
30
0.0
11
0.216342
21
0.091725
31
0.0
0
LINE
8
0
6
CONTINUOUS
10
0.219091
20
0.092227
30
0.0
11
0.217498
21
0.092502
31
0.0
0
LINE
8
0
6
CONTINUOUS
10
0.219527
20
0.091174
30
0.0
11
0.219091
21
0.092227
31
0.0
0
LINE
8
0
6
CONTINUOUS
10
0.149704
20
0.052684
30
0.0
11
0.151252
21
0.053054
31
0.0
0
LINE
8
0
6
CONTINUOUS
10
0.148447
20
0.053389
30
0.0
11
0.149704
21
0.052684
31
0.0
0
LINE
8
0
6
CONTINUOUS
10
0.148738
20
0.054464
30
0.0
11
0.148447
21
0.053389
31
0.0
0
LINE
8
0
6
CONTINUOUS
10
0.150286
20
0.054834
30
0.0
11
0.148738
21
0.054464
31
0.0
0
LINE
8
0
6
CONTINUOUS
10
0.151544
20
0.054129
30
0.0
11
0.150286
21
0.054834
31
0.0
0
LINE
8
0
6
CONTINUOUS
10
0.151252
20
0.053054
30
0.0
11
0.151544
21
0.054129
31
0.0
0
LINE
8
0
6
CONTINUOUS
10
0.176641
20
-0.119000
30
0.0
11
0.182911
21
-0.119000
31
0.0
0
LINE
8
0
6
CONTINUOUS
10
0.163564
20
-0.118000
30
0.0
11
0.163564
21
-0.119000
31
0.0
0
LINE
8
0
6
CONTINUOUS
10
0.163564
20
-0.119000
30
0.0
11
0.164482
21
-0.119000
31
0.0
0
LINE
8
0
6
CONTINUOUS
10
0.163564
20
-0.113000
30
0.0
11
0.163564
21
-0.114000
31
0.0
0
LINE
8
0
6
CONTINUOUS
10
0.164482
20
-0.113000
30
0.0
11
0.163564
21
-0.113000
31
0.0
0
LINE
8
0
6
CONTINUOUS
10
0.182911
20
-0.113000
30
0.0
11
0.176641
21
-0.113000
31
0.0
0
LINE
8
0
6
CONTINUOUS
10
0.196217
20
-0.113000
30
0.0
11
0.189564
21
-0.113000
31
0.0
0
LINE
8
0
6
CONTINUOUS
10
0.212046
20
-0.113000
30
0.0
11
0.207917
21
-0.113000
31
0.0
0
LINE
8
0
6
CONTINUOUS
10
0.171211
20
-0.113000
30
0.0
11
0.167082
21
-0.113000
31
0.0
0
LINE
8
0
6
CONTINUOUS
10
0.212046
20
-0.119000
30
0.0
11
0.214646
21
-0.119000
31
0.0
0
LINE
8
0
6
CONTINUOUS
10
0.167082
20
-0.119000
30
0.0
11
0.171211
21
-0.119000
31
0.0
0
LINE
8
0
6
CONTINUOUS
10
0.164482
20
-0.119000
30
0.0
11
0.167082
21
-0.119000
31
0.0
0
LINE
8
0
6
CONTINUOUS
10
0.215564
20
-0.114000
30
0.0
11
0.215564
21
-0.113000
31
0.0
0
LINE
8
0
6
CONTINUOUS
10
0.215564
20
-0.113000
30
0.0
11
0.214646
21
-0.113000
31
0.0
0
LINE
8
0
6
CONTINUOUS
10
0.207917
20
-0.119000
30
0.0
11
0.212046
21
-0.119000
31
0.0
0
LINE
8
0
6
CONTINUOUS
10
0.171211
20
-0.119000
30
0.0
11
0.176641
21
-0.119000
31
0.0
0
LINE
8
0
6
CONTINUOUS
10
0.214646
20
-0.113000
30
0.0
11
0.212046
21
-0.113000
31
0.0
0
LINE
8
0
6
CONTINUOUS
10
0.202564
20
-0.113000
30
0.0
11
0.202564
21
-0.112000
31
0.0
0
LINE
8
0
6
CONTINUOUS
10
0.176564
20
-0.112000
30
0.0
11
0.176564
21
-0.113000
31
0.0
0
LINE
8
0
6
CONTINUOUS
10
0.207917
20
-0.113000
30
0.0
11
0.202487
21
-0.113000
31
0.0
0
LINE
8
0
6
CONTINUOUS
10
0.182911
20
-0.119000
30
0.0
11
0.189564
21
-0.119000
31
0.0
0
LINE
8
0
6
CONTINUOUS
10
0.202487
20
-0.113000
30
0.0
11
0.196217
21
-0.113000
31
0.0
0
LINE
8
0
6
CONTINUOUS
10
0.202487
20
-0.119000
30
0.0
11
0.207917
21
-0.119000
31
0.0
0
LINE
8
0
6
CONTINUOUS
10
0.196217
20
-0.119000
30
0.0
11
0.202487
21
-0.119000
31
0.0
0
LINE
8
0
6
CONTINUOUS
10
0.189564
20
-0.119000
30
0.0
11
0.196217
21
-0.119000
31
0.0
0
LINE
8
0
6
CONTINUOUS
10
0.189564
20
-0.113000
30
0.0
11
0.182911
21
-0.113000
31
0.0
0
LINE
8
0
6
CONTINUOUS
10
0.167082
20
-0.113000
30
0.0
11
0.164482
21
-0.113000
31
0.0
0
LINE
8
0
6
CONTINUOUS
10
0.176641
20
-0.113000
30
0.0
11
0.171211
21
-0.113000
31
0.0
0
LINE
8
0
6
CONTINUOUS
10
0.215564
20
-0.119000
30
0.0
11
0.215564
21
-0.118000
31
0.0
0
LINE
8
0
6
CONTINUOUS
10
0.214646
20
-0.119000
30
0.0
11
0.215564
21
-0.119000
31
0.0
0
LINE
8
0
6
CONTINUOUS
10
0.176564
20
-0.078135
30
0.0
11
0.176564
21
-0.096076
31
0.0
0
LINE
8
0
6
CONTINUOUS
10
0.202564
20
-0.096076
30
0.0
11
0.202564
21
-0.078135
31
0.0
0
LINE
8
0
6
CONTINUOUS
10
0.176564
20
-0.077262
30
0.0
11
0.176564
21
-0.078135
31
0.0
0
LINE
8
0
6
CONTINUOUS
10
0.202564
20
-0.078135
30
0.0
11
0.202564
21
-0.077262
31
0.0
0
LINE
8
0
6
CONTINUOUS
10
0.194728
20
-0.080822
30
0.0
11
0.196919
21
-0.080163
31
0.0
0
LINE
8
0
6
CONTINUOUS
10
0.186905
20
-0.081222
30
0.0
11
0.189564
21
-0.081370
31
0.0
0
LINE
8
0
6
CONTINUOUS
10
0.192223
20
-0.081222
30
0.0
11
0.194728
21
-0.080822
31
0.0
0
LINE
8
0
6
CONTINUOUS
10
0.189564
20
-0.081370
30
0.0
11
0.192223
21
-0.081222
31
0.0
0
LINE
8
0
6
CONTINUOUS
10
0.182208
20
-0.080163
30
0.0
11
0.184399
21
-0.080822
31
0.0
0
LINE
8
0
6
CONTINUOUS
10
0.180556
20
-0.079297
30
0.0
11
0.182208
21
-0.080163
31
0.0
0
LINE
8
0
6
CONTINUOUS
10
0.184399
20
-0.080822
30
0.0
11
0.186905
21
-0.081222
31
0.0
0
LINE
8
0
6
CONTINUOUS
10
0.196919
20
-0.080163
30
0.0
11
0.198571
21
-0.079297
31
0.0
0
LINE
8
0
6
CONTINUOUS
10
0.202096
20
-0.078571
30
0.0
11
0.202564
21
-0.077262
31
0.0
0
LINE
8
0
6
CONTINUOUS
10
0.189564
20
-0.082425
30
0.0
11
0.192892
21
-0.082237
31
0.0
0
LINE
8
0
6
CONTINUOUS
10
0.202564
20
-0.077262
30
0.0
11
0.202096
21
-0.075950
31
0.0
0
LINE
8
0
6
CONTINUOUS
10
0.177032
20
-0.075950
30
0.0
11
0.176564
21
-0.077262
31
0.0
0
LINE
8
0
6
CONTINUOUS
10
0.186236
20
-0.082237
30
0.0
11
0.189564
21
-0.082425
31
0.0
0
LINE
8
0
6
CONTINUOUS
10
0.200848
20
-0.079806
30
0.0
11
0.202096
21
-0.078571
31
0.0
0
LINE
8
0
6
CONTINUOUS
10
0.198768
20
-0.080900
30
0.0
11
0.200848
21
-0.079806
31
0.0
0
LINE
8
0
6
CONTINUOUS
10
0.196012
20
-0.081734
30
0.0
11
0.198768
21
-0.080900
31
0.0
0
LINE
8
0
6
CONTINUOUS
10
0.192892
20
-0.082237
30
0.0
11
0.196012
21
-0.081734
31
0.0
0
LINE
8
0
6
CONTINUOUS
10
0.178280
20
-0.079806
30
0.0
11
0.180360
21
-0.080900
31
0.0
0
LINE
8
0
6
CONTINUOUS
10
0.183116
20
-0.081734
30
0.0
11
0.186236
21
-0.082237
31
0.0
0
LINE
8
0
6
CONTINUOUS
10
0.180360
20
-0.080900
30
0.0
11
0.183116
21
-0.081734
31
0.0
0
LINE
8
0
6
CONTINUOUS
10
0.177032
20
-0.078571
30
0.0
11
0.178280
21
-0.079806
31
0.0
0
LINE
8
0
6
CONTINUOUS
10
0.176564
20
-0.077262
30
0.0
11
0.177032
21
-0.078571
31
0.0
0
LINE
8
0
6
CONTINUOUS
10
0.183116
20
-0.099593
30
0.0
11
0.186236
21
-0.099825
31
0.0
0
LINE
8
0
6
CONTINUOUS
10
0.202564
20
-0.100329
30
0.0
11
0.202564
21
-0.098010
31
0.0
0
LINE
8
0
6
CONTINUOUS
10
0.202564
20
-0.098010
30
0.0
11
0.202564
21
-0.096076
31
0.0
0
LINE
8
0
6
CONTINUOUS
10
0.176564
20
-0.098010
30
0.0
11
0.176564
21
-0.100329
31
0.0
0
LINE
8
0
6
CONTINUOUS
10
0.176564
20
-0.096076
30
0.0
11
0.176564
21
-0.098010
31
0.0
0
LINE
8
0
6
CONTINUOUS
10
0.189564
20
-0.099940
30
0.0
11
0.192892
21
-0.099825
31
0.0
0
LINE
8
0
6
CONTINUOUS
10
0.186236
20
-0.099825
30
0.0
11
0.189564
21
-0.099940
31
0.0
0
LINE
8
0
6
CONTINUOUS
10
0.192892
20
-0.099825
30
0.0
11
0.196012
21
-0.099593
31
0.0
0
LINE
8
0
6
CONTINUOUS
10
0.202564
20
-0.112000
30
0.0
11
0.202564
21
-0.100329
31
0.0
0
LINE
8
0
6
CONTINUOUS
10
0.163564
20
-0.114000
30
0.0
11
0.163564
21
-0.118000
31
0.0
0
LINE
8
0
6
CONTINUOUS
10
0.215564
20
-0.118000
30
0.0
11
0.215564
21
-0.114000
31
0.0
0
LINE
8
0
6
CONTINUOUS
10
0.176564
20
-0.100329
30
0.0
11
0.176564
21
-0.112000
31
0.0
0
LINE
8
0
6
CONTINUOUS
10
-0.026629
20
-0.119000
30
0.0
11
-0.025436
21
-0.119000
31
0.0
0
LINE
8
0
6
CONTINUOUS
10
-0.025436
20
-0.119000
30
0.0
11
-0.025436
21
-0.118053
31
0.0
0
LINE
8
0
6
CONTINUOUS
10
-0.030126
20
-0.119000
30
0.0
11
-0.026629
21
-0.119000
31
0.0
0
LINE
8
0
6
CONTINUOUS
10
-0.035688
20
-0.119000
30
0.0
11
-0.030126
21
-0.119000
31
0.0
0
LINE
8
0
6
CONTINUOUS
10
-0.042936
20
-0.119000
30
0.0
11
-0.035688
21
-0.119000
31
0.0
0
LINE
8
0
6
CONTINUOUS
10
-0.051378
20
-0.119000
30
0.0
11
-0.042936
21
-0.119000
31
0.0
0
LINE
8
0
6
CONTINUOUS
10
-0.060436
20
-0.119000
30
0.0
11
-0.051378
21
-0.119000
31
0.0
0
LINE
8
0
6
CONTINUOUS
10
-0.069495
20
-0.119000
30
0.0
11
-0.060436
21
-0.119000
31
0.0
0
LINE
8
0
6
CONTINUOUS
10
-0.077936
20
-0.119000
30
0.0
11
-0.069495
21
-0.119000
31
0.0
0
LINE
8
0
6
CONTINUOUS
10
-0.085185
20
-0.119000
30
0.0
11
-0.077936
21
-0.119000
31
0.0
0
LINE
8
0
6
CONTINUOUS
10
-0.090747
20
-0.119000
30
0.0
11
-0.085185
21
-0.119000
31
0.0
0
LINE
8
0
6
CONTINUOUS
10
-0.094244
20
-0.119000
30
0.0
11
-0.090747
21
-0.119000
31
0.0
0
LINE
8
0
6
CONTINUOUS
10
-0.095436
20
-0.119000
30
0.0
11
-0.094244
21
-0.119000
31
0.0
0
LINE
8
0
6
CONTINUOUS
10
-0.095436
20
-0.118053
30
0.0
11
-0.095436
21
-0.119000
31
0.0
0
LINE
8
0
6
CONTINUOUS
10
-0.095436
20
-0.113947
30
0.0
11
-0.095436
21
-0.118053
31
0.0
0
LINE
8
0
6
CONTINUOUS
10
-0.025436
20
-0.118053
30
0.0
11
-0.025436
21
-0.113947
31
0.0
0
LINE
8
0
6
CONTINUOUS
10
-0.025436
20
-0.113947
30
0.0
11
-0.025436
21
-0.113000
31
0.0
0
LINE
8
0
6
CONTINUOUS
10
-0.025436
20
-0.113000
30
0.0
11
-0.026629
21
-0.113000
31
0.0
0
LINE
8
0
6
CONTINUOUS
10
-0.026629
20
-0.113000
30
0.0
11
-0.030126
21
-0.113000
31
0.0
0
LINE
8
0
6
CONTINUOUS
10
-0.030126
20
-0.113000
30
0.0
11
-0.035688
21
-0.113000
31
0.0
0
LINE
8
0
6
CONTINUOUS
10
-0.035688
20
-0.113000
30
0.0
11
-0.042936
21
-0.113000
31
0.0
0
LINE
8
0
6
CONTINUOUS
10
-0.042936
20
-0.113000
30
0.0
11
-0.051378
21
-0.113000
31
0.0
0
LINE
8
0
6
CONTINUOUS
10
-0.051378
20
-0.113000
30
0.0
11
-0.060436
21
-0.113000
31
0.0
0
LINE
8
0
6
CONTINUOUS
10
-0.060436
20
-0.113000
30
0.0
11
-0.069495
21
-0.113000
31
0.0
0
LINE
8
0
6
CONTINUOUS
10
-0.069495
20
-0.113000
30
0.0
11
-0.077936
21
-0.113000
31
0.0
0
LINE
8
0
6
CONTINUOUS
10
-0.077936
20
-0.113000
30
0.0
11
-0.085185
21
-0.113000
31
0.0
0
LINE
8
0
6
CONTINUOUS
10
-0.085185
20
-0.113000
30
0.0
11
-0.090747
21
-0.113000
31
0.0
0
LINE
8
0
6
CONTINUOUS
10
-0.090747
20
-0.113000
30
0.0
11
-0.094244
21
-0.113000
31
0.0
0
LINE
8
0
6
CONTINUOUS
10
-0.095436
20
-0.113000
30
0.0
11
-0.095436
21
-0.113947
31
0.0
0
LINE
8
0
6
CONTINUOUS
10
-0.094244
20
-0.113000
30
0.0
11
-0.095436
21
-0.113000
31
0.0
0
LINE
8
0
6
CONTINUOUS
10
-0.084436
20
-0.058504
30
0.0
11
-0.084436
21
-0.113000
31
0.0
0
LINE
8
0
6
CONTINUOUS
10
-0.036436
20
-0.113000
30
0.0
11
-0.036436
21
-0.058504
31
0.0
0
LINE
8
0
6
CONTINUOUS
10
-0.045936
20
-0.056599
30
0.0
11
-0.045936
21
-0.031513
31
0.0
0
LINE
8
0
6
CONTINUOUS
10
-0.074936
20
-0.031513
30
0.0
11
-0.074936
21
-0.056599
31
0.0
0
LINE
8
0
6
CONTINUOUS
10
-0.074936
20
-0.020995
30
0.0
11
-0.074933
21
-0.026254
31
0.0
0
LINE
8
0
6
CONTINUOUS
10
-0.045940
20
-0.026254
30
0.0
11
-0.045936
21
-0.020995
31
0.0
0
LINE
8
0
6
CONTINUOUS
10
-0.074936
20
-0.011185
30
0.0
11
-0.074943
21
-0.016090
31
0.0
0
LINE
8
0
6
CONTINUOUS
10
-0.045929
20
-0.016090
30
0.0
11
-0.045936
21
-0.011185
31
0.0
0
LINE
8
0
6
CONTINUOUS
10
-0.074936
20
-0.002962
30
0.0
11
-0.074937
21
-0.007073
31
0.0
0
LINE
8
0
6
CONTINUOUS
10
-0.045936
20
-0.007073
30
0.0
11
-0.045936
21
-0.002962
31
0.0
0
LINE
8
0
6
CONTINUOUS
10
-0.074936
20
0.002935
30
0.0
11
-0.074938
21
-0.000014
31
0.0
0
LINE
8
0
6
CONTINUOUS
10
-0.045934
20
-0.000014
30
0.0
11
-0.045936
21
0.002935
31
0.0
0
LINE
8
0
6
CONTINUOUS
10
-0.074936
20
0.005975
30
0.0
11
-0.074936
21
0.004455
31
0.0
0
LINE
8
0
6
CONTINUOUS
10
-0.045937
20
0.004455
30
0.0
11
-0.045936
21
0.005975
31
0.0
0
LINE
8
0
6
CONTINUOUS
10
-0.074936
20
0.006368
30
0.0
11
-0.074936
21
0.005975
31
0.0
0
LINE
8
0
6
CONTINUOUS
10
-0.045936
20
0.005975
30
0.0
11
-0.045936
21
0.006368
31
0.0
0
LINE
8
0
6
CONTINUOUS
10
-0.074936
20
0.011496
30
0.0
11
-0.074936
21
0.006368
31
0.0
0
LINE
8
0
6
CONTINUOUS
10
-0.045936
20
0.006368
30
0.0
11
-0.045936
21
0.011496
31
0.0
0
LINE
8
0
6
CONTINUOUS
10
-0.064917
20
0.025292
30
0.0
11
-0.068959
21
0.023237
31
0.0
0
LINE
8
0
6
CONTINUOUS
10
-0.068959
20
0.023237
30
0.0
11
-0.072167
21
0.020036
31
0.0
0
LINE
8
0
6
CONTINUOUS
10
-0.072167
20
0.020036
30
0.0
11
-0.074227
21
0.016003
31
0.0
0
LINE
8
0
6
CONTINUOUS
10
-0.074227
20
0.016003
30
0.0
11
-0.074936
21
0.011532
31
0.0
0
LINE
8
0
6
CONTINUOUS
10
-0.074227
20
0.007062
30
0.0
11
-0.074936
21
0.011532
31
0.0
0
LINE
8
0
6
CONTINUOUS
10
-0.072167
20
0.003029
30
0.0
11
-0.074227
21
0.007062
31
0.0
0
LINE
8
0
6
CONTINUOUS
10
-0.068959
20
-0.000172
30
0.0
11
-0.072167
21
0.003029
31
0.0
0
LINE
8
0
6
CONTINUOUS
10
-0.064917
20
-0.002227
30
0.0
11
-0.068959
21
-0.000172
31
0.0
0
LINE
8
0
6
CONTINUOUS
10
-0.060436
20
-0.002935
30
0.0
11
-0.064917
21
-0.002227
31
0.0
0
LINE
8
0
6
CONTINUOUS
10
-0.055956
20
-0.002227
30
0.0
11
-0.060436
21
-0.002935
31
0.0
0
LINE
8
0
6
CONTINUOUS
10
-0.051914
20
-0.000172
30
0.0
11
-0.055956
21
-0.002227
31
0.0
0
LINE
8
0
6
CONTINUOUS
10
-0.048706
20
0.003029
30
0.0
11
-0.051914
21
-0.000172
31
0.0
0
LINE
8
0
6
CONTINUOUS
10
-0.046646
20
0.007062
30
0.0
11
-0.048706
21
0.003029
31
0.0
0
LINE
8
0
6
CONTINUOUS
10
-0.045936
20
0.011532
30
0.0
11
-0.046646
21
0.007062
31
0.0
0
LINE
8
0
6
CONTINUOUS
10
-0.045936
20
0.011532
30
0.0
11
-0.046646
21
0.016003
31
0.0
0
LINE
8
0
6
CONTINUOUS
10
-0.046646
20
0.016003
30
0.0
11
-0.048706
21
0.020036
31
0.0
0
LINE
8
0
6
CONTINUOUS
10
-0.048706
20
0.020036
30
0.0
11
-0.051914
21
0.023237
31
0.0
0
LINE
8
0
6
CONTINUOUS
10
-0.051914
20
0.023237
30
0.0
11
-0.055956
21
0.025292
31
0.0
0
LINE
8
0
6
CONTINUOUS
10
-0.055956
20
0.025292
30
0.0
11
-0.060436
21
0.026000
31
0.0
0
LINE
8
0
6
CONTINUOUS
10
-0.060436
20
0.026000
30
0.0
11
-0.064917
21
0.025292
31
0.0
0
LINE
8
0
6
CONTINUOUS
10
-0.068294
20
-0.014340
30
0.0
11
-0.064568
21
-0.013983
31
0.0
0
LINE
8
0
6
CONTINUOUS
10
-0.071252
20
-0.014897
30
0.0
11
-0.068294
21
-0.014340
31
0.0
0
LINE
8
0
6
CONTINUOUS
10
-0.073151
20
-0.015598
30
0.0
11
-0.071252
21
-0.014897
31
0.0
0
LINE
8
0
6
CONTINUOUS
10
-0.073805
20
-0.015433
30
0.0
11
-0.073805
21
-0.016375
31
0.0
0
LINE
8
0
6
CONTINUOUS
10
-0.073805
20
-0.016375
30
0.0
11
-0.073151
21
-0.015598
31
0.0
0
LINE
8
0
6
CONTINUOUS
10
-0.073805
20
-0.016375
30
0.0
11
-0.073151
21
-0.017151
31
0.0
0
LINE
8
0
6
CONTINUOUS
10
-0.073151
20
-0.017151
30
0.0
11
-0.071252
21
-0.017852
31
0.0
0
LINE
8
0
6
CONTINUOUS
10
-0.071252
20
-0.017852
30
0.0
11
-0.068294
21
-0.018409
31
0.0
0
LINE
8
0
6
CONTINUOUS
10
-0.068294
20
-0.018409
30
0.0
11
-0.064568
21
-0.018766
31
0.0
0
LINE
8
0
6
CONTINUOUS
10
-0.064568
20
-0.018766
30
0.0
11
-0.060436
21
-0.018889
31
0.0
0
LINE
8
0
6
CONTINUOUS
10
-0.060436
20
-0.018889
30
0.0
11
-0.056305
21
-0.018766
31
0.0
0
LINE
8
0
6
CONTINUOUS
10
-0.056305
20
-0.018766
30
0.0
11
-0.052578
21
-0.018409
31
0.0
0
LINE
8
0
6
CONTINUOUS
10
-0.052578
20
-0.018409
30
0.0
11
-0.049621
21
-0.017852
31
0.0
0
LINE
8
0
6
CONTINUOUS
10
-0.049621
20
-0.017852
30
0.0
11
-0.047722
21
-0.017151
31
0.0
0
LINE
8
0
6
CONTINUOUS
10
-0.047722
20
-0.017151
30
0.0
11
-0.047068
21
-0.016375
31
0.0
0
LINE
8
0
6
CONTINUOUS
10
-0.047068
20
-0.016375
30
0.0
11
-0.047068
21
-0.015433
31
0.0
0
LINE
8
0
6
CONTINUOUS
10
-0.047722
20
-0.015598
30
0.0
11
-0.047068
21
-0.016375
31
0.0
0
LINE
8
0
6
CONTINUOUS
10
-0.049621
20
-0.014897
30
0.0
11
-0.047722
21
-0.015598
31
0.0
0
LINE
8
0
6
CONTINUOUS
10
-0.052578
20
-0.014340
30
0.0
11
-0.049621
21
-0.014897
31
0.0
0
LINE
8
0
6
CONTINUOUS
10
-0.056305
20
-0.013983
30
0.0
11
-0.052578
21
-0.014340
31
0.0
0
LINE
8
0
6
CONTINUOUS
10
-0.060436
20
-0.013860
30
0.0
11
-0.056305
21
-0.013983
31
0.0
0
LINE
8
0
6
CONTINUOUS
10
-0.064568
20
-0.013983
30
0.0
11
-0.060436
21
-0.013860
31
0.0
0
LINE
8
0
6
CONTINUOUS
10
-0.047068
20
0.004368
30
0.0
11
-0.047722
21
0.005145
31
0.0
0
LINE
8
0
6
CONTINUOUS
10
-0.047068
20
-0.015433
30
0.0
11
-0.047068
21
0.004368
31
0.0
0
LINE
8
0
6
CONTINUOUS
10
-0.073805
20
0.004368
30
0.0
11
-0.073805
21
-0.015433
31
0.0
0
LINE
8
0
6
CONTINUOUS
10
-0.073151
20
0.005145
30
0.0
11
-0.073805
21
0.004368
31
0.0
0
LINE
8
0
6
CONTINUOUS
10
-0.066413
20
-0.014828
30
0.0
11
-0.063579
21
-0.014556
31
0.0
0
LINE
8
0
6
CONTINUOUS
10
-0.068662
20
-0.015251
30
0.0
11
-0.066413
21
-0.014828
31
0.0
0
LINE
8
0
6
CONTINUOUS
10
-0.070106
20
-0.015784
30
0.0
11
-0.068662
21
-0.015251
31
0.0
0
LINE
8
0
6
CONTINUOUS
10
-0.070604
20
-0.016375
30
0.0
11
-0.070106
21
-0.015784
31
0.0
0
LINE
8
0
6
CONTINUOUS
10
-0.050766
20
-0.015784
30
0.0
11
-0.050269
21
-0.016375
31
0.0
0
LINE
8
0
6
CONTINUOUS
10
-0.052210
20
-0.015251
30
0.0
11
-0.050766
21
-0.015784
31
0.0
0
LINE
8
0
6
CONTINUOUS
10
-0.054460
20
-0.014828
30
0.0
11
-0.052210
21
-0.015251
31
0.0
0
LINE
8
0
6
CONTINUOUS
10
-0.057294
20
-0.014556
30
0.0
11
-0.054460
21
-0.014828
31
0.0
0
LINE
8
0
6
CONTINUOUS
10
-0.060436
20
-0.014463
30
0.0
11
-0.057294
21
-0.014556
31
0.0
0
LINE
8
0
6
CONTINUOUS
10
-0.063579
20
-0.014556
30
0.0
11
-0.060436
21
-0.014463
31
0.0
0
LINE
8
0
6
CONTINUOUS
10
-0.068662
20
-0.017498
30
0.0
11
-0.066413
21
-0.017921
31
0.0
0
LINE
8
0
6
CONTINUOUS
10
-0.057294
20
-0.018193
30
0.0
11
-0.054459
21
-0.017921
31
0.0
0
LINE
8
0
6
CONTINUOUS
10
-0.054459
20
-0.017921
30
0.0
11
-0.052210
21
-0.017498
31
0.0
0
LINE
8
0
6
CONTINUOUS
10
-0.066413
20
-0.017921
30
0.0
11
-0.063579
21
-0.018193
31
0.0
0
LINE
8
0
6
CONTINUOUS
10
-0.052210
20
-0.017498
30
0.0
11
-0.050766
21
-0.016965
31
0.0
0
LINE
8
0
6
CONTINUOUS
10
-0.063579
20
-0.018193
30
0.0
11
-0.060436
21
-0.018286
31
0.0
0
LINE
8
0
6
CONTINUOUS
10
-0.070604
20
-0.016375
30
0.0
11
-0.070106
21
-0.016965
31
0.0
0
LINE
8
0
6
CONTINUOUS
10
-0.050766
20
-0.016965
30
0.0
11
-0.050269
21
-0.016375
31
0.0
0
LINE
8
0
6
CONTINUOUS
10
-0.060436
20
-0.018286
30
0.0
11
-0.057294
21
-0.018193
31
0.0
0
LINE
8
0
6
CONTINUOUS
10
-0.070106
20
-0.016965
30
0.0
11
-0.068662
21
-0.017498
31
0.0
0
LINE
8
0
6
CONTINUOUS
10
-0.074936
20
-0.056599
30
0.0
11
-0.074936
21
-0.057504
31
0.0
0
LINE
8
0
6
CONTINUOUS
10
-0.074227
20
-0.057504
30
0.0
11
-0.074936
21
-0.057504
31
0.0
0
LINE
8
0
6
CONTINUOUS
10
-0.068959
20
-0.057504
30
0.0
11
-0.072167
21
-0.057504
31
0.0
0
LINE
8
0
6
CONTINUOUS
10
-0.072167
20
-0.057504
30
0.0
11
-0.074227
21
-0.057504
31
0.0
0
LINE
8
0
6
CONTINUOUS
10
-0.064917
20
-0.057504
30
0.0
11
-0.068959
21
-0.057504
31
0.0
0
LINE
8
0
6
CONTINUOUS
10
-0.060436
20
-0.057504
30
0.0
11
-0.064917
21
-0.057504
31
0.0
0
LINE
8
0
6
CONTINUOUS
10
-0.055956
20
-0.057504
30
0.0
11
-0.060436
21
-0.057504
31
0.0
0
LINE
8
0
6
CONTINUOUS
10
-0.051913
20
-0.057504
30
0.0
11
-0.055956
21
-0.057504
31
0.0
0
LINE
8
0
6
CONTINUOUS
10
-0.048706
20
-0.057504
30
0.0
11
-0.051913
21
-0.057504
31
0.0
0
LINE
8
0
6
CONTINUOUS
10
-0.046646
20
-0.057504
30
0.0
11
-0.048706
21
-0.057504
31
0.0
0
LINE
8
0
6
CONTINUOUS
10
-0.045936
20
-0.057504
30
0.0
11
-0.045936
21
-0.056599
31
0.0
0
LINE
8
0
6
CONTINUOUS
10
-0.045936
20
-0.057504
30
0.0
11
-0.046646
21
-0.057504
31
0.0
0
LINE
8
0
6
CONTINUOUS
10
-0.084436
20
-0.057504
30
0.0
11
-0.084436
21
-0.058504
31
0.0
0
LINE
8
0
6
CONTINUOUS
10
-0.083619
20
-0.057504
30
0.0
11
-0.084436
21
-0.057504
31
0.0
0
LINE
8
0
6
CONTINUOUS
10
-0.081221
20
-0.057504
30
0.0
11
-0.083619
21
-0.057504
31
0.0
0
LINE
8
0
6
CONTINUOUS
10
-0.077407
20
-0.057504
30
0.0
11
-0.081221
21
-0.057504
31
0.0
0
LINE
8
0
6
CONTINUOUS
10
-0.072436
20
-0.057504
30
0.0
11
-0.077407
21
-0.057504
31
0.0
0
LINE
8
0
6
CONTINUOUS
10
-0.066648
20
-0.057504
30
0.0
11
-0.072436
21
-0.057504
31
0.0
0
LINE
8
0
6
CONTINUOUS
10
-0.060436
20
-0.057504
30
0.0
11
-0.066648
21
-0.057504
31
0.0
0
LINE
8
0
6
CONTINUOUS
10
-0.054225
20
-0.057504
30
0.0
11
-0.060436
21
-0.057504
31
0.0
0
LINE
8
0
6
CONTINUOUS
10
-0.048436
20
-0.057504
30
0.0
11
-0.054225
21
-0.057504
31
0.0
0
LINE
8
0
6
CONTINUOUS
10
-0.043466
20
-0.057504
30
0.0
11
-0.048436
21
-0.057504
31
0.0
0
LINE
8
0
6
CONTINUOUS
10
-0.039652
20
-0.057504
30
0.0
11
-0.043466
21
-0.057504
31
0.0
0
LINE
8
0
6
CONTINUOUS
10
-0.037254
20
-0.057504
30
0.0
11
-0.039652
21
-0.057504
31
0.0
0
LINE
8
0
6
CONTINUOUS
10
-0.036436
20
-0.057504
30
0.0
11
-0.037254
21
-0.057504
31
0.0
0
LINE
8
0
6
CONTINUOUS
10
-0.036436
20
-0.058504
30
0.0
11
-0.036436
21
-0.057504
31
0.0
0
LINE
8
0
6
CONTINUOUS
10
-0.070604
20
-0.015801
30
0.0
11
-0.070106
21
-0.016392
31
0.0
0
LINE
8
0
6
CONTINUOUS
10
-0.050766
20
-0.016392
30
0.0
11
-0.050269
21
-0.015801
31
0.0
0
LINE
8
0
6
CONTINUOUS
10
-0.070106
20
-0.016392
30
0.0
11
-0.068662
21
-0.016925
31
0.0
0
LINE
8
0
6
CONTINUOUS
10
-0.052210
20
-0.016924
30
0.0
11
-0.050766
21
-0.016392
31
0.0
0
LINE
8
0
6
CONTINUOUS
10
-0.068662
20
-0.016925
30
0.0
11
-0.066413
21
-0.017347
31
0.0
0
LINE
8
0
6
CONTINUOUS
10
-0.054459
20
-0.017347
30
0.0
11
-0.052210
21
-0.016924
31
0.0
0
LINE
8
0
6
CONTINUOUS
10
-0.066413
20
-0.017347
30
0.0
11
-0.063579
21
-0.017619
31
0.0
0
LINE
8
0
6
CONTINUOUS
10
-0.063579
20
-0.017619
30
0.0
11
-0.060436
21
-0.017713
31
0.0
0
LINE
8
0
6
CONTINUOUS
10
-0.057294
20
-0.017619
30
0.0
11
-0.054459
21
-0.017347
31
0.0
0
LINE
8
0
6
CONTINUOUS
10
-0.060436
20
-0.017713
30
0.0
11
-0.057294
21
-0.017619
31
0.0
0
LINE
8
0
6
CONTINUOUS
10
-0.045936
20
-0.020995
30
0.0
11
-0.045929
21
-0.016090
31
0.0
0
LINE
8
0
6
CONTINUOUS
10
-0.074943
20
-0.016090
30
0.0
11
-0.074936
21
-0.020995
31
0.0
0
LINE
8
0
6
CONTINUOUS
10
-0.045936
20
-0.011185
30
0.0
11
-0.045936
21
-0.007073
31
0.0
0
LINE
8
0
6
CONTINUOUS
10
-0.074937
20
-0.007073
30
0.0
11
-0.074936
21
-0.011185
31
0.0
0
LINE
8
0
6
CONTINUOUS
10
-0.045936
20
-0.031513
30
0.0
11
-0.045940
21
-0.026254
31
0.0
0
LINE
8
0
6
CONTINUOUS
10
-0.074933
20
-0.026254
30
0.0
11
-0.074936
21
-0.031513
31
0.0
0
LINE
8
0
6
CONTINUOUS
10
-0.045936
20
-0.002962
30
0.0
11
-0.045934
21
-0.000014
31
0.0
0
LINE
8
0
6
CONTINUOUS
10
-0.074938
20
-0.000014
30
0.0
11
-0.074936
21
-0.002962
31
0.0
0
LINE
8
0
6
CONTINUOUS
10
-0.045936
20
0.002935
30
0.0
11
-0.045937
21
0.004455
31
0.0
0
LINE
8
0
6
CONTINUOUS
10
-0.074936
20
0.004455
30
0.0
11
-0.074936
21
0.002935
31
0.0
0
LINE
8
0
6
CONTINUOUS
10
-0.156459
20
-0.119000
30
0.0
11
-0.155436
21
-0.119000
31
0.0
0
LINE
8
0
6
CONTINUOUS
10
-0.155436
20
-0.119000
30
0.0
11
-0.155436
21
-0.118053
31
0.0
0
LINE
8
0
6
CONTINUOUS
10
-0.159456
20
-0.119000
30
0.0
11
-0.156459
21
-0.119000
31
0.0
0
LINE
8
0
6
CONTINUOUS
10
-0.164223
20
-0.119000
30
0.0
11
-0.159456
21
-0.119000
31
0.0
0
LINE
8
0
6
CONTINUOUS
10
-0.170436
20
-0.119000
30
0.0
11
-0.164223
21
-0.119000
31
0.0
0
LINE
8
0
6
CONTINUOUS
10
-0.177672
20
-0.119000
30
0.0
11
-0.170436
21
-0.119000
31
0.0
0
LINE
8
0
6
CONTINUOUS
10
-0.185436
20
-0.119000
30
0.0
11
-0.177672
21
-0.119000
31
0.0
0
LINE
8
0
6
CONTINUOUS
10
-0.193201
20
-0.119000
30
0.0
11
-0.185436
21
-0.119000
31
0.0
0
LINE
8
0
6
CONTINUOUS
10
-0.200436
20
-0.119000
30
0.0
11
-0.193201
21
-0.119000
31
0.0
0
LINE
8
0
6
CONTINUOUS
10
-0.206650
20
-0.119000
30
0.0
11
-0.200436
21
-0.119000
31
0.0
0
LINE
8
0
6
CONTINUOUS
10
-0.211417
20
-0.119000
30
0.0
11
-0.206650
21
-0.119000
31
0.0
0
LINE
8
0
6
CONTINUOUS
10
-0.214414
20
-0.119000
30
0.0
11
-0.211417
21
-0.119000
31
0.0
0
LINE
8
0
6
CONTINUOUS
10
-0.215436
20
-0.119000
30
0.0
11
-0.214414
21
-0.119000
31
0.0
0
LINE
8
0
6
CONTINUOUS
10
-0.215436
20
-0.118053
30
0.0
11
-0.215436
21
-0.119000
31
0.0
0
LINE
8
0
6
CONTINUOUS
10
-0.215436
20
-0.113947
30
0.0
11
-0.215436
21
-0.118053
31
0.0
0
LINE
8
0
6
CONTINUOUS
10
-0.155436
20
-0.118053
30
0.0
11
-0.155436
21
-0.113947
31
0.0
0
LINE
8
0
6
CONTINUOUS
10
-0.155436
20
-0.113947
30
0.0
11
-0.155436
21
-0.113000
31
0.0
0
LINE
8
0
6
CONTINUOUS
10
-0.155436
20
-0.113000
30
0.0
11
-0.156459
21
-0.113000
31
0.0
0
LINE
8
0
6
CONTINUOUS
10
-0.156459
20
-0.113000
30
0.0
11
-0.159456
21
-0.113000
31
0.0
0
LINE
8
0
6
CONTINUOUS
10
-0.159456
20
-0.113000
30
0.0
11
-0.164223
21
-0.113000
31
0.0
0
LINE
8
0
6
CONTINUOUS
10
-0.164223
20
-0.113000
30
0.0
11
-0.170436
21
-0.113000
31
0.0
0
LINE
8
0
6
CONTINUOUS
10
-0.170436
20
-0.113000
30
0.0
11
-0.177672
21
-0.113000
31
0.0
0
LINE
8
0
6
CONTINUOUS
10
-0.177672
20
-0.113000
30
0.0
11
-0.185436
21
-0.113000
31
0.0
0
LINE
8
0
6
CONTINUOUS
10
-0.185436
20
-0.113000
30
0.0
11
-0.193201
21
-0.113000
31
0.0
0
LINE
8
0
6
CONTINUOUS
10
-0.193201
20
-0.113000
30
0.0
11
-0.200436
21
-0.113000
31
0.0
0
LINE
8
0
6
CONTINUOUS
10
-0.200436
20
-0.113000
30
0.0
11
-0.206650
21
-0.113000
31
0.0
0
LINE
8
0
6
CONTINUOUS
10
-0.206650
20
-0.113000
30
0.0
11
-0.211417
21
-0.113000
31
0.0
0
LINE
8
0
6
CONTINUOUS
10
-0.211417
20
-0.113000
30
0.0
11
-0.214414
21
-0.113000
31
0.0
0
LINE
8
0
6
CONTINUOUS
10
-0.215436
20
-0.113000
30
0.0
11
-0.215436
21
-0.113947
31
0.0
0
LINE
8
0
6
CONTINUOUS
10
-0.214414
20
-0.113000
30
0.0
11
-0.215436
21
-0.113000
31
0.0
0
LINE
8
0
6
CONTINUOUS
10
-0.171436
20
-0.113000
30
0.0
11
-0.171436
21
-0.110557
31
0.0
0
LINE
8
0
6
CONTINUOUS
10
-0.242512
20
-0.051663
30
0.0
11
-0.242866
21
-0.053065
31
0.0
0
LINE
8
0
6
CONTINUOUS
10
-0.242866
20
-0.053065
30
0.0
11
-0.243166
21
-0.054254
31
0.0
0
LINE
8
0
6
CONTINUOUS
10
-0.202057
20
-0.067116
30
0.0
11
-0.201184
21
-0.067955
31
0.0
0
LINE
8
0
6
CONTINUOUS
10
-0.243166
20
-0.054254
30
0.0
11
-0.243366
21
-0.055048
31
0.0
0
LINE
8
0
6
CONTINUOUS
10
-0.243436
20
-0.055327
30
0.0
11
-0.243022
21
-0.055448
31
0.0
0
LINE
8
0
6
CONTINUOUS
10
-0.242952
20
-0.055170
30
0.0
11
-0.243366
21
-0.055048
31
0.0
0
LINE
8
0
6
CONTINUOUS
10
-0.171436
20
-0.065107
30
0.0
11
-0.171436
21
-0.063024
31
0.0
0
LINE
8
0
6
CONTINUOUS
10
-0.200908
20
-0.067923
30
0.0
11
-0.201728
21
-0.065990
31
0.0
0
LINE
8
0
6
CONTINUOUS
10
-0.171436
20
-0.067190
30
0.0
11
-0.171436
21
-0.065107
31
0.0
0
LINE
8
0
6
CONTINUOUS
10
-0.195447
20
-0.060118
30
0.0
11
-0.198349
21
-0.059636
31
0.0
0
LINE
8
0
6
CONTINUOUS
10
-0.171436
20
-0.069273
30
0.0
11
-0.171436
21
-0.067190
31
0.0
0
LINE
8
0
6
CONTINUOUS
10
-0.171436
20
-0.073269
30
0.0
11
-0.171436
21
-0.071356
31
0.0
0
LINE
8
0
6
CONTINUOUS
10
-0.199437
20
-0.110557
30
0.0
11
-0.199437
21
-0.113000
31
0.0
0
LINE
8
0
6
CONTINUOUS
10
-0.198600
20
-0.060941
30
0.0
11
-0.192366
21
-0.060941
31
0.0
0
LINE
8
0
6
CONTINUOUS
10
-0.171436
20
-0.071356
30
0.0
11
-0.171436
21
-0.069273
31
0.0
0
LINE
8
0
6
CONTINUOUS
10
-0.171436
20
-0.063024
30
0.0
11
-0.171436
21
-0.061577
31
0.0
0
LINE
8
0
6
CONTINUOUS
10
-0.201900
20
-0.066846
30
0.0
11
-0.201728
21
-0.065990
31
0.0
0
LINE
8
0
6
CONTINUOUS
10
-0.204428
20
-0.065994
30
0.0
11
-0.202057
21
-0.067116
31
0.0
0
LINE
8
0
6
CONTINUOUS
10
-0.198349
20
-0.059636
30
0.0
11
-0.201237
21
-0.059058
31
0.0
0
LINE
8
0
6
CONTINUOUS
10
-0.201766
20
-0.059202
30
0.0
11
-0.199883
21
-0.059753
31
0.0
0
LINE
8
0
6
CONTINUOUS
10
-0.201237
20
-0.059058
30
0.0
11
-0.204099
21
-0.058275
31
0.0
0
LINE
8
0
6
CONTINUOUS
10
-0.204595
20
-0.058429
30
0.0
11
-0.201766
21
-0.059202
31
0.0
0
LINE
8
0
6
CONTINUOUS
10
-0.207193
20
-0.065239
30
0.0
11
-0.204428
21
-0.065994
31
0.0
0
LINE
8
0
6
CONTINUOUS
10
-0.207069
20
-0.064976
30
0.0
11
-0.204300
21
-0.065731
31
0.0
0
LINE
8
0
6
CONTINUOUS
10
-0.199744
20
-0.070695
30
0.0
11
-0.199437
21
-0.071674
31
0.0
0
LINE
8
0
6
CONTINUOUS
10
-0.199295
20
-0.070636
30
0.0
11
-0.198873
21
-0.071515
31
0.0
0
LINE
8
0
6
CONTINUOUS
10
-0.199437
20
-0.071674
30
0.0
11
-0.199437
21
-0.073269
31
0.0
0
LINE
8
0
6
CONTINUOUS
10
-0.198959
20
-0.060941
30
0.0
11
-0.198600
21
-0.060941
31
0.0
0
LINE
8
0
6
CONTINUOUS
10
-0.186672
20
-0.060941
30
0.0
11
-0.189608
21
-0.060766
31
0.0
0
LINE
8
0
6
CONTINUOUS
10
-0.181852
20
-0.060941
30
0.0
11
-0.185436
21
-0.060941
31
0.0
0
LINE
8
0
6
CONTINUOUS
10
-0.179746
20
-0.060941
30
0.0
11
-0.181852
21
-0.060941
31
0.0
0
LINE
8
0
6
CONTINUOUS
10
-0.200626
20
-0.061832
30
0.0
11
-0.201374
21
-0.061527
31
0.0
0
LINE
8
0
6
CONTINUOUS
10
-0.187556
20
-0.060941
30
0.0
11
-0.184965
21
-0.060941
31
0.0
0
LINE
8
0
6
CONTINUOUS
10
-0.181765
20
-0.060941
30
0.0
11
-0.187556
21
-0.060941
31
0.0
0
LINE
8
0
6
CONTINUOUS
10
-0.199295
20
-0.070636
30
0.0
11
-0.200027
21
-0.069362
31
0.0
0
LINE
8
0
6
CONTINUOUS
10
-0.200374
20
-0.069392
30
0.0
11
-0.199744
21
-0.070695
31
0.0
0
LINE
8
0
6
CONTINUOUS
10
-0.192534
20
-0.060494
30
0.0
11
-0.195447
21
-0.060118
31
0.0
0
LINE
8
0
6
CONTINUOUS
10
-0.201184
20
-0.067955
30
0.0
11
-0.200374
21
-0.069392
31
0.0
0
LINE
8
0
6
CONTINUOUS
10
-0.200908
20
-0.067923
30
0.0
11
-0.200027
21
-0.069362
31
0.0
0
LINE
8
0
6
CONTINUOUS
10
-0.242156
20
-0.050261
30
0.0
11
-0.242512
21
-0.051663
31
0.0
0
LINE
8
0
6
CONTINUOUS
10
-0.181852
20
-0.060941
30
0.0
11
-0.185436
21
-0.060941
31
0.0
0
LINE
8
0
6
CONTINUOUS
10
-0.185436
20
-0.060941
30
0.0
11
-0.189021
21
-0.060941
31
0.0
0
LINE
8
0
6
CONTINUOUS
10
-0.173284
20
-0.060941
30
0.0
11
-0.175524
21
-0.060941
31
0.0
0
LINE
8
0
6
CONTINUOUS
10
-0.171940
20
-0.060941
30
0.0
11
-0.173284
21
-0.060941
31
0.0
0
LINE
8
0
6
CONTINUOUS
10
-0.171436
20
-0.060941
30
0.0
11
-0.171940
21
-0.060941
31
0.0
0
LINE
8
0
6
CONTINUOUS
10
-0.171436
20
-0.061577
30
0.0
11
-0.171436
21
-0.060941
31
0.0
0
LINE
8
0
6
CONTINUOUS
10
-0.175524
20
-0.060941
30
0.0
11
-0.178492
21
-0.060941
31
0.0
0
LINE
8
0
6
CONTINUOUS
10
-0.192381
20
-0.060941
30
0.0
11
-0.195349
21
-0.060941
31
0.0
0
LINE
8
0
6
CONTINUOUS
10
-0.189021
20
-0.060941
30
0.0
11
-0.192381
21
-0.060941
31
0.0
0
LINE
8
0
6
CONTINUOUS
10
-0.195349
20
-0.060941
30
0.0
11
-0.197589
21
-0.060941
31
0.0
0
LINE
8
0
6
CONTINUOUS
10
-0.178492
20
-0.060941
30
0.0
11
-0.181852
21
-0.060941
31
0.0
0
LINE
8
0
6
CONTINUOUS
10
-0.206157
20
-0.058868
30
0.0
11
-0.203434
21
-0.059614
31
0.0
0
LINE
8
0
6
CONTINUOUS
10
-0.198515
20
-0.060941
30
0.0
11
-0.198959
21
-0.060941
31
0.0
0
LINE
8
0
6
CONTINUOUS
10
-0.197589
20
-0.060941
30
0.0
11
-0.198515
21
-0.060941
31
0.0
0
LINE
8
0
6
CONTINUOUS
10
-0.198959
20
-0.060941
30
0.0
11
-0.199656
21
-0.060797
31
0.0
0
LINE
8
0
6
CONTINUOUS
10
-0.199656
20
-0.060797
30
0.0
11
-0.200600
21
-0.060443
31
0.0
0
LINE
8
0
6
CONTINUOUS
10
-0.201365
20
-0.060244
30
0.0
11
-0.201370
21
-0.060877
31
0.0
0
LINE
8
0
6
CONTINUOUS
10
-0.201365
20
-0.060244
30
0.0
11
-0.200600
21
-0.060443
31
0.0
0
LINE
8
0
6
CONTINUOUS
10
-0.171436
20
-0.110057
30
0.0
11
-0.171436
21
-0.073269
31
0.0
0
LINE
8
0
6
CONTINUOUS
10
-0.199437
20
-0.073269
30
0.0
11
-0.199437
21
-0.110057
31
0.0
0
LINE
8
0
6
CONTINUOUS
10
-0.189608
20
-0.060766
30
0.0
11
-0.192534
21
-0.060494
31
0.0
0
LINE
8
0
6
CONTINUOUS
10
-0.174911
20
-0.060941
30
0.0
11
-0.177212
21
-0.060941
31
0.0
0
LINE
8
0
6
CONTINUOUS
10
-0.173586
20
-0.060941
30
0.0
11
-0.174911
21
-0.060941
31
0.0
0
LINE
8
0
6
CONTINUOUS
10
-0.192366
20
-0.060941
30
0.0
11
-0.191782
21
-0.060941
31
0.0
0
LINE
8
0
6
CONTINUOUS
10
-0.204099
20
-0.058275
30
0.0
11
-0.241167
21
-0.048121
31
0.0
0
LINE
8
0
6
CONTINUOUS
10
-0.241238
20
-0.048400
30
0.0
11
-0.204595
21
-0.058429
31
0.0
0
LINE
8
0
6
CONTINUOUS
10
-0.243436
20
-0.055327
30
0.0
11
-0.243366
21
-0.055048
31
0.0
0
LINE
8
0
6
CONTINUOUS
10
-0.241854
20
-0.049073
30
0.0
11
-0.241767
21
-0.048729
31
0.0
0
LINE
8
0
6
CONTINUOUS
10
-0.241581
20
-0.048000
30
0.0
11
-0.241652
21
-0.048279
31
0.0
0
LINE
8
0
6
CONTINUOUS
10
-0.241167
20
-0.048121
30
0.0
11
-0.241581
21
-0.048000
31
0.0
0
LINE
8
0
6
CONTINUOUS
10
-0.242023
20
-0.049737
30
0.0
11
-0.242156
21
-0.050261
31
0.0
0
LINE
8
0
6
CONTINUOUS
10
-0.241440
20
-0.049194
30
0.0
11
-0.206157
21
-0.058868
31
0.0
0
LINE
8
0
6
CONTINUOUS
10
-0.241854
20
-0.049073
30
0.0
11
-0.242023
21
-0.049737
31
0.0
0
LINE
8
0
6
CONTINUOUS
10
-0.241652
20
-0.048279
30
0.0
11
-0.241767
21
-0.048729
31
0.0
0
LINE
8
0
6
CONTINUOUS
10
-0.241238
20
-0.048400
30
0.0
11
-0.241652
21
-0.048279
31
0.0
0
LINE
8
0
6
CONTINUOUS
10
-0.243022
20
-0.055448
30
0.0
11
-0.207193
21
-0.065239
31
0.0
0
LINE
8
0
6
CONTINUOUS
10
-0.242952
20
-0.055170
30
0.0
11
-0.207069
21
-0.064976
31
0.0
0
LINE
8
0
6
CONTINUOUS
10
-0.175537
20
-0.110182
30
0.0
11
-0.178513
21
-0.110182
31
0.0
0
LINE
8
0
6
CONTINUOUS
10
-0.175892
20
-0.110307
30
0.0
11
-0.178758
21
-0.110307
31
0.0
0
LINE
8
0
6
CONTINUOUS
10
-0.175537
20
-0.110432
30
0.0
11
-0.178513
21
-0.110432
31
0.0
0
LINE
8
0
6
CONTINUOUS
10
-0.192381
20
-0.110182
30
0.0
11
-0.195349
21
-0.110182
31
0.0
0
LINE
8
0
6
CONTINUOUS
10
-0.192135
20
-0.110307
30
0.0
11
-0.194995
21
-0.110307
31
0.0
0
LINE
8
0
6
CONTINUOUS
10
-0.192381
20
-0.110432
30
0.0
11
-0.195349
21
-0.110432
31
0.0
0
LINE
8
0
6
CONTINUOUS
10
-0.173325
20
-0.110182
30
0.0
11
-0.175537
21
-0.110182
31
0.0
0
LINE
8
0
6
CONTINUOUS
10
-0.173760
20
-0.110307
30
0.0
11
-0.175892
21
-0.110307
31
0.0
0
LINE
8
0
6
CONTINUOUS
10
-0.173325
20
-0.110432
30
0.0
11
-0.175537
21
-0.110432
31
0.0
0
LINE
8
0
6
CONTINUOUS
10
-0.189021
20
-0.110182
30
0.0
11
-0.192381
21
-0.110182
31
0.0
0
LINE
8
0
6
CONTINUOUS
10
-0.188892
20
-0.110307
30
0.0
11
-0.192135
21
-0.110307
31
0.0
0
LINE
8
0
6
CONTINUOUS
10
-0.189021
20
-0.110432
30
0.0
11
-0.192381
21
-0.110432
31
0.0
0
LINE
8
0
6
CONTINUOUS
10
-0.171436
20
-0.110182
30
0.0
11
-0.171436
21
-0.110057
31
0.0
0
LINE
8
0
6
CONTINUOUS
10
-0.171436
20
-0.110182
30
0.0
11
-0.171952
21
-0.110182
31
0.0
0
LINE
8
0
6
CONTINUOUS
10
-0.171936
20
-0.110307
30
0.0
11
-0.171436
21
-0.110182
31
0.0
0
LINE
8
0
6
CONTINUOUS
10
-0.171936
20
-0.110307
30
0.0
11
-0.172434
21
-0.110307
31
0.0
0
LINE
8
0
6
CONTINUOUS
10
-0.171436
20
-0.110432
30
0.0
11
-0.171936
21
-0.110307
31
0.0
0
LINE
8
0
6
CONTINUOUS
10
-0.171436
20
-0.110432
30
0.0
11
-0.171952
21
-0.110432
31
0.0
0
LINE
8
0
6
CONTINUOUS
10
-0.171436
20
-0.110557
30
0.0
11
-0.171436
21
-0.110432
31
0.0
0
LINE
8
0
6
CONTINUOUS
10
-0.185436
20
-0.110182
30
0.0
11
-0.189021
21
-0.110182
31
0.0
0
LINE
8
0
6
CONTINUOUS
10
-0.185437
20
-0.110307
30
0.0
11
-0.188892
21
-0.110307
31
0.0
0
LINE
8
0
6
CONTINUOUS
10
-0.185436
20
-0.110432
30
0.0
11
-0.189021
21
-0.110432
31
0.0
0
LINE
8
0
6
CONTINUOUS
10
-0.181870
20
-0.110182
30
0.0
11
-0.185436
21
-0.110182
31
0.0
0
LINE
8
0
6
CONTINUOUS
10
-0.181999
20
-0.110307
30
0.0
11
-0.185437
21
-0.110307
31
0.0
0
LINE
8
0
6
CONTINUOUS
10
-0.181870
20
-0.110432
30
0.0
11
-0.185436
21
-0.110432
31
0.0
0
LINE
8
0
6
CONTINUOUS
10
-0.171952
20
-0.110182
30
0.0
11
-0.173325
21
-0.110182
31
0.0
0
LINE
8
0
6
CONTINUOUS
10
-0.172434
20
-0.110307
30
0.0
11
-0.173760
21
-0.110307
31
0.0
0
LINE
8
0
6
CONTINUOUS
10
-0.171952
20
-0.110432
30
0.0
11
-0.173325
21
-0.110432
31
0.0
0
LINE
8
0
6
CONTINUOUS
10
-0.195349
20
-0.110182
30
0.0
11
-0.197589
21
-0.110182
31
0.0
0
LINE
8
0
6
CONTINUOUS
10
-0.194995
20
-0.110307
30
0.0
11
-0.197153
21
-0.110307
31
0.0
0
LINE
8
0
6
CONTINUOUS
10
-0.195349
20
-0.110432
30
0.0
11
-0.197589
21
-0.110432
31
0.0
0
LINE
8
0
6
CONTINUOUS
10
-0.197589
20
-0.110182
30
0.0
11
-0.198933
21
-0.110182
31
0.0
0
LINE
8
0
6
CONTINUOUS
10
-0.197153
20
-0.110307
30
0.0
11
-0.198450
21
-0.110307
31
0.0
0
LINE
8
0
6
CONTINUOUS
10
-0.197589
20
-0.110432
30
0.0
11
-0.198933
21
-0.110432
31
0.0
0
LINE
8
0
6
CONTINUOUS
10
-0.199437
20
-0.110057
30
0.0
11
-0.199437
21
-0.110182
31
0.0
0
LINE
8
0
6
CONTINUOUS
10
-0.198933
20
-0.110182
30
0.0
11
-0.199437
21
-0.110182
31
0.0
0
LINE
8
0
6
CONTINUOUS
10
-0.199437
20
-0.110182
30
0.0
11
-0.198937
21
-0.110307
31
0.0
0
LINE
8
0
6
CONTINUOUS
10
-0.198450
20
-0.110307
30
0.0
11
-0.198937
21
-0.110307
31
0.0
0
LINE
8
0
6
CONTINUOUS
10
-0.198937
20
-0.110307
30
0.0
11
-0.199437
21
-0.110432
31
0.0
0
LINE
8
0
6
CONTINUOUS
10
-0.198933
20
-0.110432
30
0.0
11
-0.199437
21
-0.110432
31
0.0
0
LINE
8
0
6
CONTINUOUS
10
-0.199437
20
-0.110432
30
0.0
11
-0.199437
21
-0.110557
31
0.0
0
LINE
8
0
6
CONTINUOUS
10
-0.178513
20
-0.110182
30
0.0
11
-0.181870
21
-0.110182
31
0.0
0
LINE
8
0
6
CONTINUOUS
10
-0.178758
20
-0.110307
30
0.0
11
-0.181999
21
-0.110307
31
0.0
0
LINE
8
0
6
CONTINUOUS
10
-0.178513
20
-0.110432
30
0.0
11
-0.181870
21
-0.110432
31
0.0
0
LINE
8
0
6
CONTINUOUS
10
0.120709
20
-0.048000
30
0.0
11
0.120294
21
-0.048121
31
0.0
0
LINE
8
0
6
CONTINUOUS
10
0.120779
20
-0.048279
30
0.0
11
0.120709
21
-0.048000
31
0.0
0
LINE
8
0
6
CONTINUOUS
10
0.071662
20
-0.060494
30
0.0
11
0.068736
21
-0.060766
31
0.0
0
LINE
8
0
6
CONTINUOUS
10
0.077476
20
-0.059636
30
0.0
11
0.074574
21
-0.060118
31
0.0
0
LINE
8
0
6
CONTINUOUS
10
0.050563
20
-0.110557
30
0.0
11
0.050563
21
-0.113000
31
0.0
0
LINE
8
0
6
CONTINUOUS
10
0.121993
20
-0.053065
30
0.0
11
0.121639
21
-0.051663
31
0.0
0
LINE
8
0
6
CONTINUOUS
10
0.078871
20
-0.070695
30
0.0
11
0.079501
21
-0.069392
31
0.0
0
LINE
8
0
6
CONTINUOUS
10
0.122293
20
-0.054254
30
0.0
11
0.121993
21
-0.053065
31
0.0
0
LINE
8
0
6
CONTINUOUS
10
0.080035
20
-0.067923
30
0.0
11
0.080855
21
-0.065990
31
0.0
0
LINE
8
0
6
CONTINUOUS
10
0.122493
20
-0.055048
30
0.0
11
0.122293
21
-0.054254
31
0.0
0
LINE
8
0
6
CONTINUOUS
10
0.122493
20
-0.055048
30
0.0
11
0.122079
21
-0.055170
31
0.0
0
LINE
8
0
6
CONTINUOUS
10
0.122149
20
-0.055448
30
0.0
11
0.122564
21
-0.055327
31
0.0
0
LINE
8
0
6
CONTINUOUS
10
0.078422
20
-0.070636
30
0.0
11
0.079155
21
-0.069362
31
0.0
0
LINE
8
0
6
CONTINUOUS
10
0.050563
20
-0.063024
30
0.0
11
0.050563
21
-0.065107
31
0.0
0
LINE
8
0
6
CONTINUOUS
10
0.050563
20
-0.065107
30
0.0
11
0.050563
21
-0.067190
31
0.0
0
LINE
8
0
6
CONTINUOUS
10
0.050563
20
-0.061577
30
0.0
11
0.050563
21
-0.063024
31
0.0
0
LINE
8
0
6
CONTINUOUS
10
0.080502
20
-0.061527
30
0.0
11
0.079753
21
-0.061832
31
0.0
0
LINE
8
0
6
CONTINUOUS
10
0.080311
20
-0.067955
30
0.0
11
0.081184
21
-0.067116
31
0.0
0
LINE
8
0
6
CONTINUOUS
10
0.050563
20
-0.067190
30
0.0
11
0.050563
21
-0.069273
31
0.0
0
LINE
8
0
6
CONTINUOUS
10
0.050563
20
-0.071356
30
0.0
11
0.050563
21
-0.073269
31
0.0
0
LINE
8
0
6
CONTINUOUS
10
0.078564
20
-0.113000
30
0.0
11
0.078564
21
-0.110557
31
0.0
0
LINE
8
0
6
CONTINUOUS
10
0.050563
20
-0.069273
30
0.0
11
0.050563
21
-0.071356
31
0.0
0
LINE
8
0
6
CONTINUOUS
10
0.080855
20
-0.065990
30
0.0
11
0.081027
21
-0.066846
31
0.0
0
LINE
8
0
6
CONTINUOUS
10
0.081184
20
-0.067116
30
0.0
11
0.083555
21
-0.065994
31
0.0
0
LINE
8
0
6
CONTINUOUS
10
0.078989
20
-0.059739
30
0.0
11
0.080894
21
-0.059202
31
0.0
0
LINE
8
0
6
CONTINUOUS
10
0.080364
20
-0.059058
30
0.0
11
0.077476
21
-0.059636
31
0.0
0
LINE
8
0
6
CONTINUOUS
10
0.083226
20
-0.058275
30
0.0
11
0.080364
21
-0.059058
31
0.0
0
LINE
8
0
6
CONTINUOUS
10
0.083555
20
-0.065994
30
0.0
11
0.086320
21
-0.065239
31
0.0
0
LINE
8
0
6
CONTINUOUS
10
0.083427
20
-0.065731
30
0.0
11
0.086196
21
-0.064976
31
0.0
0
LINE
8
0
6
CONTINUOUS
10
0.083722
20
-0.058429
30
0.0
11
0.080894
21
-0.059202
31
0.0
0
LINE
8
0
6
CONTINUOUS
10
0.078564
20
-0.071674
30
0.0
11
0.078871
21
-0.070695
31
0.0
0
LINE
8
0
6
CONTINUOUS
10
0.068736
20
-0.060766
30
0.0
11
0.065800
21
-0.060941
31
0.0
0
LINE
8
0
6
CONTINUOUS
10
0.078000
20
-0.071515
30
0.0
11
0.078422
21
-0.070636
31
0.0
0
LINE
8
0
6
CONTINUOUS
10
0.078564
20
-0.073269
30
0.0
11
0.078564
21
-0.071674
31
0.0
0
LINE
8
0
6
CONTINUOUS
10
0.074574
20
-0.060118
30
0.0
11
0.071662
21
-0.060494
31
0.0
0
LINE
8
0
6
CONTINUOUS
10
0.079501
20
-0.069392
30
0.0
11
0.080311
21
-0.067955
31
0.0
0
LINE
8
0
6
CONTINUOUS
10
0.080010
20
-0.066413
30
0.0
11
0.079935
21
-0.064954
31
0.0
0
LINE
8
0
6
CONTINUOUS
10
0.080035
20
-0.067923
30
0.0
11
0.080010
21
-0.066413
31
0.0
0
LINE
8
0
6
CONTINUOUS
10
0.079155
20
-0.069362
30
0.0
11
0.080035
21
-0.067923
31
0.0
0
LINE
8
0
6
CONTINUOUS
10
0.078733
20
-0.062397
30
0.0
11
0.079753
21
-0.061832
31
0.0
0
LINE
8
0
6
CONTINUOUS
10
0.064564
20
-0.060941
30
0.0
11
0.060979
21
-0.060941
31
0.0
0
LINE
8
0
6
CONTINUOUS
10
0.068148
20
-0.060941
30
0.0
11
0.064564
21
-0.060941
31
0.0
0
LINE
8
0
6
CONTINUOUS
10
0.054651
20
-0.060941
30
0.0
11
0.052411
21
-0.060941
31
0.0
0
LINE
8
0
6
CONTINUOUS
10
0.052411
20
-0.060941
30
0.0
11
0.051067
21
-0.060941
31
0.0
0
LINE
8
0
6
CONTINUOUS
10
0.050563
20
-0.060941
30
0.0
11
0.050563
21
-0.061577
31
0.0
0
LINE
8
0
6
CONTINUOUS
10
0.051067
20
-0.060941
30
0.0
11
0.050563
21
-0.060941
31
0.0
0
LINE
8
0
6
CONTINUOUS
10
0.057619
20
-0.060941
30
0.0
11
0.054651
21
-0.060941
31
0.0
0
LINE
8
0
6
CONTINUOUS
10
0.074476
20
-0.060941
30
0.0
11
0.071508
21
-0.060941
31
0.0
0
LINE
8
0
6
CONTINUOUS
10
0.071508
20
-0.060941
30
0.0
11
0.068148
21
-0.060941
31
0.0
0
LINE
8
0
6
CONTINUOUS
10
0.076716
20
-0.060941
30
0.0
11
0.074476
21
-0.060941
31
0.0
0
LINE
8
0
6
CONTINUOUS
10
0.060979
20
-0.060941
30
0.0
11
0.057619
21
-0.060941
31
0.0
0
LINE
8
0
6
CONTINUOUS
10
0.085285
20
-0.058868
30
0.0
11
0.082562
21
-0.059614
31
0.0
0
LINE
8
0
6
CONTINUOUS
10
0.078086
20
-0.060941
30
0.0
11
0.077643
21
-0.060941
31
0.0
0
LINE
8
0
6
CONTINUOUS
10
0.077643
20
-0.060941
30
0.0
11
0.076716
21
-0.060941
31
0.0
0
LINE
8
0
6
CONTINUOUS
10
0.079727
20
-0.060443
30
0.0
11
0.078783
21
-0.060797
31
0.0
0
LINE
8
0
6
CONTINUOUS
10
0.078783
20
-0.060797
30
0.0
11
0.078086
21
-0.060941
31
0.0
0
LINE
8
0
6
CONTINUOUS
10
0.080497
20
-0.060877
30
0.0
11
0.080492
21
-0.060244
31
0.0
0
LINE
8
0
6
CONTINUOUS
10
0.079727
20
-0.060443
30
0.0
11
0.080492
21
-0.060244
31
0.0
0
LINE
8
0
6
CONTINUOUS
10
0.121151
20
-0.049737
30
0.0
11
0.120981
21
-0.049073
31
0.0
0
LINE
8
0
6
CONTINUOUS
10
0.050563
20
-0.073269
30
0.0
11
0.050563
21
-0.110057
31
0.0
0
LINE
8
0
6
CONTINUOUS
10
0.078564
20
-0.110057
30
0.0
11
0.078564
21
-0.073269
31
0.0
0
LINE
8
0
6
CONTINUOUS
10
0.122493
20
-0.055048
30
0.0
11
0.122564
21
-0.055327
31
0.0
0
LINE
8
0
6
CONTINUOUS
10
0.120981
20
-0.049073
30
0.0
11
0.120894
21
-0.048729
31
0.0
0
LINE
8
0
6
CONTINUOUS
10
0.120567
20
-0.049194
30
0.0
11
0.085285
21
-0.058868
31
0.0
0
LINE
8
0
6
CONTINUOUS
10
0.121639
20
-0.051663
30
0.0
11
0.121283
21
-0.050261
31
0.0
0
LINE
8
0
6
CONTINUOUS
10
0.121283
20
-0.050261
30
0.0
11
0.121151
21
-0.049737
31
0.0
0
LINE
8
0
6
CONTINUOUS
10
0.086320
20
-0.065239
30
0.0
11
0.122149
21
-0.055448
31
0.0
0
LINE
8
0
6
CONTINUOUS
10
0.086196
20
-0.064976
30
0.0
11
0.122079
21
-0.055170
31
0.0
0
LINE
8
0
6
CONTINUOUS
10
0.120894
20
-0.048729
30
0.0
11
0.120779
21
-0.048279
31
0.0
0
LINE
8
0
6
CONTINUOUS
10
0.120779
20
-0.048279
30
0.0
11
0.120365
21
-0.048400
31
0.0
0
LINE
8
0
6
CONTINUOUS
10
0.120294
20
-0.048121
30
0.0
11
0.083226
21
-0.058275
31
0.0
0
LINE
8
0
6
CONTINUOUS
10
0.083722
20
-0.058429
30
0.0
11
0.120365
21
-0.048400
31
0.0
0
LINE
8
0
6
CONTINUOUS
10
0.057640
20
-0.110182
30
0.0
11
0.054665
21
-0.110182
31
0.0
0
LINE
8
0
6
CONTINUOUS
10
0.057885
20
-0.110307
30
0.0
11
0.055019
21
-0.110307
31
0.0
0
LINE
8
0
6
CONTINUOUS
10
0.057640
20
-0.110432
30
0.0
11
0.054665
21
-0.110432
31
0.0
0
LINE
8
0
6
CONTINUOUS
10
0.074476
20
-0.110182
30
0.0
11
0.071508
21
-0.110182
31
0.0
0
LINE
8
0
6
CONTINUOUS
10
0.074123
20
-0.110307
30
0.0
11
0.071262
21
-0.110307
31
0.0
0
LINE
8
0
6
CONTINUOUS
10
0.074476
20
-0.110432
30
0.0
11
0.071508
21
-0.110432
31
0.0
0
LINE
8
0
6
CONTINUOUS
10
0.054665
20
-0.110182
30
0.0
11
0.052452
21
-0.110182
31
0.0
0
LINE
8
0
6
CONTINUOUS
10
0.055019
20
-0.110307
30
0.0
11
0.052888
21
-0.110307
31
0.0
0
LINE
8
0
6
CONTINUOUS
10
0.054665
20
-0.110432
30
0.0
11
0.052452
21
-0.110432
31
0.0
0
LINE
8
0
6
CONTINUOUS
10
0.071508
20
-0.110182
30
0.0
11
0.068148
21
-0.110182
31
0.0
0
LINE
8
0
6
CONTINUOUS
10
0.071262
20
-0.110307
30
0.0
11
0.068019
21
-0.110307
31
0.0
0
LINE
8
0
6
CONTINUOUS
10
0.071508
20
-0.110432
30
0.0
11
0.068148
21
-0.110432
31
0.0
0
LINE
8
0
6
CONTINUOUS
10
0.050563
20
-0.110057
30
0.0
11
0.050563
21
-0.110182
31
0.0
0
LINE
8
0
6
CONTINUOUS
10
0.051079
20
-0.110182
30
0.0
11
0.050563
21
-0.110182
31
0.0
0
LINE
8
0
6
CONTINUOUS
10
0.050563
20
-0.110182
30
0.0
11
0.051063
21
-0.110307
31
0.0
0
LINE
8
0
6
CONTINUOUS
10
0.051562
20
-0.110307
30
0.0
11
0.051063
21
-0.110307
31
0.0
0
LINE
8
0
6
CONTINUOUS
10
0.051063
20
-0.110307
30
0.0
11
0.050563
21
-0.110432
31
0.0
0
LINE
8
0
6
CONTINUOUS
10
0.051079
20
-0.110432
30
0.0
11
0.050563
21
-0.110432
31
0.0
0
LINE
8
0
6
CONTINUOUS
10
0.050563
20
-0.110432
30
0.0
11
0.050563
21
-0.110557
31
0.0
0
LINE
8
0
6
CONTINUOUS
10
0.068148
20
-0.110182
30
0.0
11
0.064564
21
-0.110182
31
0.0
0
LINE
8
0
6
CONTINUOUS
10
0.068019
20
-0.110307
30
0.0
11
0.064564
21
-0.110307
31
0.0
0
LINE
8
0
6
CONTINUOUS
10
0.068148
20
-0.110432
30
0.0
11
0.064564
21
-0.110432
31
0.0
0
LINE
8
0
6
CONTINUOUS
10
0.064564
20
-0.110182
30
0.0
11
0.060997
21
-0.110182
31
0.0
0
LINE
8
0
6
CONTINUOUS
10
0.064564
20
-0.110307
30
0.0
11
0.061126
21
-0.110307
31
0.0
0
LINE
8
0
6
CONTINUOUS
10
0.064564
20
-0.110432
30
0.0
11
0.060997
21
-0.110432
31
0.0
0
LINE
8
0
6
CONTINUOUS
10
0.052452
20
-0.110182
30
0.0
11
0.051079
21
-0.110182
31
0.0
0
LINE
8
0
6
CONTINUOUS
10
0.052888
20
-0.110307
30
0.0
11
0.051562
21
-0.110307
31
0.0
0
LINE
8
0
6
CONTINUOUS
10
0.052452
20
-0.110432
30
0.0
11
0.051079
21
-0.110432
31
0.0
0
LINE
8
0
6
CONTINUOUS
10
0.076716
20
-0.110182
30
0.0
11
0.074476
21
-0.110182
31
0.0
0
LINE
8
0
6
CONTINUOUS
10
0.076281
20
-0.110307
30
0.0
11
0.074123
21
-0.110307
31
0.0
0
LINE
8
0
6
CONTINUOUS
10
0.076716
20
-0.110432
30
0.0
11
0.074476
21
-0.110432
31
0.0
0
LINE
8
0
6
CONTINUOUS
10
0.078060
20
-0.110182
30
0.0
11
0.076716
21
-0.110182
31
0.0
0
LINE
8
0
6
CONTINUOUS
10
0.077577
20
-0.110307
30
0.0
11
0.076281
21
-0.110307
31
0.0
0
LINE
8
0
6
CONTINUOUS
10
0.078060
20
-0.110432
30
0.0
11
0.076716
21
-0.110432
31
0.0
0
LINE
8
0
6
CONTINUOUS
10
0.078564
20
-0.110182
30
0.0
11
0.078564
21
-0.110057
31
0.0
0
LINE
8
0
6
CONTINUOUS
10
0.078564
20
-0.110182
30
0.0
11
0.078060
21
-0.110182
31
0.0
0
LINE
8
0
6
CONTINUOUS
10
0.078064
20
-0.110307
30
0.0
11
0.078564
21
-0.110182
31
0.0
0
LINE
8
0
6
CONTINUOUS
10
0.078064
20
-0.110307
30
0.0
11
0.077577
21
-0.110307
31
0.0
0
LINE
8
0
6
CONTINUOUS
10
0.078564
20
-0.110432
30
0.0
11
0.078064
21
-0.110307
31
0.0
0
LINE
8
0
6
CONTINUOUS
10
0.078564
20
-0.110432
30
0.0
11
0.078060
21
-0.110432
31
0.0
0
LINE
8
0
6
CONTINUOUS
10
0.078564
20
-0.110557
30
0.0
11
0.078564
21
-0.110432
31
0.0
0
LINE
8
0
6
CONTINUOUS
10
0.060997
20
-0.110182
30
0.0
11
0.057640
21
-0.110182
31
0.0
0
LINE
8
0
6
CONTINUOUS
10
0.061126
20
-0.110307
30
0.0
11
0.057885
21
-0.110307
31
0.0
0
LINE
8
0
6
CONTINUOUS
10
0.060997
20
-0.110432
30
0.0
11
0.057640
21
-0.110432
31
0.0
0
LINE
8
0
6
CONTINUOUS
10
0.093541
20
-0.119000
30
0.0
11
0.094564
21
-0.119000
31
0.0
0
LINE
8
0
6
CONTINUOUS
10
0.094564
20
-0.119000
30
0.0
11
0.094564
21
-0.118053
31
0.0
0
LINE
8
0
6
CONTINUOUS
10
0.090544
20
-0.119000
30
0.0
11
0.093541
21
-0.119000
31
0.0
0
LINE
8
0
6
CONTINUOUS
10
0.085777
20
-0.119000
30
0.0
11
0.090544
21
-0.119000
31
0.0
0
LINE
8
0
6
CONTINUOUS
10
0.079564
20
-0.119000
30
0.0
11
0.085777
21
-0.119000
31
0.0
0
LINE
8
0
6
CONTINUOUS
10
0.072328
20
-0.119000
30
0.0
11
0.079564
21
-0.119000
31
0.0
0
LINE
8
0
6
CONTINUOUS
10
0.064564
20
-0.119000
30
0.0
11
0.072328
21
-0.119000
31
0.0
0
LINE
8
0
6
CONTINUOUS
10
0.056799
20
-0.119000
30
0.0
11
0.064564
21
-0.119000
31
0.0
0
LINE
8
0
6
CONTINUOUS
10
0.049564
20
-0.119000
30
0.0
11
0.056799
21
-0.119000
31
0.0
0
LINE
8
0
6
CONTINUOUS
10
0.043350
20
-0.119000
30
0.0
11
0.049564
21
-0.119000
31
0.0
0
LINE
8
0
6
CONTINUOUS
10
0.038583
20
-0.119000
30
0.0
11
0.043350
21
-0.119000
31
0.0
0
LINE
8
0
6
CONTINUOUS
10
0.035586
20
-0.119000
30
0.0
11
0.038583
21
-0.119000
31
0.0
0
LINE
8
0
6
CONTINUOUS
10
0.034564
20
-0.119000
30
0.0
11
0.035586
21
-0.119000
31
0.0
0
LINE
8
0
6
CONTINUOUS
10
0.034564
20
-0.118053
30
0.0
11
0.034564
21
-0.119000
31
0.0
0
LINE
8
0
6
CONTINUOUS
10
0.034564
20
-0.113947
30
0.0
11
0.034564
21
-0.118053
31
0.0
0
LINE
8
0
6
CONTINUOUS
10
0.094564
20
-0.118053
30
0.0
11
0.094564
21
-0.113947
31
0.0
0
LINE
8
0
6
CONTINUOUS
10
0.094564
20
-0.113947
30
0.0
11
0.094564
21
-0.113000
31
0.0
0
LINE
8
0
6
CONTINUOUS
10
0.094564
20
-0.113000
30
0.0
11
0.093541
21
-0.113000
31
0.0
0
LINE
8
0
6
CONTINUOUS
10
0.093541
20
-0.113000
30
0.0
11
0.090544
21
-0.113000
31
0.0
0
LINE
8
0
6
CONTINUOUS
10
0.090544
20
-0.113000
30
0.0
11
0.085777
21
-0.113000
31
0.0
0
LINE
8
0
6
CONTINUOUS
10
0.085777
20
-0.113000
30
0.0
11
0.079564
21
-0.113000
31
0.0
0
LINE
8
0
6
CONTINUOUS
10
0.079564
20
-0.113000
30
0.0
11
0.072328
21
-0.113000
31
0.0
0
LINE
8
0
6
CONTINUOUS
10
0.072328
20
-0.113000
30
0.0
11
0.064564
21
-0.113000
31
0.0
0
LINE
8
0
6
CONTINUOUS
10
0.064564
20
-0.113000
30
0.0
11
0.056799
21
-0.113000
31
0.0
0
LINE
8
0
6
CONTINUOUS
10
0.056799
20
-0.113000
30
0.0
11
0.049564
21
-0.113000
31
0.0
0
LINE
8
0
6
CONTINUOUS
10
0.049564
20
-0.113000
30
0.0
11
0.043350
21
-0.113000
31
0.0
0
LINE
8
0
6
CONTINUOUS
10
0.043350
20
-0.113000
30
0.0
11
0.038583
21
-0.113000
31
0.0
0
LINE
8
0
6
CONTINUOUS
10
0.038583
20
-0.113000
30
0.0
11
0.035586
21
-0.113000
31
0.0
0
LINE
8
0
6
CONTINUOUS
10
0.034564
20
-0.113000
30
0.0
11
0.034564
21
-0.113947
31
0.0
0
LINE
8
0
6
CONTINUOUS
10
0.035586
20
-0.113000
30
0.0
11
0.034564
21
-0.113000
31
0.0
0
LINE
8
0
6
CONTINUOUS
10
0.160669
20
0.083844
30
0.0
11
0.161105
21
0.085010
31
0.0
0
LINE
8
0
6
CONTINUOUS
10
0.150286
20
0.055345
30
0.0
11
0.151120
21
0.054793
31
0.0
0
LINE
8
0
6
CONTINUOUS
10
0.151120
20
0.054793
30
0.0
11
0.151544
21
0.054501
31
0.0
0
LINE
8
0
6
CONTINUOUS
10
0.166116
20
0.058269
30
0.0
11
0.167373
21
0.057516
31
0.0
0
LINE
8
0
6
CONTINUOUS
10
0.172309
20
0.097710
30
0.0
11
0.173360
21
0.098733
31
0.0
0
LINE
8
0
6
CONTINUOUS
10
0.226485
20
0.084539
30
0.0
11
0.226547
21
0.084575
31
0.0
0
LINE
8
0
6
CONTINUOUS
10
0.226547
20
0.084575
30
0.0
11
0.227862
21
0.085507
31
0.0
0
LINE
8
0
6
CONTINUOUS
10
0.212406
20
0.076868
30
0.0
11
0.213875
21
0.076450
31
0.0
0
LINE
8
0
6
CONTINUOUS
10
0.206990
20
0.068628
30
0.0
11
0.208459
21
0.068279
31
0.0
0
LINE
8
0
6
CONTINUOUS
10
0.148876
20
0.084327
30
0.0
11
0.148961
21
0.085414
31
0.0
0
LINE
8
0
6
CONTINUOUS
10
0.153292
20
0.076152
30
0.0
11
0.153200
21
0.075033
31
0.0
0
LINE
8
0
6
CONTINUOUS
10
0.187558
20
0.098547
30
0.0
11
0.188050
21
0.099922
31
0.0
0
LINE
8
0
6
CONTINUOUS
10
0.223532
20
0.076379
30
0.0
11
0.225001
21
0.076049
31
0.0
0
LINE
8
0
6
CONTINUOUS
10
0.219527
20
0.092061
30
0.0
11
0.219183
21
0.093049
31
0.0
0
LINE
8
0
6
CONTINUOUS
10
0.219183
20
0.093049
30
0.0
11
0.219091
21
0.093325
31
0.0
0
LINE
8
0
6
CONTINUOUS
10
0.200419
20
0.076240
30
0.0
11
0.202012
21
0.075975
31
0.0
0
LINE
8
0
6
CONTINUOUS
10
0.211029
20
0.076125
30
0.0
11
0.212406
21
0.076868
31
0.0
0
LINE
8
0
6
CONTINUOUS
10
0.203101
20
0.090648
30
0.0
11
0.204570
21
0.090743
31
0.0
0
LINE
8
0
6
CONTINUOUS
10
0.202925
20
0.090650
30
0.0
11
0.203101
21
0.090648
31
0.0
0
LINE
8
0
6
CONTINUOUS
10
0.201911
20
0.083107
30
0.0
11
0.201989
21
0.083206
31
0.0
0
LINE
8
0
6
CONTINUOUS
10
0.203090
20
0.040823
30
0.0
11
0.204333
21
0.041165
31
0.0
0
LINE
8
0
6
CONTINUOUS
10
0.204333
20
0.041165
30
0.0
11
0.204639
21
0.041249
31
0.0
0
LINE
8
0
6
CONTINUOUS
10
0.204639
20
0.041249
30
0.0
11
0.204709
21
0.041223
31
0.0
0
LINE
8
0
6
CONTINUOUS
10
0.223717
20
0.065430
30
0.0
11
0.225265
21
0.065997
31
0.0
0
LINE
8
0
6
CONTINUOUS
10
0.202912
20
0.040274
30
0.0
11
0.202826
21
0.040016
31
0.0
0
LINE
8
0
6
CONTINUOUS
10
0.203090
20
0.040823
30
0.0
11
0.202912
21
0.040274
31
0.0
0
LINE
8
0
6
CONTINUOUS
10
0.202826
20
0.040016
30
0.0
11
0.202799
21
0.039932
31
0.0
0
LINE
8
0
6
CONTINUOUS
10
0.203482
20
0.059936
30
0.0
11
0.205030
21
0.060459
31
0.0
0
LINE
8
0
6
CONTINUOUS
10
0.201989
20
0.083206
30
0.0
11
0.203601
21
0.083187
31
0.0
0
LINE
8
0
6
CONTINUOUS
10
0.214439
20
0.083985
30
0.0
11
0.215595
21
0.084961
31
0.0
0
LINE
8
0
6
CONTINUOUS
10
0.195289
20
0.044156
30
0.0
11
0.194998
21
0.043253
31
0.0
0
LINE
8
0
6
CONTINUOUS
10
0.197455
20
0.063035
30
0.0
11
0.197551
21
0.063060
31
0.0
0
LINE
8
0
6
CONTINUOUS
10
0.196003
20
0.062639
30
0.0
11
0.197455
21
0.063035
31
0.0
0
LINE
8
0
6
CONTINUOUS
10
0.189564
20
0.056414
30
0.0
11
0.191023
21
0.056474
31
0.0
0
LINE
8
0
6
CONTINUOUS
10
0.189247
20
0.056398
30
0.0
11
0.189564
21
0.056414
31
0.0
0
LINE
8
0
6
CONTINUOUS
10
0.197551
20
0.063060
30
0.0
11
0.198808
21
0.062395
31
0.0
0
LINE
8
0
6
CONTINUOUS
10
0.178738
20
0.059820
30
0.0
11
0.179903
21
0.058963
31
0.0
0
LINE
8
0
6
CONTINUOUS
10
0.201505
20
0.061790
30
0.0
11
0.200719
21
0.060763
31
0.0
0
LINE
8
0
6
CONTINUOUS
10
0.181204
20
0.058216
30
0.0
11
0.182583
21
0.057588
31
0.0
0
LINE
8
0
6
CONTINUOUS
10
0.179903
20
0.058963
30
0.0
11
0.181052
21
0.058308
31
0.0
0
LINE
8
0
6
CONTINUOUS
10
0.181052
20
0.058308
30
0.0
11
0.181204
21
0.058216
31
0.0
0
LINE
8
0
6
CONTINUOUS
10
0.179843
20
0.068710
30
0.0
11
0.179751
21
0.067626
31
0.0
0
LINE
8
0
6
CONTINUOUS
10
0.143590
20
0.065286
30
0.0
11
0.143299
21
0.064350
31
0.0
0
LINE
8
0
6
CONTINUOUS
10
0.145139
20
0.065330
30
0.0
11
0.146396
21
0.064437
31
0.0
0
LINE
8
0
6
CONTINUOUS
10
0.169833
20
0.068355
30
0.0
11
0.169741
21
0.067294
31
0.0
0
LINE
8
0
6
CONTINUOUS
10
0.158241
20
0.056734
30
0.0
11
0.159499
21
0.055932
31
0.0
0
LINE
8
0
6
CONTINUOUS
10
0.177695
20
0.069448
30
0.0
11
0.177806
21
0.069656
31
0.0
0
LINE
8
0
6
CONTINUOUS
10
0.184103
20
0.057078
30
0.0
11
0.185740
21
0.056702
31
0.0
0
LINE
8
0
6
CONTINUOUS
10
0.195774
20
0.055196
30
0.0
11
0.197032
21
0.054602
31
0.0
0
LINE
8
0
6
CONTINUOUS
10
0.216646
20
0.078118
30
0.0
11
0.217163
21
0.077779
31
0.0
0
LINE
8
0
6
CONTINUOUS
10
0.208527
20
0.047982
30
0.0
11
0.209784
21
0.048712
31
0.0
0
LINE
8
0
6
CONTINUOUS
10
0.220051
20
0.056619
30
0.0
11
0.221600
21
0.056503
31
0.0
0
LINE
8
0
6
CONTINUOUS
10
0.189564
20
0.085472
30
0.0
11
0.189876
21
0.085439
31
0.0
0
LINE
8
0
6
CONTINUOUS
10
0.194226
20
0.054814
30
0.0
11
0.194716
21
0.054936
31
0.0
0
LINE
8
0
6
CONTINUOUS
10
0.194716
20
0.054936
30
0.0
11
0.195774
21
0.055196
31
0.0
0
LINE
8
0
6
CONTINUOUS
10
0.182583
20
0.057588
30
0.0
11
0.184103
21
0.057078
31
0.0
0
LINE
8
0
6
CONTINUOUS
10
0.202042
20
0.089529
30
0.0
11
0.202925
21
0.090650
31
0.0
0
LINE
8
0
6
CONTINUOUS
10
0.227862
20
0.085507
30
0.0
11
0.228984
21
0.085328
31
0.0
0
LINE
8
0
6
CONTINUOUS
10
0.228984
20
0.085328
30
0.0
11
0.229331
21
0.085264
31
0.0
0
LINE
8
0
6
CONTINUOUS
10
0.203482
20
0.059936
30
0.0
11
0.203191
21
0.058842
31
0.0
0
LINE
8
0
6
CONTINUOUS
10
0.216705
20
0.067286
30
0.0
11
0.217715
21
0.066890
31
0.0
0
LINE
8
0
6
CONTINUOUS
10
0.199263
20
0.075350
30
0.0
11
0.200419
21
0.076240
31
0.0
0
LINE
8
0
6
CONTINUOUS
10
0.210135
20
0.048664
30
0.0
11
0.211332
21
0.048588
31
0.0
0
LINE
8
0
6
CONTINUOUS
10
0.200719
20
0.060763
30
0.0
11
0.200491
21
0.060543
31
0.0
0
LINE
8
0
6
CONTINUOUS
10
0.191023
20
0.056474
30
0.0
11
0.192059
21
0.056612
31
0.0
0
LINE
8
0
6
CONTINUOUS
10
0.192059
20
0.056612
30
0.0
11
0.192743
21
0.056703
31
0.0
0
LINE
8
0
6
CONTINUOUS
10
0.214910
20
0.066895
30
0.0
11
0.216458
21
0.067399
31
0.0
0
LINE
8
0
6
CONTINUOUS
10
0.205549
20
0.085583
30
0.0
11
0.209057
21
0.084154
31
0.0
0
LINE
8
0
6
CONTINUOUS
10
0.215998
20
0.084906
30
0.0
11
0.217188
21
0.084867
31
0.0
0
LINE
8
0
6
CONTINUOUS
10
0.215595
20
0.084961
30
0.0
11
0.215998
21
0.084906
31
0.0
0
LINE
8
0
6
CONTINUOUS
10
0.203406
20
0.086093
30
0.0
11
0.205549
21
0.085583
31
0.0
0
LINE
8
0
6
CONTINUOUS
10
0.201800
20
0.086786
30
0.0
11
0.203406
21
0.086093
31
0.0
0
LINE
8
0
6
CONTINUOUS
10
0.228006
20
0.055188
30
0.0
11
0.229555
21
0.055167
31
0.0
0
LINE
8
0
6
CONTINUOUS
10
0.164418
20
0.076513
30
0.0
11
0.164326
21
0.075351
31
0.0
0
LINE
8
0
6
CONTINUOUS
10
0.201410
20
0.051131
30
0.0
11
0.202958
21
0.051579
31
0.0
0
LINE
8
0
6
CONTINUOUS
10
0.188386
20
0.078883
30
0.0
11
0.189564
21
0.078806
31
0.0
0
LINE
8
0
6
CONTINUOUS
10
0.189564
20
0.078806
30
0.0
11
0.190030
21
0.078807
31
0.0
0
LINE
8
0
6
CONTINUOUS
10
0.216342
20
0.092266
30
0.0
11
0.217498
21
0.093450
31
0.0
0
LINE
8
0
6
CONTINUOUS
10
0.189247
20
0.088438
30
0.0
11
0.189564
21
0.088394
31
0.0
0
LINE
8
0
6
CONTINUOUS
10
0.189564
20
0.088394
30
0.0
11
0.193634
21
0.088427
31
0.0
0
LINE
8
0
6
CONTINUOUS
10
0.176184
20
0.046770
30
0.0
11
0.176598
21
0.046630
31
0.0
0
LINE
8
0
6
CONTINUOUS
10
0.163422
20
0.079730
30
0.0
11
0.163678
21
0.080069
31
0.0
0
LINE
8
0
6
CONTINUOUS
10
0.179582
20
0.045938
30
0.0
11
0.180643
21
0.045687
31
0.0
0
LINE
8
0
6
CONTINUOUS
10
0.193634
20
0.088427
30
0.0
11
0.196971
21
0.088009
31
0.0
0
LINE
8
0
6
CONTINUOUS
10
0.197853
20
0.087886
30
0.0
11
0.201800
21
0.086786
31
0.0
0
LINE
8
0
6
CONTINUOUS
10
0.196971
20
0.088009
30
0.0
11
0.197853
21
0.087886
31
0.0
0
LINE
8
0
6
CONTINUOUS
10
0.180643
20
0.045687
30
0.0
11
0.182734
21
0.045400
31
0.0
0
LINE
8
0
6
CONTINUOUS
10
0.184863
20
0.045106
30
0.0
11
0.189247
21
0.044910
31
0.0
0
LINE
8
0
6
CONTINUOUS
10
0.182734
20
0.045400
30
0.0
11
0.184863
21
0.045106
31
0.0
0
ENDSEC
0
EOF
