999
Erzeugt mit innoplus bad 
0
SECTION
2
HEADER
9
$ACADVER
1
AC1009
9
$DWGCODEPAGE
3
ISO8859-1
0
ENDSEC
0
SECTION
2
TABLES
0
TABLE
2
LAYER
70
1
0
LAYER
2
0
70
0
62
7
6
CONTINUOUS
0
ENDTAB
0
ENDSEC
0
SECTION
2
ENTITIES
0
LINE
8
0
6
CONTINUOUS
10
0.179703
20
0.072119
30
0.0
11
0.177150
21
0.074099
31
0.0
0
LINE
8
0
6
CONTINUOUS
10
0.177152
20
0.074435
30
0.0
11
0.179706
21
0.072455
31
0.0
0
LINE
8
0
6
CONTINUOUS
10
0.154425
20
0.072119
30
0.0
11
0.152504
21
0.069751
31
0.0
0
LINE
8
0
6
CONTINUOUS
10
0.152500
20
0.070086
30
0.0
11
0.154421
21
0.072455
31
0.0
0
LINE
8
0
6
CONTINUOUS
10
0.174088
20
0.075592
30
0.0
11
0.170669
21
0.076521
31
0.0
0
LINE
8
0
6
CONTINUOUS
10
0.170670
20
0.076858
30
0.0
11
0.174090
21
0.075928
31
0.0
0
LINE
8
0
6
CONTINUOUS
10
0.181624
20
0.069751
30
0.0
11
0.179703
21
0.072119
31
0.0
0
LINE
8
0
6
CONTINUOUS
10
0.179706
20
0.072455
30
0.0
11
0.181627
21
0.070086
31
0.0
0
LINE
8
0
6
CONTINUOUS
10
0.183225
20
0.064165
30
0.0
11
0.183227
21
0.064332
31
0.0
0
LINE
8
0
6
CONTINUOUS
10
0.183227
20
0.064332
30
0.0
11
0.182818
21
0.067112
31
0.0
0
LINE
8
0
6
CONTINUOUS
10
0.183231
20
0.064665
30
0.0
11
0.183233
21
0.064831
31
0.0
0
LINE
8
0
6
CONTINUOUS
10
0.182822
20
0.067446
30
0.0
11
0.183231
21
0.064665
31
0.0
0
LINE
8
0
6
CONTINUOUS
10
0.150900
20
0.064332
30
0.0
11
0.150902
21
0.064165
31
0.0
0
LINE
8
0
6
CONTINUOUS
10
0.151310
20
0.067112
30
0.0
11
0.150900
21
0.064332
31
0.0
0
LINE
8
0
6
CONTINUOUS
10
0.150896
20
0.064665
30
0.0
11
0.151306
21
0.067446
31
0.0
0
LINE
8
0
6
CONTINUOUS
10
0.150894
20
0.064831
30
0.0
11
0.150896
21
0.064665
31
0.0
0
LINE
8
0
6
CONTINUOUS
10
0.152504
20
0.069751
30
0.0
11
0.151310
21
0.067112
31
0.0
0
LINE
8
0
6
CONTINUOUS
10
0.151306
20
0.067446
30
0.0
11
0.152500
21
0.070086
31
0.0
0
LINE
8
0
6
CONTINUOUS
10
0.167064
20
0.076837
30
0.0
11
0.163458
21
0.076521
31
0.0
0
LINE
8
0
6
CONTINUOUS
10
0.163457
20
0.076858
30
0.0
11
0.167064
21
0.077174
31
0.0
0
LINE
8
0
6
CONTINUOUS
10
0.156978
20
0.074099
30
0.0
11
0.154425
21
0.072119
31
0.0
0
LINE
8
0
6
CONTINUOUS
10
0.154421
20
0.072455
30
0.0
11
0.156975
21
0.074435
31
0.0
0
LINE
8
0
6
CONTINUOUS
10
0.163458
20
0.076521
30
0.0
11
0.160039
21
0.075592
31
0.0
0
LINE
8
0
6
CONTINUOUS
10
0.160037
20
0.075928
30
0.0
11
0.163457
21
0.076858
31
0.0
0
LINE
8
0
6
CONTINUOUS
10
0.160039
20
0.075592
30
0.0
11
0.156978
21
0.074099
31
0.0
0
LINE
8
0
6
CONTINUOUS
10
0.156975
20
0.074435
30
0.0
11
0.160037
21
0.075928
31
0.0
0
LINE
8
0
6
CONTINUOUS
10
0.182818
20
0.067112
30
0.0
11
0.181624
21
0.069751
31
0.0
0
LINE
8
0
6
CONTINUOUS
10
0.181627
20
0.070086
30
0.0
11
0.182822
21
0.067446
31
0.0
0
LINE
8
0
6
CONTINUOUS
10
0.177150
20
0.074099
30
0.0
11
0.174088
21
0.075592
31
0.0
0
LINE
8
0
6
CONTINUOUS
10
0.174090
20
0.075928
30
0.0
11
0.177152
21
0.074435
31
0.0
0
LINE
8
0
6
CONTINUOUS
10
0.170669
20
0.076521
30
0.0
11
0.167064
21
0.076837
31
0.0
0
LINE
8
0
6
CONTINUOUS
10
0.167064
20
0.077174
30
0.0
11
0.170670
21
0.076858
31
0.0
0
LINE
8
0
6
CONTINUOUS
10
0.150541
20
0.093935
30
0.0
11
0.150894
21
0.064831
31
0.0
0
LINE
8
0
6
CONTINUOUS
10
0.183233
20
0.064831
30
0.0
11
0.183586
21
0.093935
31
0.0
0
LINE
8
0
6
CONTINUOUS
10
0.159288
20
0.130028
30
0.0
11
0.151874
21
0.127589
31
0.0
0
LINE
8
0
6
CONTINUOUS
10
0.174839
20
0.130028
30
0.0
11
0.167064
21
0.131000
31
0.0
0
LINE
8
0
6
CONTINUOUS
10
0.149287
20
0.090046
30
0.0
11
0.150538
21
0.085390
31
0.0
0
LINE
8
0
6
CONTINUOUS
10
0.150211
20
0.089692
30
0.0
11
0.150611
21
0.088203
31
0.0
0
LINE
8
0
6
CONTINUOUS
10
0.183480
20
0.085162
30
0.0
11
0.183590
21
0.085390
31
0.0
0
LINE
8
0
6
CONTINUOUS
10
0.150211
20
0.099263
30
0.0
11
0.151438
21
0.103830
31
0.0
0
LINE
8
0
6
CONTINUOUS
10
0.149797
20
0.094475
30
0.0
11
0.150211
21
0.099263
31
0.0
0
LINE
8
0
6
CONTINUOUS
10
0.150538
20
0.085390
30
0.0
11
0.150648
21
0.085163
31
0.0
0
LINE
8
0
6
CONTINUOUS
10
0.148865
20
0.094935
30
0.0
11
0.149287
21
0.090046
31
0.0
0
LINE
8
0
6
CONTINUOUS
10
0.150211
20
0.089692
30
0.0
11
0.149797
21
0.094475
31
0.0
0
LINE
8
0
6
CONTINUOUS
10
0.174753
20
0.114121
30
0.0
11
0.178019
21
0.111448
31
0.0
0
LINE
8
0
6
CONTINUOUS
10
0.153429
20
0.107958
30
0.0
11
0.156109
21
0.111448
31
0.0
0
LINE
8
0
6
CONTINUOUS
10
0.156109
20
0.111448
30
0.0
11
0.159374
21
0.114121
31
0.0
0
LINE
8
0
6
CONTINUOUS
10
0.178019
20
0.111448
30
0.0
11
0.180698
21
0.107958
31
0.0
0
LINE
8
0
6
CONTINUOUS
10
0.180698
20
0.107958
30
0.0
11
0.182690
21
0.103830
31
0.0
0
LINE
8
0
6
CONTINUOUS
10
0.184840
20
0.090046
30
0.0
11
0.185263
21
0.094935
31
0.0
0
LINE
8
0
6
CONTINUOUS
10
0.184330
20
0.094475
30
0.0
11
0.183917
21
0.089692
31
0.0
0
LINE
8
0
6
CONTINUOUS
10
0.182690
20
0.103830
30
0.0
11
0.183916
21
0.099263
31
0.0
0
LINE
8
0
6
CONTINUOUS
10
0.183916
20
0.099263
30
0.0
11
0.184330
21
0.094475
31
0.0
0
LINE
8
0
6
CONTINUOUS
10
0.183590
20
0.085390
30
0.0
11
0.184840
21
0.090046
31
0.0
0
LINE
8
0
6
CONTINUOUS
10
0.183917
20
0.089692
30
0.0
11
0.183517
21
0.088203
31
0.0
0
LINE
8
0
6
CONTINUOUS
10
0.150902
20
0.064165
30
0.0
11
0.151063
21
0.050954
31
0.0
0
LINE
8
0
6
CONTINUOUS
10
0.183065
20
0.050954
30
0.0
11
0.183225
21
0.064165
31
0.0
0
LINE
8
0
6
CONTINUOUS
10
0.158747
20
0.058178
30
0.0
11
0.156634
21
0.056557
31
0.0
0
LINE
8
0
6
CONTINUOUS
10
0.167064
20
0.060068
30
0.0
11
0.170032
21
0.059811
31
0.0
0
LINE
8
0
6
CONTINUOUS
10
0.170032
20
0.060156
30
0.0
11
0.167064
21
0.060412
31
0.0
0
LINE
8
0
6
CONTINUOUS
10
0.164095
20
0.059811
30
0.0
11
0.167064
21
0.060068
31
0.0
0
LINE
8
0
6
CONTINUOUS
10
0.167064
20
0.060412
30
0.0
11
0.164095
21
0.060156
31
0.0
0
LINE
8
0
6
CONTINUOUS
10
0.177493
20
0.056557
30
0.0
11
0.175381
21
0.058178
31
0.0
0
LINE
8
0
6
CONTINUOUS
10
0.161276
20
0.059054
30
0.0
11
0.164095
21
0.059811
31
0.0
0
LINE
8
0
6
CONTINUOUS
10
0.164095
20
0.060156
30
0.0
11
0.161276
21
0.059398
31
0.0
0
LINE
8
0
6
CONTINUOUS
10
0.172852
20
0.059054
30
0.0
11
0.175381
21
0.057834
31
0.0
0
LINE
8
0
6
CONTINUOUS
10
0.175381
20
0.058178
30
0.0
11
0.172852
21
0.059398
31
0.0
0
LINE
8
0
6
CONTINUOUS
10
0.180403
20
0.049828
30
0.0
11
0.180403
21
0.050172
31
0.0
0
LINE
8
0
6
CONTINUOUS
10
0.180069
20
0.052106
30
0.0
11
0.180403
21
0.049828
31
0.0
0
LINE
8
0
6
CONTINUOUS
10
0.180403
20
0.050172
30
0.0
11
0.180069
21
0.052450
31
0.0
0
LINE
8
0
6
CONTINUOUS
10
0.153724
20
0.049828
30
0.0
11
0.154058
21
0.052106
31
0.0
0
LINE
8
0
6
CONTINUOUS
10
0.153724
20
0.050172
30
0.0
11
0.153724
21
0.049828
31
0.0
0
LINE
8
0
6
CONTINUOUS
10
0.154058
20
0.052450
30
0.0
11
0.153724
21
0.050172
31
0.0
0
LINE
8
0
6
CONTINUOUS
10
0.158747
20
0.057834
30
0.0
11
0.161276
21
0.059054
31
0.0
0
LINE
8
0
6
CONTINUOUS
10
0.161276
20
0.059398
30
0.0
11
0.158747
21
0.058178
31
0.0
0
LINE
8
0
6
CONTINUOUS
10
0.170032
20
0.059811
30
0.0
11
0.172852
21
0.059054
31
0.0
0
LINE
8
0
6
CONTINUOUS
10
0.172852
20
0.059398
30
0.0
11
0.170032
21
0.060156
31
0.0
0
LINE
8
0
6
CONTINUOUS
10
0.180650
20
0.043828
30
0.0
11
0.181480
21
0.044842
31
0.0
0
LINE
8
0
6
CONTINUOUS
10
0.181480
20
0.044842
30
0.0
11
0.182664
21
0.047438
31
0.0
0
LINE
8
0
6
CONTINUOUS
10
0.182664
20
0.047438
30
0.0
11
0.183065
21
0.050172
31
0.0
0
LINE
8
0
6
CONTINUOUS
10
0.183065
20
0.050172
30
0.0
11
0.183065
21
0.050954
31
0.0
0
LINE
8
0
6
CONTINUOUS
10
0.182664
20
0.052905
30
0.0
11
0.183065
21
0.050172
31
0.0
0
LINE
8
0
6
CONTINUOUS
10
0.181480
20
0.055501
30
0.0
11
0.182664
21
0.052905
31
0.0
0
LINE
8
0
6
CONTINUOUS
10
0.179574
20
0.057830
30
0.0
11
0.181480
21
0.055501
31
0.0
0
LINE
8
0
6
CONTINUOUS
10
0.177040
20
0.059776
30
0.0
11
0.179574
21
0.057830
31
0.0
0
LINE
8
0
6
CONTINUOUS
10
0.174006
20
0.061239
30
0.0
11
0.177040
21
0.059776
31
0.0
0
LINE
8
0
6
CONTINUOUS
10
0.170624
20
0.062147
30
0.0
11
0.174006
21
0.061239
31
0.0
0
LINE
8
0
6
CONTINUOUS
10
0.167064
20
0.062455
30
0.0
11
0.170624
21
0.062147
31
0.0
0
LINE
8
0
6
CONTINUOUS
10
0.163503
20
0.062147
30
0.0
11
0.167064
21
0.062455
31
0.0
0
LINE
8
0
6
CONTINUOUS
10
0.160121
20
0.061239
30
0.0
11
0.163503
21
0.062147
31
0.0
0
LINE
8
0
6
CONTINUOUS
10
0.157087
20
0.059776
30
0.0
11
0.160121
21
0.061239
31
0.0
0
LINE
8
0
6
CONTINUOUS
10
0.154554
20
0.057831
30
0.0
11
0.157087
21
0.059776
31
0.0
0
LINE
8
0
6
CONTINUOUS
10
0.152647
20
0.055501
30
0.0
11
0.154554
21
0.057831
31
0.0
0
LINE
8
0
6
CONTINUOUS
10
0.151464
20
0.052905
30
0.0
11
0.152647
21
0.055501
31
0.0
0
LINE
8
0
6
CONTINUOUS
10
0.151063
20
0.050172
30
0.0
11
0.151464
21
0.052905
31
0.0
0
LINE
8
0
6
CONTINUOUS
10
0.151063
20
0.050954
30
0.0
11
0.151063
21
0.050172
31
0.0
0
LINE
8
0
6
CONTINUOUS
10
0.151063
20
0.050172
30
0.0
11
0.151464
21
0.047438
31
0.0
0
LINE
8
0
6
CONTINUOUS
10
0.151464
20
0.047438
30
0.0
11
0.152647
21
0.044842
31
0.0
0
LINE
8
0
6
CONTINUOUS
10
0.152647
20
0.044842
30
0.0
11
0.153477
21
0.043828
31
0.0
0
LINE
8
0
6
CONTINUOUS
10
0.151438
20
0.103830
30
0.0
11
0.153429
21
0.107958
31
0.0
0
LINE
8
0
6
CONTINUOUS
10
0.182257
20
0.127588
30
0.0
11
0.174839
21
0.130028
31
0.0
0
LINE
8
0
6
CONTINUOUS
10
0.188883
20
0.123342
30
0.0
11
0.182257
21
0.127588
31
0.0
0
LINE
8
0
6
CONTINUOUS
10
0.194428
20
0.117829
30
0.0
11
0.188883
21
0.123342
31
0.0
0
LINE
8
0
6
CONTINUOUS
10
0.198597
20
0.111184
30
0.0
11
0.194428
21
0.117829
31
0.0
0
LINE
8
0
6
CONTINUOUS
10
0.201186
20
0.103789
30
0.0
11
0.198597
21
0.111184
31
0.0
0
LINE
8
0
6
CONTINUOUS
10
0.202064
20
0.096000
30
0.0
11
0.201186
21
0.103789
31
0.0
0
LINE
8
0
6
CONTINUOUS
10
0.201186
20
0.088211
30
0.0
11
0.202064
21
0.096000
31
0.0
0
LINE
8
0
6
CONTINUOUS
10
0.198597
20
0.080816
30
0.0
11
0.201186
21
0.088211
31
0.0
0
LINE
8
0
6
CONTINUOUS
10
0.194428
20
0.074171
30
0.0
11
0.198597
21
0.080816
31
0.0
0
LINE
8
0
6
CONTINUOUS
10
0.188883
20
0.068658
30
0.0
11
0.194428
21
0.074171
31
0.0
0
LINE
8
0
6
CONTINUOUS
10
0.183236
20
0.065039
30
0.0
11
0.188883
21
0.068658
31
0.0
0
LINE
8
0
6
CONTINUOUS
10
0.145245
20
0.068658
30
0.0
11
0.150892
21
0.065039
31
0.0
0
LINE
8
0
6
CONTINUOUS
10
0.139699
20
0.074171
30
0.0
11
0.145245
21
0.068658
31
0.0
0
LINE
8
0
6
CONTINUOUS
10
0.135530
20
0.080816
30
0.0
11
0.139699
21
0.074171
31
0.0
0
LINE
8
0
6
CONTINUOUS
10
0.132941
20
0.088211
30
0.0
11
0.135530
21
0.080816
31
0.0
0
LINE
8
0
6
CONTINUOUS
10
0.132064
20
0.096000
30
0.0
11
0.132941
21
0.088211
31
0.0
0
LINE
8
0
6
CONTINUOUS
10
0.132941
20
0.103789
30
0.0
11
0.132065
21
0.096016
31
0.0
0
LINE
8
0
6
CONTINUOUS
10
0.135530
20
0.111184
30
0.0
11
0.132946
21
0.103802
31
0.0
0
LINE
8
0
6
CONTINUOUS
10
0.139699
20
0.117829
30
0.0
11
0.135536
21
0.111194
31
0.0
0
LINE
8
0
6
CONTINUOUS
10
0.145245
20
0.123342
30
0.0
11
0.139705
21
0.117835
31
0.0
0
LINE
8
0
6
CONTINUOUS
10
0.151870
20
0.127588
30
0.0
11
0.145251
21
0.123346
31
0.0
0
LINE
8
0
6
CONTINUOUS
10
0.167064
20
0.131000
30
0.0
11
0.159293
21
0.130029
31
0.0
0
LINE
8
0
6
CONTINUOUS
10
0.139654
20
0.074183
30
0.0
11
0.145245
21
0.068658
31
0.0
0
LINE
8
0
6
CONTINUOUS
10
0.135517
20
0.080860
30
0.0
11
0.139654
21
0.074183
31
0.0
0
LINE
8
0
6
CONTINUOUS
10
0.157053
20
0.056936
30
0.0
11
0.154648
21
0.054944
31
0.0
0
LINE
8
0
6
CONTINUOUS
10
0.167064
20
0.059664
30
0.0
11
0.163469
21
0.059348
31
0.0
0
LINE
8
0
6
CONTINUOUS
10
0.163469
20
0.059348
30
0.0
11
0.160029
21
0.058417
31
0.0
0
LINE
8
0
6
CONTINUOUS
10
0.154265
20
0.054055
30
0.0
11
0.154258
21
0.053966
31
0.0
0
LINE
8
0
6
CONTINUOUS
10
0.118138
20
-0.101901
30
0.0
11
0.123147
21
-0.110023
31
0.0
0
LINE
8
0
6
CONTINUOUS
10
0.113274
20
-0.083319
30
0.0
11
0.113307
21
-0.083637
31
0.0
0
LINE
8
0
6
CONTINUOUS
10
0.123935
20
-0.047383
30
0.0
11
0.116825
21
-0.058275
31
0.0
0
LINE
8
0
6
CONTINUOUS
10
0.113307
20
-0.083637
30
0.0
11
0.113669
21
-0.087099
31
0.0
0
LINE
8
0
6
CONTINUOUS
10
0.148852
20
-0.015943
30
0.0
11
0.146658
21
-0.022631
31
0.0
0
LINE
8
0
6
CONTINUOUS
10
0.141107
20
-0.124910
30
0.0
11
0.153856
21
-0.129470
31
0.0
0
LINE
8
0
6
CONTINUOUS
10
0.134850
20
-0.037219
30
0.0
11
0.133141
21
-0.038833
31
0.0
0
LINE
8
0
6
CONTINUOUS
10
0.128052
20
-0.043266
30
0.0
11
0.123951
21
-0.047544
31
0.0
0
LINE
8
0
6
CONTINUOUS
10
0.149825
20
-0.006958
30
0.0
11
0.150824
21
0.006728
31
0.0
0
LINE
8
0
6
CONTINUOUS
10
0.150661
20
0.006015
30
0.0
11
0.149649
21
-0.007781
31
0.0
0
LINE
8
0
6
CONTINUOUS
10
0.116825
20
-0.058275
30
0.0
11
0.113191
21
-0.070510
31
0.0
0
LINE
8
0
6
CONTINUOUS
10
0.136559
20
-0.035605
30
0.0
11
0.134850
21
-0.037219
31
0.0
0
LINE
8
0
6
CONTINUOUS
10
0.142718
20
-0.029121
30
0.0
11
0.138267
21
-0.033990
31
0.0
0
LINE
8
0
6
CONTINUOUS
10
0.142718
20
-0.029121
30
0.0
11
0.139820
21
-0.032977
31
0.0
0
LINE
8
0
6
CONTINUOUS
10
0.114162
20
-0.082942
30
0.0
11
0.113621
21
-0.070451
31
0.0
0
LINE
8
0
6
CONTINUOUS
10
0.122056
20
-0.103733
30
0.0
11
0.128912
21
-0.111130
31
0.0
0
LINE
8
0
6
CONTINUOUS
10
0.149649
20
-0.007781
30
0.0
11
0.148709
21
-0.016380
31
0.0
0
LINE
8
0
6
CONTINUOUS
10
0.148852
20
-0.015943
30
0.0
11
0.149825
21
-0.006958
31
0.0
0
LINE
8
0
6
CONTINUOUS
10
0.152060
20
0.023500
30
0.0
11
0.153603
21
0.045018
31
0.0
0
LINE
8
0
6
CONTINUOUS
10
0.153527
20
0.044494
30
0.0
11
0.151915
21
0.022919
31
0.0
0
LINE
8
0
6
CONTINUOUS
10
0.123967
20
-0.047705
30
0.0
11
0.116852
21
-0.058435
31
0.0
0
LINE
8
0
6
CONTINUOUS
10
0.151915
20
0.022919
30
0.0
11
0.150661
21
0.006015
31
0.0
0
LINE
8
0
6
CONTINUOUS
10
0.153172
20
-0.123534
30
0.0
11
0.167064
21
-0.125148
31
0.0
0
LINE
8
0
6
CONTINUOUS
10
0.128912
20
-0.111130
30
0.0
11
0.140439
21
-0.118902
31
0.0
0
LINE
8
0
6
CONTINUOUS
10
0.154324
20
0.054605
30
0.0
11
0.154318
21
0.054515
31
0.0
0
LINE
8
0
6
CONTINUOUS
10
0.154648
20
0.054944
30
0.0
11
0.154324
21
0.054605
31
0.0
0
LINE
8
0
6
CONTINUOUS
10
0.160029
20
0.058417
30
0.0
11
0.157053
21
0.056936
31
0.0
0
LINE
8
0
6
CONTINUOUS
10
0.113274
20
-0.083319
30
0.0
11
0.117049
21
-0.095434
31
0.0
0
LINE
8
0
6
CONTINUOUS
10
0.128052
20
-0.043266
30
0.0
11
0.123967
21
-0.047705
31
0.0
0
LINE
8
0
6
CONTINUOUS
10
0.117966
20
-0.094732
30
0.0
11
0.123129
21
-0.103029
31
0.0
0
LINE
8
0
6
CONTINUOUS
10
0.141632
20
-0.118124
30
0.0
11
0.154001
21
-0.122328
31
0.0
0
LINE
8
0
6
CONTINUOUS
10
0.154001
20
-0.122328
30
0.0
11
0.167064
21
-0.123632
31
0.0
0
LINE
8
0
6
CONTINUOUS
10
0.123129
20
-0.103029
30
0.0
11
0.130400
21
-0.110772
31
0.0
0
LINE
8
0
6
CONTINUOUS
10
0.133141
20
-0.038833
30
0.0
11
0.128052
21
-0.043266
31
0.0
0
LINE
8
0
6
CONTINUOUS
10
0.114391
20
-0.089929
30
0.0
11
0.118138
21
-0.101901
31
0.0
0
LINE
8
0
6
CONTINUOUS
10
0.114365
20
-0.089828
30
0.0
11
0.114391
21
-0.089929
31
0.0
0
LINE
8
0
6
CONTINUOUS
10
0.153856
20
-0.129470
30
0.0
11
0.167064
21
-0.131000
31
0.0
0
LINE
8
0
6
CONTINUOUS
10
0.143695
20
-0.028161
30
0.0
11
0.139820
21
-0.032977
31
0.0
0
LINE
8
0
6
CONTINUOUS
10
0.123147
20
-0.110023
30
0.0
11
0.123377
21
-0.110326
31
0.0
0
LINE
8
0
6
CONTINUOUS
10
0.123377
20
-0.110326
30
0.0
11
0.129889
21
-0.117298
31
0.0
0
LINE
8
0
6
CONTINUOUS
10
0.113669
20
-0.087099
30
0.0
11
0.114365
21
-0.089828
31
0.0
0
LINE
8
0
6
CONTINUOUS
10
0.138267
20
-0.033990
30
0.0
11
0.136559
21
-0.035605
31
0.0
0
LINE
8
0
6
CONTINUOUS
10
0.141632
20
-0.118124
30
0.0
11
0.130400
21
-0.110772
31
0.0
0
LINE
8
0
6
CONTINUOUS
10
0.128177
20
-0.043138
30
0.0
11
0.128052
21
-0.043266
31
0.0
0
LINE
8
0
6
CONTINUOUS
10
0.117049
20
-0.095434
30
0.0
11
0.122056
21
-0.103733
31
0.0
0
LINE
8
0
6
CONTINUOUS
10
0.152060
20
0.023500
30
0.0
11
0.150824
21
0.006728
31
0.0
0
LINE
8
0
6
CONTINUOUS
10
0.146658
20
-0.022631
30
0.0
11
0.142718
21
-0.029121
31
0.0
0
LINE
8
0
6
CONTINUOUS
10
0.153603
20
0.045018
30
0.0
11
0.154318
21
0.054515
31
0.0
0
LINE
8
0
6
CONTINUOUS
10
0.154258
20
0.053966
30
0.0
11
0.153527
21
0.044494
31
0.0
0
LINE
8
0
6
CONTINUOUS
10
0.116852
20
-0.058435
30
0.0
11
0.113621
21
-0.070451
31
0.0
0
LINE
8
0
6
CONTINUOUS
10
0.117966
20
-0.094732
30
0.0
11
0.114162
21
-0.082942
31
0.0
0
LINE
8
0
6
CONTINUOUS
10
0.113191
20
-0.070510
30
0.0
11
0.113274
21
-0.083319
31
0.0
0
LINE
8
0
6
CONTINUOUS
10
0.129889
20
-0.117298
30
0.0
11
0.141107
21
-0.124910
31
0.0
0
LINE
8
0
6
CONTINUOUS
10
0.140439
20
-0.118902
30
0.0
11
0.153172
21
-0.123534
31
0.0
0
LINE
8
0
6
CONTINUOUS
10
0.179479
20
0.054944
30
0.0
11
0.177074
21
0.056936
31
0.0
0
LINE
8
0
6
CONTINUOUS
10
0.170659
20
0.059348
30
0.0
11
0.167064
21
0.059664
31
0.0
0
LINE
8
0
6
CONTINUOUS
10
0.174098
20
0.058417
30
0.0
11
0.170659
21
0.059348
31
0.0
0
LINE
8
0
6
CONTINUOUS
10
0.179869
20
0.053966
30
0.0
11
0.179863
21
0.054055
31
0.0
0
LINE
8
0
6
CONTINUOUS
10
0.210980
20
-0.110023
30
0.0
11
0.215990
21
-0.101901
31
0.0
0
LINE
8
0
6
CONTINUOUS
10
0.220820
20
-0.083637
30
0.0
11
0.220853
21
-0.083319
31
0.0
0
LINE
8
0
6
CONTINUOUS
10
0.217302
20
-0.058275
30
0.0
11
0.210192
21
-0.047383
31
0.0
0
LINE
8
0
6
CONTINUOUS
10
0.220458
20
-0.087099
30
0.0
11
0.220820
21
-0.083637
31
0.0
0
LINE
8
0
6
CONTINUOUS
10
0.187469
20
-0.022631
30
0.0
11
0.185275
21
-0.015943
31
0.0
0
LINE
8
0
6
CONTINUOUS
10
0.180271
20
-0.129470
30
0.0
11
0.193021
21
-0.124910
31
0.0
0
LINE
8
0
6
CONTINUOUS
10
0.200986
20
-0.038833
30
0.0
11
0.199277
21
-0.037219
31
0.0
0
LINE
8
0
6
CONTINUOUS
10
0.210176
20
-0.047544
30
0.0
11
0.206076
21
-0.043266
31
0.0
0
LINE
8
0
6
CONTINUOUS
10
0.184478
20
-0.007781
30
0.0
11
0.183466
21
0.006015
31
0.0
0
LINE
8
0
6
CONTINUOUS
10
0.183303
20
0.006728
30
0.0
11
0.184302
21
-0.006958
31
0.0
0
LINE
8
0
6
CONTINUOUS
10
0.220936
20
-0.070510
30
0.0
11
0.217302
21
-0.058275
31
0.0
0
LINE
8
0
6
CONTINUOUS
10
0.199277
20
-0.037219
30
0.0
11
0.197569
21
-0.035605
31
0.0
0
LINE
8
0
6
CONTINUOUS
10
0.191409
20
-0.029121
30
0.0
11
0.194307
21
-0.032977
31
0.0
0
LINE
8
0
6
CONTINUOUS
10
0.195860
20
-0.033990
30
0.0
11
0.191409
21
-0.029121
31
0.0
0
LINE
8
0
6
CONTINUOUS
10
0.220507
20
-0.070451
30
0.0
11
0.219966
21
-0.082942
31
0.0
0
LINE
8
0
6
CONTINUOUS
10
0.205215
20
-0.111130
30
0.0
11
0.212071
21
-0.103733
31
0.0
0
LINE
8
0
6
CONTINUOUS
10
0.184302
20
-0.006958
30
0.0
11
0.185275
21
-0.015943
31
0.0
0
LINE
8
0
6
CONTINUOUS
10
0.185418
20
-0.016380
30
0.0
11
0.184478
21
-0.007781
31
0.0
0
LINE
8
0
6
CONTINUOUS
10
0.182212
20
0.022919
30
0.0
11
0.180600
21
0.044494
31
0.0
0
LINE
8
0
6
CONTINUOUS
10
0.180524
20
0.045018
30
0.0
11
0.182068
21
0.023500
31
0.0
0
LINE
8
0
6
CONTINUOUS
10
0.217275
20
-0.058435
30
0.0
11
0.210161
21
-0.047705
31
0.0
0
LINE
8
0
6
CONTINUOUS
10
0.183466
20
0.006015
30
0.0
11
0.182212
21
0.022919
31
0.0
0
LINE
8
0
6
CONTINUOUS
10
0.167064
20
-0.125148
30
0.0
11
0.180955
21
-0.123534
31
0.0
0
LINE
8
0
6
CONTINUOUS
10
0.193689
20
-0.118902
30
0.0
11
0.205215
21
-0.111130
31
0.0
0
LINE
8
0
6
CONTINUOUS
10
0.179803
20
0.054605
30
0.0
11
0.179479
21
0.054944
31
0.0
0
LINE
8
0
6
CONTINUOUS
10
0.179809
20
0.054515
30
0.0
11
0.179803
21
0.054605
31
0.0
0
LINE
8
0
6
CONTINUOUS
10
0.177074
20
0.056936
30
0.0
11
0.174098
21
0.058417
31
0.0
0
LINE
8
0
6
CONTINUOUS
10
0.217078
20
-0.095434
30
0.0
11
0.220853
21
-0.083319
31
0.0
0
LINE
8
0
6
CONTINUOUS
10
0.210161
20
-0.047705
30
0.0
11
0.206076
21
-0.043266
31
0.0
0
LINE
8
0
6
CONTINUOUS
10
0.210998
20
-0.103029
30
0.0
11
0.216161
21
-0.094732
31
0.0
0
LINE
8
0
6
CONTINUOUS
10
0.180126
20
-0.122328
30
0.0
11
0.192495
21
-0.118124
31
0.0
0
LINE
8
0
6
CONTINUOUS
10
0.167064
20
-0.123632
30
0.0
11
0.180126
21
-0.122328
31
0.0
0
LINE
8
0
6
CONTINUOUS
10
0.203727
20
-0.110772
30
0.0
11
0.210998
21
-0.103029
31
0.0
0
LINE
8
0
6
CONTINUOUS
10
0.206076
20
-0.043266
30
0.0
11
0.200986
21
-0.038833
31
0.0
0
LINE
8
0
6
CONTINUOUS
10
0.219736
20
-0.089929
30
0.0
11
0.219762
21
-0.089828
31
0.0
0
LINE
8
0
6
CONTINUOUS
10
0.215990
20
-0.101901
30
0.0
11
0.219736
21
-0.089929
31
0.0
0
LINE
8
0
6
CONTINUOUS
10
0.167064
20
-0.131000
30
0.0
11
0.180271
21
-0.129470
31
0.0
0
LINE
8
0
6
CONTINUOUS
10
0.194307
20
-0.032977
30
0.0
11
0.190432
21
-0.028161
31
0.0
0
LINE
8
0
6
CONTINUOUS
10
0.204239
20
-0.117298
30
0.0
11
0.210750
21
-0.110326
31
0.0
0
LINE
8
0
6
CONTINUOUS
10
0.210750
20
-0.110326
30
0.0
11
0.210980
21
-0.110023
31
0.0
0
LINE
8
0
6
CONTINUOUS
10
0.219762
20
-0.089828
30
0.0
11
0.220458
21
-0.087099
31
0.0
0
LINE
8
0
6
CONTINUOUS
10
0.197569
20
-0.035605
30
0.0
11
0.195860
21
-0.033990
31
0.0
0
LINE
8
0
6
CONTINUOUS
10
0.203727
20
-0.110772
30
0.0
11
0.192495
21
-0.118124
31
0.0
0
LINE
8
0
6
CONTINUOUS
10
0.206076
20
-0.043266
30
0.0
11
0.205950
21
-0.043138
31
0.0
0
LINE
8
0
6
CONTINUOUS
10
0.212071
20
-0.103733
30
0.0
11
0.217078
21
-0.095434
31
0.0
0
LINE
8
0
6
CONTINUOUS
10
0.183303
20
0.006728
30
0.0
11
0.182068
21
0.023500
31
0.0
0
LINE
8
0
6
CONTINUOUS
10
0.191409
20
-0.029121
30
0.0
11
0.187469
21
-0.022631
31
0.0
0
LINE
8
0
6
CONTINUOUS
10
0.180600
20
0.044494
30
0.0
11
0.179869
21
0.053966
31
0.0
0
LINE
8
0
6
CONTINUOUS
10
0.179809
20
0.054515
30
0.0
11
0.180524
21
0.045018
31
0.0
0
LINE
8
0
6
CONTINUOUS
10
0.220507
20
-0.070451
30
0.0
11
0.217275
21
-0.058435
31
0.0
0
LINE
8
0
6
CONTINUOUS
10
0.219966
20
-0.082942
30
0.0
11
0.216161
21
-0.094732
31
0.0
0
LINE
8
0
6
CONTINUOUS
10
0.220853
20
-0.083319
30
0.0
11
0.220936
21
-0.070510
31
0.0
0
LINE
8
0
6
CONTINUOUS
10
0.193021
20
-0.124910
30
0.0
11
0.204239
21
-0.117298
31
0.0
0
LINE
8
0
6
CONTINUOUS
10
0.180955
20
-0.123534
30
0.0
11
0.193689
21
-0.118902
31
0.0
0
LINE
8
0
6
CONTINUOUS
10
-0.043878
20
0.129807
30
0.0
11
-0.052936
21
0.131000
31
0.0
0
LINE
8
0
6
CONTINUOUS
10
-0.035436
20
0.126311
30
0.0
11
-0.043878
21
0.129807
31
0.0
0
LINE
8
0
6
CONTINUOUS
10
-0.028188
20
0.120749
30
0.0
11
-0.035436
21
0.126311
31
0.0
0
LINE
8
0
6
CONTINUOUS
10
-0.022625
20
0.113500
30
0.0
11
-0.028188
21
0.120749
31
0.0
0
LINE
8
0
6
CONTINUOUS
10
-0.019129
20
0.105059
30
0.0
11
-0.022625
21
0.113500
31
0.0
0
LINE
8
0
6
CONTINUOUS
10
-0.017936
20
0.096000
30
0.0
11
-0.019129
21
0.105059
31
0.0
0
LINE
8
0
6
CONTINUOUS
10
-0.019129
20
0.086941
30
0.0
11
-0.017936
21
0.096000
31
0.0
0
LINE
8
0
6
CONTINUOUS
10
-0.022625
20
0.078500
30
0.0
11
-0.019129
21
0.086941
31
0.0
0
LINE
8
0
6
CONTINUOUS
10
-0.028188
20
0.071251
30
0.0
11
-0.022625
21
0.078500
31
0.0
0
LINE
8
0
6
CONTINUOUS
10
-0.038436
20
0.064446
30
0.0
11
-0.035436
21
0.065689
31
0.0
0
LINE
8
0
6
CONTINUOUS
10
-0.070436
20
0.065689
30
0.0
11
-0.067436
21
0.064446
31
0.0
0
LINE
8
0
6
CONTINUOUS
10
-0.077685
20
0.071251
30
0.0
11
-0.070436
21
0.065689
31
0.0
0
LINE
8
0
6
CONTINUOUS
10
-0.083247
20
0.078500
30
0.0
11
-0.077685
21
0.071251
31
0.0
0
LINE
8
0
6
CONTINUOUS
10
-0.086744
20
0.086941
30
0.0
11
-0.083247
21
0.078500
31
0.0
0
LINE
8
0
6
CONTINUOUS
10
-0.087936
20
0.096000
30
0.0
11
-0.086744
21
0.086941
31
0.0
0
LINE
8
0
6
CONTINUOUS
10
-0.086744
20
0.105059
30
0.0
11
-0.087936
21
0.096000
31
0.0
0
LINE
8
0
6
CONTINUOUS
10
-0.083247
20
0.113500
30
0.0
11
-0.086744
21
0.105059
31
0.0
0
LINE
8
0
6
CONTINUOUS
10
-0.077685
20
0.120749
30
0.0
11
-0.083247
21
0.113500
31
0.0
0
LINE
8
0
6
CONTINUOUS
10
-0.070436
20
0.126311
30
0.0
11
-0.077685
21
0.120749
31
0.0
0
LINE
8
0
6
CONTINUOUS
10
-0.061995
20
0.129807
30
0.0
11
-0.070436
21
0.126311
31
0.0
0
LINE
8
0
6
CONTINUOUS
10
-0.052936
20
0.131000
30
0.0
11
-0.061995
21
0.129807
31
0.0
0
LINE
8
0
6
CONTINUOUS
10
-0.035436
20
0.065689
30
0.0
11
-0.028188
21
0.071251
31
0.0
0
LINE
8
0
6
CONTINUOUS
10
-0.067433
20
0.095604
30
0.0
11
-0.067436
21
0.095208
31
0.0
0
LINE
8
0
6
CONTINUOUS
10
-0.038440
20
0.095604
30
0.0
11
-0.039073
21
0.100008
31
0.0
0
LINE
8
0
6
CONTINUOUS
10
-0.038436
20
0.095208
30
0.0
11
-0.038440
21
0.095604
31
0.0
0
LINE
8
0
6
CONTINUOUS
10
-0.067443
20
0.093271
30
0.0
11
-0.067436
21
0.091335
31
0.0
0
LINE
8
0
6
CONTINUOUS
10
-0.038436
20
0.091335
30
0.0
11
-0.038429
21
0.093271
31
0.0
0
LINE
8
0
6
CONTINUOUS
10
-0.067437
20
0.088032
30
0.0
11
-0.067436
21
0.084729
31
0.0
0
LINE
8
0
6
CONTINUOUS
10
-0.038436
20
0.084729
30
0.0
11
-0.038436
21
0.088032
31
0.0
0
LINE
8
0
6
CONTINUOUS
10
-0.067438
20
0.080356
30
0.0
11
-0.067436
21
0.075984
31
0.0
0
LINE
8
0
6
CONTINUOUS
10
-0.038436
20
0.075984
30
0.0
11
-0.038434
21
0.080356
31
0.0
0
LINE
8
0
6
CONTINUOUS
10
-0.067436
20
0.070934
30
0.0
11
-0.067436
21
0.065884
31
0.0
0
LINE
8
0
6
CONTINUOUS
10
-0.038436
20
0.065884
30
0.0
11
-0.038437
21
0.070934
31
0.0
0
LINE
8
0
6
CONTINUOUS
10
-0.038436
20
0.057910
30
0.0
11
-0.038436
21
0.065884
31
0.0
0
LINE
8
0
6
CONTINUOUS
10
-0.067436
20
0.065884
30
0.0
11
-0.067436
21
0.057910
31
0.0
0
LINE
8
0
6
CONTINUOUS
10
-0.038436
20
-0.120125
30
0.0
11
-0.038436
21
0.057910
31
0.0
0
LINE
8
0
6
CONTINUOUS
10
-0.067436
20
0.057910
30
0.0
11
-0.067436
21
-0.120125
31
0.0
0
LINE
8
0
6
CONTINUOUS
10
-0.061459
20
-0.120481
30
0.0
11
-0.057417
21
-0.120362
31
0.0
0
LINE
8
0
6
CONTINUOUS
10
-0.064667
20
-0.120667
30
0.0
11
-0.061459
21
-0.120481
31
0.0
0
LINE
8
0
6
CONTINUOUS
10
-0.066727
20
-0.120901
30
0.0
11
-0.064667
21
-0.120667
31
0.0
0
LINE
8
0
6
CONTINUOUS
10
-0.067436
20
-0.120125
30
0.0
11
-0.067436
21
-0.121161
31
0.0
0
LINE
8
0
6
CONTINUOUS
10
-0.067436
20
-0.121161
30
0.0
11
-0.066727
21
-0.120901
31
0.0
0
LINE
8
0
6
CONTINUOUS
10
-0.067436
20
-0.121161
30
0.0
11
-0.066727
21
-0.121420
31
0.0
0
LINE
8
0
6
CONTINUOUS
10
-0.066727
20
-0.121420
30
0.0
11
-0.064667
21
-0.121654
31
0.0
0
LINE
8
0
6
CONTINUOUS
10
-0.064667
20
-0.121654
30
0.0
11
-0.061459
21
-0.121840
31
0.0
0
LINE
8
0
6
CONTINUOUS
10
-0.061459
20
-0.121840
30
0.0
11
-0.057417
21
-0.121959
31
0.0
0
LINE
8
0
6
CONTINUOUS
10
-0.057417
20
-0.121959
30
0.0
11
-0.052936
21
-0.122000
31
0.0
0
LINE
8
0
6
CONTINUOUS
10
-0.052936
20
-0.122000
30
0.0
11
-0.048456
21
-0.121959
31
0.0
0
LINE
8
0
6
CONTINUOUS
10
-0.048456
20
-0.121959
30
0.0
11
-0.044413
21
-0.121840
31
0.0
0
LINE
8
0
6
CONTINUOUS
10
-0.044413
20
-0.121840
30
0.0
11
-0.041206
21
-0.121654
31
0.0
0
LINE
8
0
6
CONTINUOUS
10
-0.041206
20
-0.121654
30
0.0
11
-0.039146
21
-0.121420
31
0.0
0
LINE
8
0
6
CONTINUOUS
10
-0.039146
20
-0.121420
30
0.0
11
-0.038436
21
-0.121161
31
0.0
0
LINE
8
0
6
CONTINUOUS
10
-0.038436
20
-0.121161
30
0.0
11
-0.038436
21
-0.120125
31
0.0
0
LINE
8
0
6
CONTINUOUS
10
-0.039146
20
-0.120901
30
0.0
11
-0.038436
21
-0.121161
31
0.0
0
LINE
8
0
6
CONTINUOUS
10
-0.041206
20
-0.120667
30
0.0
11
-0.039146
21
-0.120901
31
0.0
0
LINE
8
0
6
CONTINUOUS
10
-0.044413
20
-0.120481
30
0.0
11
-0.041206
21
-0.120667
31
0.0
0
LINE
8
0
6
CONTINUOUS
10
-0.048456
20
-0.120362
30
0.0
11
-0.044413
21
-0.120481
31
0.0
0
LINE
8
0
6
CONTINUOUS
10
-0.052936
20
-0.120321
30
0.0
11
-0.048456
21
-0.120362
31
0.0
0
LINE
8
0
6
CONTINUOUS
10
-0.057417
20
-0.120362
30
0.0
11
-0.052936
21
-0.120321
31
0.0
0
LINE
8
0
6
CONTINUOUS
10
-0.052936
20
0.120000
30
0.0
11
-0.059148
21
0.119182
31
0.0
0
LINE
8
0
6
CONTINUOUS
10
-0.059148
20
0.119182
30
0.0
11
-0.064936
21
0.116785
31
0.0
0
LINE
8
0
6
CONTINUOUS
10
-0.064936
20
0.116785
30
0.0
11
-0.069907
21
0.112971
31
0.0
0
LINE
8
0
6
CONTINUOUS
10
-0.069907
20
0.112971
30
0.0
11
-0.073721
21
0.108000
31
0.0
0
LINE
8
0
6
CONTINUOUS
10
-0.073721
20
0.108000
30
0.0
11
-0.076119
21
0.102212
31
0.0
0
LINE
8
0
6
CONTINUOUS
10
-0.076119
20
0.102212
30
0.0
11
-0.076936
21
0.096000
31
0.0
0
LINE
8
0
6
CONTINUOUS
10
-0.076936
20
0.096000
30
0.0
11
-0.076119
21
0.089788
31
0.0
0
LINE
8
0
6
CONTINUOUS
10
-0.076119
20
0.089788
30
0.0
11
-0.073721
21
0.084000
31
0.0
0
LINE
8
0
6
CONTINUOUS
10
-0.073721
20
0.084000
30
0.0
11
-0.069907
21
0.079029
31
0.0
0
LINE
8
0
6
CONTINUOUS
10
-0.069907
20
0.079029
30
0.0
11
-0.067437
21
0.077134
31
0.0
0
LINE
8
0
6
CONTINUOUS
10
-0.038436
20
0.077134
30
0.0
11
-0.035966
21
0.079029
31
0.0
0
LINE
8
0
6
CONTINUOUS
10
-0.035966
20
0.079029
30
0.0
11
-0.032152
21
0.084000
31
0.0
0
LINE
8
0
6
CONTINUOUS
10
-0.032152
20
0.084000
30
0.0
11
-0.029754
21
0.089788
31
0.0
0
LINE
8
0
6
CONTINUOUS
10
-0.029754
20
0.089788
30
0.0
11
-0.028936
21
0.096000
31
0.0
0
LINE
8
0
6
CONTINUOUS
10
-0.028936
20
0.096000
30
0.0
11
-0.029754
21
0.102212
31
0.0
0
LINE
8
0
6
CONTINUOUS
10
-0.029754
20
0.102212
30
0.0
11
-0.032152
21
0.108000
31
0.0
0
LINE
8
0
6
CONTINUOUS
10
-0.032152
20
0.108000
30
0.0
11
-0.035966
21
0.112971
31
0.0
0
LINE
8
0
6
CONTINUOUS
10
-0.035966
20
0.112971
30
0.0
11
-0.040936
21
0.116785
31
0.0
0
LINE
8
0
6
CONTINUOUS
10
-0.040936
20
0.116785
30
0.0
11
-0.046725
21
0.119182
31
0.0
0
LINE
8
0
6
CONTINUOUS
10
-0.046725
20
0.119182
30
0.0
11
-0.052936
21
0.120000
31
0.0
0
LINE
8
0
6
CONTINUOUS
10
-0.038429
20
0.093271
30
0.0
11
-0.038436
21
0.095208
31
0.0
0
LINE
8
0
6
CONTINUOUS
10
-0.067436
20
0.095208
30
0.0
11
-0.067443
21
0.093271
31
0.0
0
LINE
8
0
6
CONTINUOUS
10
-0.038436
20
0.088032
30
0.0
11
-0.038436
21
0.091335
31
0.0
0
LINE
8
0
6
CONTINUOUS
10
-0.067436
20
0.091335
30
0.0
11
-0.067437
21
0.088032
31
0.0
0
LINE
8
0
6
CONTINUOUS
10
-0.057417
20
0.109790
30
0.0
11
-0.061459
21
0.107731
31
0.0
0
LINE
8
0
6
CONTINUOUS
10
-0.052936
20
0.110500
30
0.0
11
-0.057417
21
0.109790
31
0.0
0
LINE
8
0
6
CONTINUOUS
10
-0.048456
20
0.109790
30
0.0
11
-0.052936
21
0.110500
31
0.0
0
LINE
8
0
6
CONTINUOUS
10
-0.044413
20
0.107731
30
0.0
11
-0.048456
21
0.109790
31
0.0
0
LINE
8
0
6
CONTINUOUS
10
-0.041206
20
0.104523
30
0.0
11
-0.044413
21
0.107731
31
0.0
0
LINE
8
0
6
CONTINUOUS
10
-0.039146
20
0.100481
30
0.0
11
-0.041206
21
0.104523
31
0.0
0
LINE
8
0
6
CONTINUOUS
10
-0.039073
20
0.100008
30
0.0
11
-0.039146
21
0.100481
31
0.0
0
LINE
8
0
6
CONTINUOUS
10
-0.038436
20
0.096000
30
0.0
11
-0.039146
21
0.100481
31
0.0
0
LINE
8
0
6
CONTINUOUS
10
-0.038440
20
0.095604
30
0.0
11
-0.038436
21
0.096000
31
0.0
0
LINE
8
0
6
CONTINUOUS
10
-0.066727
20
0.100481
30
0.0
11
-0.067436
21
0.096000
31
0.0
0
LINE
8
0
6
CONTINUOUS
10
-0.067436
20
0.096000
30
0.0
11
-0.067433
21
0.095604
31
0.0
0
LINE
8
0
6
CONTINUOUS
10
-0.064667
20
0.104523
30
0.0
11
-0.066727
21
0.100481
31
0.0
0
LINE
8
0
6
CONTINUOUS
10
-0.061459
20
0.107731
30
0.0
11
-0.064667
21
0.104523
31
0.0
0
LINE
8
0
6
CONTINUOUS
10
-0.038434
20
0.080356
30
0.0
11
-0.038436
21
0.084729
31
0.0
0
LINE
8
0
6
CONTINUOUS
10
-0.067436
20
0.084729
30
0.0
11
-0.067438
21
0.080356
31
0.0
0
LINE
8
0
6
CONTINUOUS
10
-0.038437
20
0.070934
30
0.0
11
-0.038436
21
0.075984
31
0.0
0
LINE
8
0
6
CONTINUOUS
10
-0.067436
20
0.075984
30
0.0
11
-0.067436
21
0.070934
31
0.0
0
LINE
8
0
6
CONTINUOUS
10
-0.177132
20
0.091714
30
0.0
11
-0.176392
21
0.091158
31
0.0
0
LINE
8
0
6
CONTINUOUS
10
-0.175849
20
0.096000
30
0.0
11
-0.172947
21
0.096000
31
0.0
0
LINE
8
0
6
CONTINUOUS
10
-0.175979
20
0.090645
30
0.0
11
-0.175089
21
0.089056
31
0.0
0
LINE
8
0
6
CONTINUOUS
10
-0.181208
20
0.092470
30
0.0
11
-0.178943
21
0.092470
31
0.0
0
LINE
8
0
6
CONTINUOUS
10
-0.179266
20
0.094649
30
0.0
11
-0.177383
21
0.094488
31
0.0
0
LINE
8
0
6
CONTINUOUS
10
-0.182095
20
0.094649
30
0.0
11
-0.179266
21
0.094649
31
0.0
0
LINE
8
0
6
CONTINUOUS
10
-0.183959
20
0.092470
30
0.0
11
-0.181208
21
0.092470
31
0.0
0
LINE
8
0
6
CONTINUOUS
10
-0.176392
20
0.091158
30
0.0
11
-0.175979
21
0.090645
31
0.0
0
LINE
8
0
6
CONTINUOUS
10
-0.178194
20
0.099733
30
0.0
11
-0.178943
21
0.099530
31
0.0
0
LINE
8
0
6
CONTINUOUS
10
-0.178874
20
0.099261
30
0.0
11
-0.178126
21
0.099566
31
0.0
0
LINE
8
0
6
CONTINUOUS
10
-0.176404
20
0.100810
30
0.0
11
-0.177132
21
0.100286
31
0.0
0
LINE
8
0
6
CONTINUOUS
10
-0.175979
20
0.101355
30
0.0
11
-0.176392
21
0.100842
31
0.0
0
LINE
8
0
6
CONTINUOUS
10
-0.178943
20
0.099530
30
0.0
11
-0.181208
21
0.099530
31
0.0
0
LINE
8
0
6
CONTINUOUS
10
-0.177362
20
0.097450
30
0.0
11
-0.179266
21
0.097351
31
0.0
0
LINE
8
0
6
CONTINUOUS
10
-0.178737
20
0.096000
30
0.0
11
-0.175849
21
0.096000
31
0.0
0
LINE
8
0
6
CONTINUOUS
10
-0.183959
20
0.099530
30
0.0
11
-0.219597
21
0.099530
31
0.0
0
LINE
8
0
6
CONTINUOUS
10
-0.181599
20
0.096000
30
0.0
11
-0.178737
21
0.096000
31
0.0
0
LINE
8
0
6
CONTINUOUS
10
-0.181208
20
0.099530
30
0.0
11
-0.183959
21
0.099530
31
0.0
0
LINE
8
0
6
CONTINUOUS
10
-0.182095
20
0.097351
30
0.0
11
-0.179266
21
0.097351
31
0.0
0
LINE
8
0
6
CONTINUOUS
10
-0.175089
20
0.102944
30
0.0
11
-0.175979
21
0.101355
31
0.0
0
LINE
8
0
6
CONTINUOUS
10
-0.176392
20
0.100842
30
0.0
11
-0.177106
21
0.100233
31
0.0
0
LINE
8
0
6
CONTINUOUS
10
-0.178126
20
0.092434
30
0.0
11
-0.178874
21
0.092739
31
0.0
0
LINE
8
0
6
CONTINUOUS
10
-0.178943
20
0.092470
30
0.0
11
-0.178194
21
0.092267
31
0.0
0
LINE
8
0
6
CONTINUOUS
10
-0.178194
20
0.092267
30
0.0
11
-0.177132
21
0.091714
31
0.0
0
LINE
8
0
6
CONTINUOUS
10
-0.172947
20
0.096000
30
0.0
11
-0.170034
21
0.096000
31
0.0
0
LINE
8
0
6
CONTINUOUS
10
-0.177132
20
0.100286
30
0.0
11
-0.178194
21
0.099733
31
0.0
0
LINE
8
0
6
CONTINUOUS
10
-0.177106
20
0.100233
30
0.0
11
-0.178126
21
0.099566
31
0.0
0
LINE
8
0
6
CONTINUOUS
10
-0.220012
20
0.092470
30
0.0
11
-0.219597
21
0.092470
31
0.0
0
LINE
8
0
6
CONTINUOUS
10
-0.162936
20
0.081999
30
0.0
11
-0.159352
21
0.082503
31
0.0
0
LINE
8
0
6
CONTINUOUS
10
-0.166521
20
0.082503
30
0.0
11
-0.162936
21
0.081999
31
0.0
0
LINE
8
0
6
CONTINUOUS
10
-0.153024
20
0.086088
30
0.0
11
-0.150784
21
0.089056
31
0.0
0
LINE
8
0
6
CONTINUOUS
10
-0.150784
20
0.089056
30
0.0
11
-0.149440
21
0.092416
31
0.0
0
LINE
8
0
6
CONTINUOUS
10
-0.149440
20
0.092416
30
0.0
11
-0.148936
21
0.096000
31
0.0
0
LINE
8
0
6
CONTINUOUS
10
-0.155992
20
0.083848
30
0.0
11
-0.153024
21
0.086088
31
0.0
0
LINE
8
0
6
CONTINUOUS
10
-0.172849
20
0.086088
30
0.0
11
-0.169881
21
0.083848
31
0.0
0
LINE
8
0
6
CONTINUOUS
10
-0.169881
20
0.083848
30
0.0
11
-0.166521
21
0.082503
31
0.0
0
LINE
8
0
6
CONTINUOUS
10
-0.175089
20
0.089056
30
0.0
11
-0.172849
21
0.086088
31
0.0
0
LINE
8
0
6
CONTINUOUS
10
-0.159352
20
0.082503
30
0.0
11
-0.155992
21
0.083848
31
0.0
0
LINE
8
0
6
CONTINUOUS
10
-0.183657
20
0.093478
30
0.0
11
-0.180934
21
0.093476
31
0.0
0
LINE
8
0
6
CONTINUOUS
10
-0.176015
20
0.090944
30
0.0
11
-0.176459
21
0.091572
31
0.0
0
LINE
8
0
6
CONTINUOUS
10
-0.176015
20
0.090944
30
0.0
11
-0.175089
21
0.089056
31
0.0
0
LINE
8
0
6
CONTINUOUS
10
-0.176004
20
0.090853
30
0.0
11
-0.175089
21
0.089056
31
0.0
0
LINE
8
0
6
CONTINUOUS
10
-0.159352
20
0.109497
30
0.0
11
-0.162936
21
0.110001
31
0.0
0
LINE
8
0
6
CONTINUOUS
10
-0.162936
20
0.110001
30
0.0
11
-0.166521
21
0.109497
31
0.0
0
LINE
8
0
6
CONTINUOUS
10
-0.150784
20
0.102944
30
0.0
11
-0.153024
21
0.105912
31
0.0
0
LINE
8
0
6
CONTINUOUS
10
-0.149440
20
0.099584
30
0.0
11
-0.150784
21
0.102944
31
0.0
0
LINE
8
0
6
CONTINUOUS
10
-0.148936
20
0.096000
30
0.0
11
-0.149440
21
0.099584
31
0.0
0
LINE
8
0
6
CONTINUOUS
10
-0.153024
20
0.105912
30
0.0
11
-0.155992
21
0.108153
31
0.0
0
LINE
8
0
6
CONTINUOUS
10
-0.169881
20
0.108153
30
0.0
11
-0.172849
21
0.105912
31
0.0
0
LINE
8
0
6
CONTINUOUS
10
-0.166521
20
0.109497
30
0.0
11
-0.169881
21
0.108153
31
0.0
0
LINE
8
0
6
CONTINUOUS
10
-0.172849
20
0.105912
30
0.0
11
-0.175089
21
0.102944
31
0.0
0
LINE
8
0
6
CONTINUOUS
10
-0.155992
20
0.108153
30
0.0
11
-0.159352
21
0.109497
31
0.0
0
LINE
8
0
6
CONTINUOUS
10
-0.183657
20
0.098522
30
0.0
11
-0.180934
21
0.098524
31
0.0
0
LINE
8
0
6
CONTINUOUS
10
-0.176015
20
0.101056
30
0.0
11
-0.176459
21
0.100428
31
0.0
0
LINE
8
0
6
CONTINUOUS
10
-0.175089
20
0.102944
30
0.0
11
-0.176004
21
0.101147
31
0.0
0
LINE
8
0
6
CONTINUOUS
10
-0.175089
20
0.102944
30
0.0
11
-0.176015
21
0.101056
31
0.0
0
LINE
8
0
6
CONTINUOUS
10
-0.176459
20
0.091572
30
0.0
11
-0.177156
21
0.092319
31
0.0
0
LINE
8
0
6
CONTINUOUS
10
-0.177156
20
0.092319
30
0.0
11
-0.178100
21
0.093062
31
0.0
0
LINE
8
0
6
CONTINUOUS
10
-0.178100
20
0.098938
30
0.0
11
-0.177156
21
0.099682
31
0.0
0
LINE
8
0
6
CONTINUOUS
10
-0.177156
20
0.099682
30
0.0
11
-0.176459
21
0.100428
31
0.0
0
LINE
8
0
6
CONTINUOUS
10
-0.178865
20
0.093462
30
0.0
11
-0.178870
21
0.093105
31
0.0
0
LINE
8
0
6
CONTINUOUS
10
-0.178865
20
0.093462
30
0.0
11
-0.178100
21
0.093062
31
0.0
0
LINE
8
0
6
CONTINUOUS
10
-0.178870
20
0.098895
30
0.0
11
-0.178865
21
0.098539
31
0.0
0
LINE
8
0
6
CONTINUOUS
10
-0.178100
20
0.098938
30
0.0
11
-0.178865
21
0.098539
31
0.0
0
LINE
8
0
6
CONTINUOUS
10
-0.167108
20
0.096000
30
0.0
11
-0.170034
21
0.096000
31
0.0
0
LINE
8
0
6
CONTINUOUS
10
-0.218738
20
0.094649
30
0.0
11
-0.182095
21
0.094649
31
0.0
0
LINE
8
0
6
CONTINUOUS
10
-0.220012
20
0.092470
30
0.0
11
-0.219656
21
0.092739
31
0.0
0
LINE
8
0
6
CONTINUOUS
10
-0.220366
20
0.092739
30
0.0
11
-0.220012
21
0.092470
31
0.0
0
LINE
8
0
6
CONTINUOUS
10
-0.220666
20
0.093504
30
0.0
11
-0.220366
21
0.092739
31
0.0
0
LINE
8
0
6
CONTINUOUS
10
-0.220866
20
0.094649
30
0.0
11
-0.220666
21
0.093504
31
0.0
0
LINE
8
0
6
CONTINUOUS
10
-0.220936
20
0.096000
30
0.0
11
-0.220866
21
0.094649
31
0.0
0
LINE
8
0
6
CONTINUOUS
10
-0.219081
20
0.096000
30
0.0
11
-0.219152
21
0.097351
31
0.0
0
LINE
8
0
6
CONTINUOUS
10
-0.220012
20
0.099530
30
0.0
11
-0.220366
21
0.099261
31
0.0
0
LINE
8
0
6
CONTINUOUS
10
-0.220366
20
0.099261
30
0.0
11
-0.220666
21
0.098496
31
0.0
0
LINE
8
0
6
CONTINUOUS
10
-0.220666
20
0.098496
30
0.0
11
-0.220866
21
0.097351
31
0.0
0
LINE
8
0
6
CONTINUOUS
10
-0.220866
20
0.097351
30
0.0
11
-0.220936
21
0.096000
31
0.0
0
LINE
8
0
6
CONTINUOUS
10
-0.219354
20
0.093504
30
0.0
11
-0.219267
21
0.094000
31
0.0
0
LINE
8
0
6
CONTINUOUS
10
-0.219354
20
0.098496
30
0.0
11
-0.219523
21
0.098924
31
0.0
0
LINE
8
0
6
CONTINUOUS
10
-0.219081
20
0.096000
30
0.0
11
-0.219152
21
0.094649
31
0.0
0
LINE
8
0
6
CONTINUOUS
10
-0.218667
20
0.096000
30
0.0
11
-0.219081
21
0.096000
31
0.0
0
LINE
8
0
6
CONTINUOUS
10
-0.219523
20
0.093076
30
0.0
11
-0.219656
21
0.092739
31
0.0
0
LINE
8
0
6
CONTINUOUS
10
-0.219354
20
0.098496
30
0.0
11
-0.219267
21
0.098000
31
0.0
0
LINE
8
0
6
CONTINUOUS
10
-0.218940
20
0.098496
30
0.0
11
-0.183657
21
0.098522
31
0.0
0
LINE
8
0
6
CONTINUOUS
10
-0.218940
20
0.093504
30
0.0
11
-0.183657
21
0.093478
31
0.0
0
LINE
8
0
6
CONTINUOUS
10
-0.219597
20
0.092470
30
0.0
11
-0.183959
21
0.092470
31
0.0
0
LINE
8
0
6
CONTINUOUS
10
-0.220012
20
0.099530
30
0.0
11
-0.219656
21
0.099261
31
0.0
0
LINE
8
0
6
CONTINUOUS
10
-0.219597
20
0.099530
30
0.0
11
-0.220012
21
0.099530
31
0.0
0
LINE
8
0
6
CONTINUOUS
10
-0.219656
20
0.099261
30
0.0
11
-0.219523
21
0.098924
31
0.0
0
LINE
8
0
6
CONTINUOUS
10
-0.219354
20
0.093504
30
0.0
11
-0.219523
21
0.093076
31
0.0
0
LINE
8
0
6
CONTINUOUS
10
-0.219267
20
0.098000
30
0.0
11
-0.219152
21
0.097351
31
0.0
0
LINE
8
0
6
CONTINUOUS
10
-0.219152
20
0.097351
30
0.0
11
-0.218738
21
0.097351
31
0.0
0
LINE
8
0
6
CONTINUOUS
10
-0.219152
20
0.094649
30
0.0
11
-0.219267
21
0.094000
31
0.0
0
LINE
8
0
6
CONTINUOUS
10
-0.218738
20
0.094649
30
0.0
11
-0.219152
21
0.094649
31
0.0
0
LINE
8
0
6
CONTINUOUS
10
-0.218667
20
0.096000
30
0.0
11
-0.181599
21
0.096000
31
0.0
0
LINE
8
0
6
CONTINUOUS
10
-0.182095
20
0.097351
30
0.0
11
-0.218738
21
0.097351
31
0.0
0
LINE
8
0
6
CONTINUOUS
10
0.071259
20
0.100286
30
0.0
11
0.070520
21
0.100842
31
0.0
0
LINE
8
0
6
CONTINUOUS
10
0.069976
20
0.096000
30
0.0
11
0.067074
21
0.096000
31
0.0
0
LINE
8
0
6
CONTINUOUS
10
0.070106
20
0.101355
30
0.0
11
0.069216
21
0.102944
31
0.0
0
LINE
8
0
6
CONTINUOUS
10
0.075335
20
0.099530
30
0.0
11
0.073071
21
0.099530
31
0.0
0
LINE
8
0
6
CONTINUOUS
10
0.073394
20
0.097351
30
0.0
11
0.071511
21
0.097512
31
0.0
0
LINE
8
0
6
CONTINUOUS
10
0.076222
20
0.097351
30
0.0
11
0.073394
21
0.097351
31
0.0
0
LINE
8
0
6
CONTINUOUS
10
0.078086
20
0.099530
30
0.0
11
0.075335
21
0.099530
31
0.0
0
LINE
8
0
6
CONTINUOUS
10
0.070520
20
0.100842
30
0.0
11
0.070106
21
0.101355
31
0.0
0
LINE
8
0
6
CONTINUOUS
10
0.072321
20
0.092267
30
0.0
11
0.073071
21
0.092470
31
0.0
0
LINE
8
0
6
CONTINUOUS
10
0.073002
20
0.092739
30
0.0
11
0.072253
21
0.092434
31
0.0
0
LINE
8
0
6
CONTINUOUS
10
0.070532
20
0.091190
30
0.0
11
0.071259
21
0.091714
31
0.0
0
LINE
8
0
6
CONTINUOUS
10
0.070106
20
0.090645
30
0.0
11
0.070520
21
0.091158
31
0.0
0
LINE
8
0
6
CONTINUOUS
10
0.073071
20
0.092470
30
0.0
11
0.075335
21
0.092470
31
0.0
0
LINE
8
0
6
CONTINUOUS
10
0.071489
20
0.094550
30
0.0
11
0.073394
21
0.094649
31
0.0
0
LINE
8
0
6
CONTINUOUS
10
0.072864
20
0.096000
30
0.0
11
0.069976
21
0.096000
31
0.0
0
LINE
8
0
6
CONTINUOUS
10
0.078086
20
0.092470
30
0.0
11
0.113725
21
0.092470
31
0.0
0
LINE
8
0
6
CONTINUOUS
10
0.075726
20
0.096000
30
0.0
11
0.072864
21
0.096000
31
0.0
0
LINE
8
0
6
CONTINUOUS
10
0.075335
20
0.092470
30
0.0
11
0.078086
21
0.092470
31
0.0
0
LINE
8
0
6
CONTINUOUS
10
0.076222
20
0.094649
30
0.0
11
0.073394
21
0.094649
31
0.0
0
LINE
8
0
6
CONTINUOUS
10
0.069216
20
0.089056
30
0.0
11
0.070106
21
0.090645
31
0.0
0
LINE
8
0
6
CONTINUOUS
10
0.070520
20
0.091158
30
0.0
11
0.071233
21
0.091767
31
0.0
0
LINE
8
0
6
CONTINUOUS
10
0.072253
20
0.099566
30
0.0
11
0.073002
21
0.099261
31
0.0
0
LINE
8
0
6
CONTINUOUS
10
0.073071
20
0.099530
30
0.0
11
0.072321
21
0.099733
31
0.0
0
LINE
8
0
6
CONTINUOUS
10
0.072321
20
0.099733
30
0.0
11
0.071259
21
0.100286
31
0.0
0
LINE
8
0
6
CONTINUOUS
10
0.067074
20
0.096000
30
0.0
11
0.064162
21
0.096000
31
0.0
0
LINE
8
0
6
CONTINUOUS
10
0.071259
20
0.091714
30
0.0
11
0.072321
21
0.092267
31
0.0
0
LINE
8
0
6
CONTINUOUS
10
0.071233
20
0.091767
30
0.0
11
0.072253
21
0.092434
31
0.0
0
LINE
8
0
6
CONTINUOUS
10
0.114139
20
0.099530
30
0.0
11
0.113725
21
0.099530
31
0.0
0
LINE
8
0
6
CONTINUOUS
10
0.057064
20
0.110001
30
0.0
11
0.053479
21
0.109497
31
0.0
0
LINE
8
0
6
CONTINUOUS
10
0.060648
20
0.109497
30
0.0
11
0.057064
21
0.110001
31
0.0
0
LINE
8
0
6
CONTINUOUS
10
0.047151
20
0.105912
30
0.0
11
0.044911
21
0.102944
31
0.0
0
LINE
8
0
6
CONTINUOUS
10
0.044911
20
0.102944
30
0.0
11
0.043567
21
0.099584
31
0.0
0
LINE
8
0
6
CONTINUOUS
10
0.043567
20
0.099584
30
0.0
11
0.043063
21
0.096000
31
0.0
0
LINE
8
0
6
CONTINUOUS
10
0.050119
20
0.108153
30
0.0
11
0.047151
21
0.105912
31
0.0
0
LINE
8
0
6
CONTINUOUS
10
0.066976
20
0.105912
30
0.0
11
0.064008
21
0.108153
31
0.0
0
LINE
8
0
6
CONTINUOUS
10
0.064008
20
0.108153
30
0.0
11
0.060648
21
0.109497
31
0.0
0
LINE
8
0
6
CONTINUOUS
10
0.069216
20
0.102944
30
0.0
11
0.066976
21
0.105912
31
0.0
0
LINE
8
0
6
CONTINUOUS
10
0.053479
20
0.109497
30
0.0
11
0.050119
21
0.108153
31
0.0
0
LINE
8
0
6
CONTINUOUS
10
0.077785
20
0.098522
30
0.0
11
0.075062
21
0.098524
31
0.0
0
LINE
8
0
6
CONTINUOUS
10
0.070143
20
0.101056
30
0.0
11
0.070586
21
0.100428
31
0.0
0
LINE
8
0
6
CONTINUOUS
10
0.070143
20
0.101056
30
0.0
11
0.069216
21
0.102944
31
0.0
0
LINE
8
0
6
CONTINUOUS
10
0.070132
20
0.101147
30
0.0
11
0.069216
21
0.102944
31
0.0
0
LINE
8
0
6
CONTINUOUS
10
0.053480
20
0.082503
30
0.0
11
0.057064
21
0.081999
31
0.0
0
LINE
8
0
6
CONTINUOUS
10
0.057064
20
0.081999
30
0.0
11
0.060648
21
0.082503
31
0.0
0
LINE
8
0
6
CONTINUOUS
10
0.044911
20
0.089056
30
0.0
11
0.047151
21
0.086088
31
0.0
0
LINE
8
0
6
CONTINUOUS
10
0.043567
20
0.092416
30
0.0
11
0.044911
21
0.089056
31
0.0
0
LINE
8
0
6
CONTINUOUS
10
0.043063
20
0.096000
30
0.0
11
0.043567
21
0.092416
31
0.0
0
LINE
8
0
6
CONTINUOUS
10
0.047151
20
0.086088
30
0.0
11
0.050119
21
0.083848
31
0.0
0
LINE
8
0
6
CONTINUOUS
10
0.064008
20
0.083848
30
0.0
11
0.066976
21
0.086088
31
0.0
0
LINE
8
0
6
CONTINUOUS
10
0.060648
20
0.082503
30
0.0
11
0.064008
21
0.083848
31
0.0
0
LINE
8
0
6
CONTINUOUS
10
0.066976
20
0.086088
30
0.0
11
0.069216
21
0.089056
31
0.0
0
LINE
8
0
6
CONTINUOUS
10
0.050119
20
0.083848
30
0.0
11
0.053480
21
0.082503
31
0.0
0
LINE
8
0
6
CONTINUOUS
10
0.077785
20
0.093478
30
0.0
11
0.075062
21
0.093476
31
0.0
0
LINE
8
0
6
CONTINUOUS
10
0.070143
20
0.090944
30
0.0
11
0.070586
21
0.091572
31
0.0
0
LINE
8
0
6
CONTINUOUS
10
0.069216
20
0.089056
30
0.0
11
0.070132
21
0.090853
31
0.0
0
LINE
8
0
6
CONTINUOUS
10
0.069216
20
0.089056
30
0.0
11
0.070143
21
0.090944
31
0.0
0
LINE
8
0
6
CONTINUOUS
10
0.070586
20
0.100428
30
0.0
11
0.071283
21
0.099681
31
0.0
0
LINE
8
0
6
CONTINUOUS
10
0.071283
20
0.099681
30
0.0
11
0.072227
21
0.098938
31
0.0
0
LINE
8
0
6
CONTINUOUS
10
0.072227
20
0.093062
30
0.0
11
0.071283
21
0.092319
31
0.0
0
LINE
8
0
6
CONTINUOUS
10
0.071283
20
0.092319
30
0.0
11
0.070586
21
0.091572
31
0.0
0
LINE
8
0
6
CONTINUOUS
10
0.072992
20
0.098539
30
0.0
11
0.072997
21
0.098895
31
0.0
0
LINE
8
0
6
CONTINUOUS
10
0.072992
20
0.098539
30
0.0
11
0.072227
21
0.098938
31
0.0
0
LINE
8
0
6
CONTINUOUS
10
0.072997
20
0.093105
30
0.0
11
0.072992
21
0.093462
31
0.0
0
LINE
8
0
6
CONTINUOUS
10
0.072227
20
0.093062
30
0.0
11
0.072992
21
0.093462
31
0.0
0
LINE
8
0
6
CONTINUOUS
10
0.061236
20
0.096000
30
0.0
11
0.064162
21
0.096000
31
0.0
0
LINE
8
0
6
CONTINUOUS
10
0.112865
20
0.097351
30
0.0
11
0.076222
21
0.097351
31
0.0
0
LINE
8
0
6
CONTINUOUS
10
0.114139
20
0.099530
30
0.0
11
0.113783
21
0.099261
31
0.0
0
LINE
8
0
6
CONTINUOUS
10
0.114493
20
0.099261
30
0.0
11
0.114139
21
0.099530
31
0.0
0
LINE
8
0
6
CONTINUOUS
10
0.114793
20
0.098496
30
0.0
11
0.114493
21
0.099261
31
0.0
0
LINE
8
0
6
CONTINUOUS
10
0.114993
20
0.097351
30
0.0
11
0.114793
21
0.098496
31
0.0
0
LINE
8
0
6
CONTINUOUS
10
0.115064
20
0.096000
30
0.0
11
0.114993
21
0.097351
31
0.0
0
LINE
8
0
6
CONTINUOUS
10
0.113209
20
0.096000
30
0.0
11
0.113279
21
0.094649
31
0.0
0
LINE
8
0
6
CONTINUOUS
10
0.114139
20
0.092470
30
0.0
11
0.114493
21
0.092739
31
0.0
0
LINE
8
0
6
CONTINUOUS
10
0.114493
20
0.092739
30
0.0
11
0.114793
21
0.093504
31
0.0
0
LINE
8
0
6
CONTINUOUS
10
0.114793
20
0.093504
30
0.0
11
0.114993
21
0.094649
31
0.0
0
LINE
8
0
6
CONTINUOUS
10
0.114993
20
0.094649
30
0.0
11
0.115064
21
0.096000
31
0.0
0
LINE
8
0
6
CONTINUOUS
10
0.113481
20
0.098496
30
0.0
11
0.113394
21
0.098000
31
0.0
0
LINE
8
0
6
CONTINUOUS
10
0.113481
20
0.093504
30
0.0
11
0.113651
21
0.093076
31
0.0
0
LINE
8
0
6
CONTINUOUS
10
0.113209
20
0.096000
30
0.0
11
0.113279
21
0.097351
31
0.0
0
LINE
8
0
6
CONTINUOUS
10
0.112794
20
0.096000
30
0.0
11
0.113209
21
0.096000
31
0.0
0
LINE
8
0
6
CONTINUOUS
10
0.113651
20
0.098924
30
0.0
11
0.113783
21
0.099261
31
0.0
0
LINE
8
0
6
CONTINUOUS
10
0.113481
20
0.093504
30
0.0
11
0.113394
21
0.094000
31
0.0
0
LINE
8
0
6
CONTINUOUS
10
0.113067
20
0.093504
30
0.0
11
0.077785
21
0.093478
31
0.0
0
LINE
8
0
6
CONTINUOUS
10
0.113067
20
0.098496
30
0.0
11
0.077785
21
0.098522
31
0.0
0
LINE
8
0
6
CONTINUOUS
10
0.113725
20
0.099530
30
0.0
11
0.078086
21
0.099530
31
0.0
0
LINE
8
0
6
CONTINUOUS
10
0.114139
20
0.092470
30
0.0
11
0.113783
21
0.092739
31
0.0
0
LINE
8
0
6
CONTINUOUS
10
0.113725
20
0.092470
30
0.0
11
0.114139
21
0.092470
31
0.0
0
LINE
8
0
6
CONTINUOUS
10
0.113783
20
0.092739
30
0.0
11
0.113651
21
0.093076
31
0.0
0
LINE
8
0
6
CONTINUOUS
10
0.113481
20
0.098496
30
0.0
11
0.113651
21
0.098924
31
0.0
0
LINE
8
0
6
CONTINUOUS
10
0.113394
20
0.094000
30
0.0
11
0.113279
21
0.094649
31
0.0
0
LINE
8
0
6
CONTINUOUS
10
0.113279
20
0.094649
30
0.0
11
0.112865
21
0.094649
31
0.0
0
LINE
8
0
6
CONTINUOUS
10
0.113279
20
0.097351
30
0.0
11
0.113394
21
0.098000
31
0.0
0
LINE
8
0
6
CONTINUOUS
10
0.112865
20
0.097351
30
0.0
11
0.113279
21
0.097351
31
0.0
0
LINE
8
0
6
CONTINUOUS
10
0.112794
20
0.096000
30
0.0
11
0.075726
21
0.096000
31
0.0
0
LINE
8
0
6
CONTINUOUS
10
0.076222
20
0.094649
30
0.0
11
0.112865
21
0.094649
31
0.0
0
LINE
8
0
6
CONTINUOUS
10
0.064828
20
0.124978
30
0.0
11
0.057064
21
0.126000
31
0.0
0
LINE
8
0
6
CONTINUOUS
10
0.072064
20
0.121981
30
0.0
11
0.064828
21
0.124978
31
0.0
0
LINE
8
0
6
CONTINUOUS
10
0.078277
20
0.117213
30
0.0
11
0.072064
21
0.121981
31
0.0
0
LINE
8
0
6
CONTINUOUS
10
0.083044
20
0.111000
30
0.0
11
0.078277
21
0.117213
31
0.0
0
LINE
8
0
6
CONTINUOUS
10
0.086041
20
0.103765
30
0.0
11
0.083044
21
0.111000
31
0.0
0
LINE
8
0
6
CONTINUOUS
10
0.086599
20
0.099530
30
0.0
11
0.086041
21
0.103765
31
0.0
0
LINE
8
0
6
CONTINUOUS
10
0.086041
20
0.088235
30
0.0
11
0.086599
21
0.092470
31
0.0
0
LINE
8
0
6
CONTINUOUS
10
0.083044
20
0.081000
30
0.0
11
0.086041
21
0.088235
31
0.0
0
LINE
8
0
6
CONTINUOUS
10
0.078277
20
0.074787
30
0.0
11
0.083044
21
0.081000
31
0.0
0
LINE
8
0
6
CONTINUOUS
10
0.064828
20
0.067022
30
0.0
11
0.072064
21
0.070019
31
0.0
0
LINE
8
0
6
CONTINUOUS
10
0.057064
20
0.066000
30
0.0
11
0.064828
21
0.067022
31
0.0
0
LINE
8
0
6
CONTINUOUS
10
0.049299
20
0.067022
30
0.0
11
0.057064
21
0.066000
31
0.0
0
LINE
8
0
6
CONTINUOUS
10
0.042064
20
0.070019
30
0.0
11
0.049299
21
0.067022
31
0.0
0
LINE
8
0
6
CONTINUOUS
10
0.035850
20
0.074787
30
0.0
11
0.042064
21
0.070019
31
0.0
0
LINE
8
0
6
CONTINUOUS
10
0.031083
20
0.081000
30
0.0
11
0.035850
21
0.074787
31
0.0
0
LINE
8
0
6
CONTINUOUS
10
0.028086
20
0.088235
30
0.0
11
0.031083
21
0.081000
31
0.0
0
LINE
8
0
6
CONTINUOUS
10
0.027064
20
0.096000
30
0.0
11
0.028086
21
0.088235
31
0.0
0
LINE
8
0
6
CONTINUOUS
10
0.028086
20
0.103765
30
0.0
11
0.027064
21
0.096000
31
0.0
0
LINE
8
0
6
CONTINUOUS
10
0.031083
20
0.111000
30
0.0
11
0.028086
21
0.103765
31
0.0
0
LINE
8
0
6
CONTINUOUS
10
0.035850
20
0.117213
30
0.0
11
0.031083
21
0.111000
31
0.0
0
LINE
8
0
6
CONTINUOUS
10
0.042064
20
0.121981
30
0.0
11
0.035850
21
0.117213
31
0.0
0
LINE
8
0
6
CONTINUOUS
10
0.049299
20
0.124978
30
0.0
11
0.042064
21
0.121981
31
0.0
0
LINE
8
0
6
CONTINUOUS
10
0.057064
20
0.126000
30
0.0
11
0.049299
21
0.124978
31
0.0
0
LINE
8
0
6
CONTINUOUS
10
0.072064
20
0.070019
30
0.0
11
0.078277
21
0.074787
31
0.0
0
LINE
8
0
6
CONTINUOUS
10
-0.155172
20
0.124978
30
0.0
11
-0.162936
21
0.126000
31
0.0
0
LINE
8
0
6
CONTINUOUS
10
-0.147936
20
0.121981
30
0.0
11
-0.155172
21
0.124978
31
0.0
0
LINE
8
0
6
CONTINUOUS
10
-0.141723
20
0.117213
30
0.0
11
-0.147936
21
0.121981
31
0.0
0
LINE
8
0
6
CONTINUOUS
10
-0.136956
20
0.111000
30
0.0
11
-0.141723
21
0.117213
31
0.0
0
LINE
8
0
6
CONTINUOUS
10
-0.133959
20
0.103765
30
0.0
11
-0.136956
21
0.111000
31
0.0
0
LINE
8
0
6
CONTINUOUS
10
-0.132936
20
0.096000
30
0.0
11
-0.133959
21
0.103765
31
0.0
0
LINE
8
0
6
CONTINUOUS
10
-0.133959
20
0.088235
30
0.0
11
-0.132936
21
0.096000
31
0.0
0
LINE
8
0
6
CONTINUOUS
10
-0.136956
20
0.081000
30
0.0
11
-0.133959
21
0.088235
31
0.0
0
LINE
8
0
6
CONTINUOUS
10
-0.141723
20
0.074787
30
0.0
11
-0.136956
21
0.081000
31
0.0
0
LINE
8
0
6
CONTINUOUS
10
-0.155172
20
0.067022
30
0.0
11
-0.147936
21
0.070019
31
0.0
0
LINE
8
0
6
CONTINUOUS
10
-0.162936
20
0.066000
30
0.0
11
-0.155172
21
0.067022
31
0.0
0
LINE
8
0
6
CONTINUOUS
10
-0.170701
20
0.067022
30
0.0
11
-0.162936
21
0.066000
31
0.0
0
LINE
8
0
6
CONTINUOUS
10
-0.177936
20
0.070019
30
0.0
11
-0.170701
21
0.067022
31
0.0
0
LINE
8
0
6
CONTINUOUS
10
-0.184150
20
0.074787
30
0.0
11
-0.177936
21
0.070019
31
0.0
0
LINE
8
0
6
CONTINUOUS
10
-0.188917
20
0.081000
30
0.0
11
-0.184150
21
0.074787
31
0.0
0
LINE
8
0
6
CONTINUOUS
10
-0.191914
20
0.088235
30
0.0
11
-0.188917
21
0.081000
31
0.0
0
LINE
8
0
6
CONTINUOUS
10
-0.192472
20
0.092470
30
0.0
11
-0.191914
21
0.088235
31
0.0
0
LINE
8
0
6
CONTINUOUS
10
-0.191914
20
0.103765
30
0.0
11
-0.192472
21
0.099530
31
0.0
0
LINE
8
0
6
CONTINUOUS
10
-0.188917
20
0.111000
30
0.0
11
-0.191914
21
0.103765
31
0.0
0
LINE
8
0
6
CONTINUOUS
10
-0.184150
20
0.117213
30
0.0
11
-0.188917
21
0.111000
31
0.0
0
LINE
8
0
6
CONTINUOUS
10
-0.177936
20
0.121981
30
0.0
11
-0.184150
21
0.117213
31
0.0
0
LINE
8
0
6
CONTINUOUS
10
-0.170701
20
0.124978
30
0.0
11
-0.177936
21
0.121981
31
0.0
0
LINE
8
0
6
CONTINUOUS
10
-0.162936
20
0.126000
30
0.0
11
-0.170701
21
0.124978
31
0.0
0
LINE
8
0
6
CONTINUOUS
10
-0.147936
20
0.070019
30
0.0
11
-0.141723
21
0.074787
31
0.0
0
ENDSEC
0
EOF
