999
Erzeugt mit innoplus bad 
0
SECTION
2
HEADER
9
$ACADVER
1
AC1009
9
$DWGCODEPAGE
3
ISO8859-1
0
ENDSEC
0
SECTION
2
TABLES
0
TABLE
2
LAYER
70
1
0
LAYER
2
0
70
0
62
7
6
CONTINUOUS
0
ENDTAB
0
ENDSEC
0
SECTION
2
ENTITIES
0
LINE
8
0
6
CONTINUOUS
10
-0.021745
20
0.028466
30
0.0
11
-0.028459
21
0.036847
31
0.0
0
LINE
8
0
6
CONTINUOUS
10
-0.021928
20
0.026982
30
0.0
11
-0.021745
21
0.028466
31
0.0
0
LINE
8
0
6
CONTINUOUS
10
-0.064615
20
0.053115
30
0.0
11
-0.063853
21
0.052823
31
0.0
0
LINE
8
0
6
CONTINUOUS
10
-0.076005
20
0.057566
30
0.0
11
-0.073784
21
0.056694
31
0.0
0
LINE
8
0
6
CONTINUOUS
10
-0.070757
20
0.055506
30
0.0
11
-0.067651
21
0.054287
31
0.0
0
LINE
8
0
6
CONTINUOUS
10
-0.044614
20
0.046057
30
0.0
11
-0.035106
21
0.039914
31
0.0
0
LINE
8
0
6
CONTINUOUS
10
-0.043893
20
0.049665
30
0.0
11
-0.047702
21
0.052070
31
0.0
0
LINE
8
0
6
CONTINUOUS
10
-0.121982
20
0.085454
30
0.0
11
-0.119407
21
0.083540
31
0.0
0
LINE
8
0
6
CONTINUOUS
10
-0.117105
20
0.081829
30
0.0
11
-0.116819
21
0.081617
31
0.0
0
LINE
8
0
6
CONTINUOUS
10
-0.109712
20
0.076333
30
0.0
11
-0.109184
21
0.075940
31
0.0
0
LINE
8
0
6
CONTINUOUS
10
-0.056065
20
0.056514
30
0.0
11
-0.062220
21
0.059583
31
0.0
0
LINE
8
0
6
CONTINUOUS
10
-0.035106
20
0.039914
30
0.0
11
-0.029450
21
0.034398
31
0.0
0
LINE
8
0
6
CONTINUOUS
10
-0.124436
20
0.090447
30
0.0
11
-0.128975
21
0.092639
31
0.0
0
LINE
8
0
6
CONTINUOUS
10
-0.051455
20
0.054250
30
0.0
11
-0.054420
21
0.055706
31
0.0
0
LINE
8
0
6
CONTINUOUS
10
-0.130488
20
0.093354
30
0.0
11
-0.126157
21
0.089332
31
0.0
0
LINE
8
0
6
CONTINUOUS
10
-0.128975
20
0.092639
30
0.0
11
-0.130488
21
0.093354
31
0.0
0
LINE
8
0
6
CONTINUOUS
10
-0.022051
20
0.025973
30
0.0
11
-0.021928
21
0.026982
31
0.0
0
LINE
8
0
6
CONTINUOUS
10
-0.053601
20
0.049217
30
0.0
11
-0.050456
21
0.048272
31
0.0
0
LINE
8
0
6
CONTINUOUS
10
-0.116885
20
0.086601
30
0.0
11
-0.124436
21
0.090447
31
0.0
0
LINE
8
0
6
CONTINUOUS
10
-0.028459
20
0.036847
30
0.0
11
-0.035071
21
0.043152
31
0.0
0
LINE
8
0
6
CONTINUOUS
10
-0.029450
20
0.034398
30
0.0
11
-0.022225
21
0.025733
31
0.0
0
LINE
8
0
6
CONTINUOUS
10
-0.022225
20
0.025733
30
0.0
11
-0.022051
21
0.025973
31
0.0
0
LINE
8
0
6
CONTINUOUS
10
-0.106751
20
0.074275
30
0.0
11
-0.104709
21
0.072985
31
0.0
0
LINE
8
0
6
CONTINUOUS
10
-0.102271
20
0.071446
30
0.0
11
-0.101387
21
0.070888
31
0.0
0
LINE
8
0
6
CONTINUOUS
10
-0.090940
20
0.073659
30
0.0
11
-0.102787
21
0.079718
31
0.0
0
LINE
8
0
6
CONTINUOUS
10
-0.045409
20
0.046422
30
0.0
11
-0.044614
21
0.046057
31
0.0
0
LINE
8
0
6
CONTINUOUS
10
-0.078646
20
0.067661
30
0.0
11
-0.090940
21
0.073659
31
0.0
0
LINE
8
0
6
CONTINUOUS
10
-0.040133
20
0.047009
30
0.0
11
-0.043893
21
0.049665
31
0.0
0
LINE
8
0
6
CONTINUOUS
10
-0.110298
20
0.083395
30
0.0
11
-0.116885
21
0.086601
31
0.0
0
LINE
8
0
6
CONTINUOUS
10
-0.102787
20
0.079718
30
0.0
11
-0.110298
21
0.083395
31
0.0
0
LINE
8
0
6
CONTINUOUS
10
-0.114888
20
0.080181
30
0.0
11
-0.114566
21
0.079320
31
0.0
0
LINE
8
0
6
CONTINUOUS
10
-0.114566
20
0.079320
30
0.0
11
-0.114310
21
0.079188
31
0.0
0
LINE
8
0
6
CONTINUOUS
10
-0.114310
20
0.079188
30
0.0
11
-0.113566
21
0.078803
31
0.0
0
LINE
8
0
6
CONTINUOUS
10
-0.113566
20
0.078803
30
0.0
11
-0.112366
21
0.078183
31
0.0
0
LINE
8
0
6
CONTINUOUS
10
-0.112366
20
0.078183
30
0.0
11
-0.110744
21
0.077344
31
0.0
0
LINE
8
0
6
CONTINUOUS
10
-0.110744
20
0.077344
30
0.0
11
-0.108733
21
0.076304
31
0.0
0
LINE
8
0
6
CONTINUOUS
10
-0.108733
20
0.076304
30
0.0
11
-0.106367
21
0.075081
31
0.0
0
LINE
8
0
6
CONTINUOUS
10
-0.106367
20
0.075081
30
0.0
11
-0.103680
21
0.073691
31
0.0
0
LINE
8
0
6
CONTINUOUS
10
-0.103680
20
0.073691
30
0.0
11
-0.100703
21
0.072152
31
0.0
0
LINE
8
0
6
CONTINUOUS
10
-0.100703
20
0.072152
30
0.0
11
-0.097502
21
0.070497
31
0.0
0
LINE
8
0
6
CONTINUOUS
10
-0.093807
20
0.069750
30
0.0
11
-0.094803
21
0.070266
31
0.0
0
LINE
8
0
6
CONTINUOUS
10
-0.097472
20
0.070481
30
0.0
11
-0.094019
21
0.068696
31
0.0
0
LINE
8
0
6
CONTINUOUS
10
-0.090032
20
0.067798
30
0.0
11
-0.093807
21
0.069750
31
0.0
0
LINE
8
0
6
CONTINUOUS
10
-0.094019
20
0.068696
30
0.0
11
-0.090377
21
0.066813
31
0.0
0
LINE
8
0
6
CONTINUOUS
10
-0.086098
20
0.065764
30
0.0
11
-0.090032
21
0.067798
31
0.0
0
LINE
8
0
6
CONTINUOUS
10
-0.090377
20
0.066813
30
0.0
11
-0.086581
21
0.064850
31
0.0
0
LINE
8
0
6
CONTINUOUS
10
-0.083977
20
0.064668
30
0.0
11
-0.086098
21
0.065764
31
0.0
0
LINE
8
0
6
CONTINUOUS
10
-0.086581
20
0.064850
30
0.0
11
-0.082785
21
0.062887
31
0.0
0
LINE
8
0
6
CONTINUOUS
10
-0.078388
20
0.061778
30
0.0
11
-0.081099
21
0.063180
31
0.0
0
LINE
8
0
6
CONTINUOUS
10
-0.082785
20
0.062887
30
0.0
11
-0.079143
21
0.061004
31
0.0
0
LINE
8
0
6
CONTINUOUS
10
-0.074808
20
0.059927
30
0.0
11
-0.078388
21
0.061778
31
0.0
0
LINE
8
0
6
CONTINUOUS
10
-0.079143
20
0.061004
30
0.0
11
-0.075690
21
0.059219
31
0.0
0
LINE
8
0
6
CONTINUOUS
10
-0.071814
20
0.058379
30
0.0
11
-0.074808
21
0.059927
31
0.0
0
LINE
8
0
6
CONTINUOUS
10
-0.075690
20
0.059219
30
0.0
11
-0.072459
21
0.057548
31
0.0
0
LINE
8
0
6
CONTINUOUS
10
-0.072459
20
0.057548
30
0.0
11
-0.069482
21
0.056009
31
0.0
0
LINE
8
0
6
CONTINUOUS
10
-0.065587
20
0.055159
30
0.0
11
-0.068373
21
0.056599
31
0.0
0
LINE
8
0
6
CONTINUOUS
10
-0.069482
20
0.056009
30
0.0
11
-0.066795
21
0.054619
31
0.0
0
LINE
8
0
6
CONTINUOUS
10
-0.063135
20
0.053891
30
0.0
11
-0.065587
21
0.055159
31
0.0
0
LINE
8
0
6
CONTINUOUS
10
-0.066795
20
0.054619
30
0.0
11
-0.064429
21
0.053396
31
0.0
0
LINE
8
0
6
CONTINUOUS
10
-0.061820
20
0.053211
30
0.0
11
-0.063135
21
0.053891
31
0.0
0
LINE
8
0
6
CONTINUOUS
10
-0.064429
20
0.053396
30
0.0
11
-0.062418
21
0.052356
31
0.0
0
LINE
8
0
6
CONTINUOUS
10
-0.062418
20
0.052356
30
0.0
11
-0.060796
21
0.051518
31
0.0
0
LINE
8
0
6
CONTINUOUS
10
-0.060796
20
0.051518
30
0.0
11
-0.059596
21
0.050897
31
0.0
0
LINE
8
0
6
CONTINUOUS
10
-0.059596
20
0.050897
30
0.0
11
-0.058852
21
0.050512
31
0.0
0
LINE
8
0
6
CONTINUOUS
10
-0.058596
20
0.050380
30
0.0
11
-0.057089
21
0.050765
31
0.0
0
LINE
8
0
6
CONTINUOUS
10
-0.058852
20
0.050512
30
0.0
11
-0.058596
21
0.050380
31
0.0
0
LINE
8
0
6
CONTINUOUS
10
-0.079247
20
0.064758
30
0.0
11
-0.077796
21
0.064038
31
0.0
0
LINE
8
0
6
CONTINUOUS
10
-0.055970
20
0.049343
30
0.0
11
-0.054519
21
0.048623
31
0.0
0
LINE
8
0
6
CONTINUOUS
10
-0.082366
20
0.059741
30
0.0
11
-0.082088
21
0.060302
31
0.0
0
LINE
8
0
6
CONTINUOUS
10
-0.082866
20
0.059989
30
0.0
11
-0.082366
21
0.059741
31
0.0
0
LINE
8
0
6
CONTINUOUS
10
-0.076430
20
0.058670
30
0.0
11
-0.075930
21
0.058422
31
0.0
0
LINE
8
0
6
CONTINUOUS
10
-0.076072
20
0.059390
30
0.0
11
-0.076430
21
0.058670
31
0.0
0
LINE
8
0
6
CONTINUOUS
10
-0.075930
20
0.058422
30
0.0
11
-0.074479
21
0.057702
31
0.0
0
LINE
8
0
6
CONTINUOUS
10
-0.075466
20
0.059356
30
0.0
11
-0.075930
21
0.058422
31
0.0
0
LINE
8
0
6
CONTINUOUS
10
-0.073528
20
0.057230
30
0.0
11
-0.073184
21
0.057923
31
0.0
0
LINE
8
0
6
CONTINUOUS
10
-0.074479
20
0.057702
30
0.0
11
-0.073528
21
0.057230
31
0.0
0
LINE
8
0
6
CONTINUOUS
10
-0.073938
20
0.058793
30
0.0
11
-0.074479
21
0.057702
31
0.0
0
LINE
8
0
6
CONTINUOUS
10
-0.064807
20
0.052728
30
0.0
11
-0.064333
21
0.053685
31
0.0
0
LINE
8
0
6
CONTINUOUS
10
-0.065307
20
0.052976
30
0.0
11
-0.064807
21
0.052728
31
0.0
0
LINE
8
0
6
CONTINUOUS
10
-0.081128
20
0.063121
30
0.0
11
-0.080690
21
0.064004
31
0.0
0
LINE
8
0
6
CONTINUOUS
10
-0.081628
20
0.063369
30
0.0
11
-0.081128
21
0.063121
31
0.0
0
LINE
8
0
6
CONTINUOUS
10
-0.081628
20
0.063369
30
0.0
11
-0.081073
21
0.064487
31
0.0
0
LINE
8
0
6
CONTINUOUS
10
-0.083079
20
0.064089
30
0.0
11
-0.081628
21
0.063369
31
0.0
0
LINE
8
0
6
CONTINUOUS
10
-0.087538
20
0.064322
30
0.0
11
-0.086087
21
0.063602
31
0.0
0
LINE
8
0
6
CONTINUOUS
10
-0.114504
20
0.079714
30
0.0
11
-0.114149
21
0.080430
31
0.0
0
LINE
8
0
6
CONTINUOUS
10
-0.115748
20
0.080332
30
0.0
11
-0.114504
21
0.079714
31
0.0
0
LINE
8
0
6
CONTINUOUS
10
-0.101313
20
0.070101
30
0.0
11
-0.099891
21
0.069396
31
0.0
0
LINE
8
0
6
CONTINUOUS
10
-0.091880
20
0.065192
30
0.0
11
-0.091216
21
0.064862
31
0.0
0
LINE
8
0
6
CONTINUOUS
10
-0.091464
20
0.066030
30
0.0
11
-0.091880
21
0.065192
31
0.0
0
LINE
8
0
6
CONTINUOUS
10
-0.093734
20
0.071837
30
0.0
11
-0.092783
21
0.071365
31
0.0
0
LINE
8
0
6
CONTINUOUS
10
-0.093266
20
0.072781
30
0.0
11
-0.093734
21
0.071837
31
0.0
0
LINE
8
0
6
CONTINUOUS
10
-0.123464
20
0.086460
30
0.0
11
-0.122081
21
0.085774
31
0.0
0
LINE
8
0
6
CONTINUOUS
10
-0.123464
20
0.086460
30
0.0
11
-0.122919
21
0.087557
31
0.0
0
LINE
8
0
6
CONTINUOUS
10
-0.124598
20
0.087024
30
0.0
11
-0.123464
21
0.086460
31
0.0
0
LINE
8
0
6
CONTINUOUS
10
-0.123946
20
0.088338
30
0.0
11
-0.124598
21
0.087024
31
0.0
0
LINE
8
0
6
CONTINUOUS
10
-0.115113
20
0.082174
30
0.0
11
-0.114807
21
0.082790
31
0.0
0
LINE
8
0
6
CONTINUOUS
10
-0.116162
20
0.082694
30
0.0
11
-0.115113
21
0.082174
31
0.0
0
LINE
8
0
6
CONTINUOUS
10
-0.125700
20
0.087527
30
0.0
11
-0.124293
21
0.086829
31
0.0
0
LINE
8
0
6
CONTINUOUS
10
-0.097736
20
0.067265
30
0.0
11
-0.096687
21
0.066744
31
0.0
0
LINE
8
0
6
CONTINUOUS
10
-0.112607
20
0.076992
30
0.0
11
-0.112359
21
0.076868
31
0.0
0
LINE
8
0
6
CONTINUOUS
10
-0.112066
20
0.078083
30
0.0
11
-0.112607
21
0.076992
31
0.0
0
LINE
8
0
6
CONTINUOUS
10
-0.048058
20
0.046665
30
0.0
11
-0.046607
21
0.045944
31
0.0
0
LINE
8
0
6
CONTINUOUS
10
-0.048558
20
0.046913
30
0.0
11
-0.048058
21
0.046665
31
0.0
0
LINE
8
0
6
CONTINUOUS
10
-0.078286
20
0.057342
30
0.0
11
-0.077822
21
0.058279
31
0.0
0
LINE
8
0
6
CONTINUOUS
10
-0.079238
20
0.057815
30
0.0
11
-0.078286
21
0.057342
31
0.0
0
LINE
8
0
6
CONTINUOUS
10
-0.105181
20
0.071987
30
0.0
11
-0.103874
21
0.071338
31
0.0
0
LINE
8
0
6
CONTINUOUS
10
-0.099426
20
0.069534
30
0.0
11
-0.098936
21
0.068465
31
0.0
0
LINE
8
0
6
CONTINUOUS
10
-0.098936
20
0.068465
30
0.0
11
-0.098835
21
0.068415
31
0.0
0
LINE
8
0
6
CONTINUOUS
10
-0.098835
20
0.068415
30
0.0
11
-0.098540
21
0.068267
31
0.0
0
LINE
8
0
6
CONTINUOUS
10
-0.098540
20
0.068267
30
0.0
11
-0.098065
21
0.068030
31
0.0
0
LINE
8
0
6
CONTINUOUS
10
-0.097801
20
0.068721
30
0.0
11
-0.098491
21
0.069066
31
0.0
0
LINE
8
0
6
CONTINUOUS
10
-0.098065
20
0.068030
30
0.0
11
-0.097423
21
0.067709
31
0.0
0
LINE
8
0
6
CONTINUOUS
10
-0.096946
20
0.068293
30
0.0
11
-0.097801
21
0.068721
31
0.0
0
LINE
8
0
6
CONTINUOUS
10
-0.097423
20
0.067709
30
0.0
11
-0.096627
21
0.067311
31
0.0
0
LINE
8
0
6
CONTINUOUS
10
-0.095940
20
0.067791
30
0.0
11
-0.096946
21
0.068293
31
0.0
0
LINE
8
0
6
CONTINUOUS
10
-0.096627
20
0.067311
30
0.0
11
-0.095690
21
0.066842
31
0.0
0
LINE
8
0
6
CONTINUOUS
10
-0.094797
20
0.067219
30
0.0
11
-0.095940
21
0.067791
31
0.0
0
LINE
8
0
6
CONTINUOUS
10
-0.095690
20
0.066842
30
0.0
11
-0.094626
21
0.066310
31
0.0
0
LINE
8
0
6
CONTINUOUS
10
-0.094626
20
0.066310
30
0.0
11
-0.093447
21
0.065721
31
0.0
0
LINE
8
0
6
CONTINUOUS
10
-0.093447
20
0.065721
30
0.0
11
-0.092168
21
0.065081
31
0.0
0
LINE
8
0
6
CONTINUOUS
10
-0.092168
20
0.065081
30
0.0
11
-0.090800
21
0.064398
31
0.0
0
LINE
8
0
6
CONTINUOUS
10
-0.090800
20
0.064398
30
0.0
11
-0.089359
21
0.063677
31
0.0
0
LINE
8
0
6
CONTINUOUS
10
-0.087526
20
0.063584
30
0.0
11
-0.089140
21
0.064391
31
0.0
0
LINE
8
0
6
CONTINUOUS
10
-0.089359
20
0.063677
30
0.0
11
-0.087855
21
0.062925
31
0.0
0
LINE
8
0
6
CONTINUOUS
10
-0.085912
20
0.062777
30
0.0
11
-0.087526
21
0.063584
31
0.0
0
LINE
8
0
6
CONTINUOUS
10
-0.087855
20
0.062925
30
0.0
11
-0.086352
21
0.062174
31
0.0
0
LINE
8
0
6
CONTINUOUS
10
-0.084364
20
0.062003
30
0.0
11
-0.085912
21
0.062777
31
0.0
0
LINE
8
0
6
CONTINUOUS
10
-0.086352
20
0.062174
30
0.0
11
-0.084910
21
0.061453
31
0.0
0
LINE
8
0
6
CONTINUOUS
10
-0.082895
20
0.061268
30
0.0
11
-0.084364
21
0.062003
31
0.0
0
LINE
8
0
6
CONTINUOUS
10
-0.084910
20
0.061453
30
0.0
11
-0.083543
21
0.060769
31
0.0
0
LINE
8
0
6
CONTINUOUS
10
-0.083543
20
0.060769
30
0.0
11
-0.082263
21
0.060130
31
0.0
0
LINE
8
0
6
CONTINUOUS
10
-0.082263
20
0.060130
30
0.0
11
-0.081085
21
0.059540
31
0.0
0
LINE
8
0
6
CONTINUOUS
10
-0.081085
20
0.059540
30
0.0
11
-0.080021
21
0.059008
31
0.0
0
LINE
8
0
6
CONTINUOUS
10
-0.080021
20
0.059008
30
0.0
11
-0.079084
21
0.058540
31
0.0
0
LINE
8
0
6
CONTINUOUS
10
-0.079084
20
0.058540
30
0.0
11
-0.078288
21
0.058142
31
0.0
0
LINE
8
0
6
CONTINUOUS
10
-0.078288
20
0.058142
30
0.0
11
-0.077646
21
0.057821
31
0.0
0
LINE
8
0
6
CONTINUOUS
10
-0.077646
20
0.057821
30
0.0
11
-0.077170
21
0.057583
31
0.0
0
LINE
8
0
6
CONTINUOUS
10
-0.077170
20
0.057583
30
0.0
11
-0.076876
21
0.057436
31
0.0
0
LINE
8
0
6
CONTINUOUS
10
-0.076775
20
0.057385
30
0.0
11
-0.075626
21
0.057634
31
0.0
0
LINE
8
0
6
CONTINUOUS
10
-0.076876
20
0.057436
30
0.0
11
-0.076775
21
0.057385
31
0.0
0
LINE
8
0
6
CONTINUOUS
10
-0.079747
20
0.065006
30
0.0
11
-0.079247
21
0.064758
31
0.0
0
LINE
8
0
6
CONTINUOUS
10
-0.079393
20
0.065719
30
0.0
11
-0.079747
21
0.065006
31
0.0
0
LINE
8
0
6
CONTINUOUS
10
-0.077796
20
0.064038
30
0.0
11
-0.076845
21
0.063566
31
0.0
0
LINE
8
0
6
CONTINUOUS
10
-0.077167
20
0.065307
30
0.0
11
-0.077796
21
0.064038
31
0.0
0
LINE
8
0
6
CONTINUOUS
10
-0.071134
20
0.054748
30
0.0
11
-0.070645
21
0.055732
31
0.0
0
LINE
8
0
6
CONTINUOUS
10
-0.071633
20
0.054996
30
0.0
11
-0.071134
21
0.054748
31
0.0
0
LINE
8
0
6
CONTINUOUS
10
-0.071633
20
0.054996
30
0.0
11
-0.071136
21
0.055998
31
0.0
0
LINE
8
0
6
CONTINUOUS
10
-0.073084
20
0.055716
30
0.0
11
-0.071633
21
0.054996
31
0.0
0
LINE
8
0
6
CONTINUOUS
10
-0.073084
20
0.055716
30
0.0
11
-0.072646
21
0.056599
31
0.0
0
LINE
8
0
6
CONTINUOUS
10
-0.074035
20
0.056189
30
0.0
11
-0.073084
21
0.055716
31
0.0
0
LINE
8
0
6
CONTINUOUS
10
-0.073663
20
0.056939
30
0.0
11
-0.074035
21
0.056189
31
0.0
0
LINE
8
0
6
CONTINUOUS
10
-0.054019
20
0.048375
30
0.0
11
-0.053465
21
0.049492
31
0.0
0
LINE
8
0
6
CONTINUOUS
10
-0.054519
20
0.048623
30
0.0
11
-0.054019
21
0.048375
31
0.0
0
LINE
8
0
6
CONTINUOUS
10
-0.053975
20
0.049718
30
0.0
11
-0.054519
21
0.048623
31
0.0
0
LINE
8
0
6
CONTINUOUS
10
-0.055970
20
0.049343
30
0.0
11
-0.055531
21
0.050228
31
0.0
0
LINE
8
0
6
CONTINUOUS
10
-0.056921
20
0.049815
30
0.0
11
-0.055970
21
0.049343
31
0.0
0
LINE
8
0
6
CONTINUOUS
10
-0.056578
20
0.050506
30
0.0
11
-0.056921
21
0.049815
31
0.0
0
LINE
8
0
6
CONTINUOUS
10
-0.082866
20
0.059989
30
0.0
11
-0.082587
21
0.060550
31
0.0
0
LINE
8
0
6
CONTINUOUS
10
-0.084317
20
0.060709
30
0.0
11
-0.082866
21
0.059989
31
0.0
0
LINE
8
0
6
CONTINUOUS
10
-0.084317
20
0.060709
30
0.0
11
-0.084037
21
0.061272
31
0.0
0
LINE
8
0
6
CONTINUOUS
10
-0.085268
20
0.061181
30
0.0
11
-0.084317
21
0.060709
31
0.0
0
LINE
8
0
6
CONTINUOUS
10
-0.084988
20
0.061745
30
0.0
11
-0.085268
21
0.061181
31
0.0
0
LINE
8
0
6
CONTINUOUS
10
-0.066442
20
0.058363
30
0.0
11
-0.065943
21
0.058115
31
0.0
0
LINE
8
0
6
CONTINUOUS
10
-0.066141
20
0.058970
30
0.0
11
-0.066442
21
0.058363
31
0.0
0
LINE
8
0
6
CONTINUOUS
10
-0.065943
20
0.058115
30
0.0
11
-0.064492
21
0.057395
31
0.0
0
LINE
8
0
6
CONTINUOUS
10
-0.065434
20
0.059140
30
0.0
11
-0.065943
21
0.058115
31
0.0
0
LINE
8
0
6
CONTINUOUS
10
-0.064492
20
0.057395
30
0.0
11
-0.063540
21
0.056923
31
0.0
0
LINE
8
0
6
CONTINUOUS
10
-0.063852
20
0.058684
30
0.0
11
-0.064492
21
0.057395
31
0.0
0
LINE
8
0
6
CONTINUOUS
10
-0.056088
20
0.052345
30
0.0
11
-0.055588
21
0.052097
31
0.0
0
LINE
8
0
6
CONTINUOUS
10
-0.055757
20
0.053011
30
0.0
11
-0.056088
21
0.052345
31
0.0
0
LINE
8
0
6
CONTINUOUS
10
-0.055588
20
0.052097
30
0.0
11
-0.054138
21
0.051376
31
0.0
0
LINE
8
0
6
CONTINUOUS
10
-0.055044
20
0.053194
30
0.0
11
-0.055588
21
0.052097
31
0.0
0
LINE
8
0
6
CONTINUOUS
10
-0.054138
20
0.051376
30
0.0
11
-0.053186
21
0.050904
31
0.0
0
LINE
8
0
6
CONTINUOUS
10
-0.053415
20
0.052832
30
0.0
11
-0.054138
21
0.051376
31
0.0
0
LINE
8
0
6
CONTINUOUS
10
-0.061917
20
0.053015
30
0.0
11
-0.061418
21
0.052767
31
0.0
0
LINE
8
0
6
CONTINUOUS
10
-0.061693
20
0.053466
30
0.0
11
-0.061917
21
0.053015
31
0.0
0
LINE
8
0
6
CONTINUOUS
10
-0.061418
20
0.052767
30
0.0
11
-0.059967
21
0.052046
31
0.0
0
LINE
8
0
6
CONTINUOUS
10
-0.061048
20
0.053512
30
0.0
11
-0.061418
21
0.052767
31
0.0
0
LINE
8
0
6
CONTINUOUS
10
-0.059967
20
0.052046
30
0.0
11
-0.059015
21
0.051574
31
0.0
0
LINE
8
0
6
CONTINUOUS
10
-0.059484
20
0.053019
30
0.0
11
-0.059967
21
0.052046
31
0.0
0
LINE
8
0
6
CONTINUOUS
10
-0.071836
20
0.058334
30
0.0
11
-0.071336
21
0.058086
31
0.0
0
LINE
8
0
6
CONTINUOUS
10
-0.071506
20
0.058998
30
0.0
11
-0.071836
21
0.058334
31
0.0
0
LINE
8
0
6
CONTINUOUS
10
-0.071336
20
0.058086
30
0.0
11
-0.069885
21
0.057366
31
0.0
0
LINE
8
0
6
CONTINUOUS
10
-0.070856
20
0.059054
30
0.0
11
-0.071336
21
0.058086
31
0.0
0
LINE
8
0
6
CONTINUOUS
10
-0.069885
20
0.057366
30
0.0
11
-0.068934
21
0.056894
31
0.0
0
LINE
8
0
6
CONTINUOUS
10
-0.069312
20
0.058520
30
0.0
11
-0.069885
21
0.057366
31
0.0
0
LINE
8
0
6
CONTINUOUS
10
-0.065307
20
0.052976
30
0.0
11
-0.064786
21
0.054026
31
0.0
0
LINE
8
0
6
CONTINUOUS
10
-0.066758
20
0.053696
30
0.0
11
-0.065307
21
0.052976
31
0.0
0
LINE
8
0
6
CONTINUOUS
10
-0.066758
20
0.053696
30
0.0
11
-0.066289
21
0.054641
31
0.0
0
LINE
8
0
6
CONTINUOUS
10
-0.067709
20
0.054169
30
0.0
11
-0.066758
21
0.053696
31
0.0
0
LINE
8
0
6
CONTINUOUS
10
-0.067344
20
0.054904
30
0.0
11
-0.067709
21
0.054169
31
0.0
0
LINE
8
0
6
CONTINUOUS
10
-0.046841
20
0.046518
30
0.0
11
-0.046045
21
0.048122
31
0.0
0
LINE
8
0
6
CONTINUOUS
10
-0.047340
20
0.046766
30
0.0
11
-0.046841
21
0.046518
31
0.0
0
LINE
8
0
6
CONTINUOUS
10
-0.047340
20
0.046766
30
0.0
11
-0.046521
21
0.048416
31
0.0
0
LINE
8
0
6
CONTINUOUS
10
-0.048791
20
0.047486
30
0.0
11
-0.047340
21
0.046766
31
0.0
0
LINE
8
0
6
CONTINUOUS
10
-0.048791
20
0.047486
30
0.0
11
-0.048072
21
0.048935
31
0.0
0
LINE
8
0
6
CONTINUOUS
10
-0.049743
20
0.047958
30
0.0
11
-0.048791
21
0.047486
31
0.0
0
LINE
8
0
6
CONTINUOUS
10
-0.049161
20
0.049131
30
0.0
11
-0.049743
21
0.047958
31
0.0
0
LINE
8
0
6
CONTINUOUS
10
-0.083079
20
0.064089
30
0.0
11
-0.082526
21
0.065204
31
0.0
0
LINE
8
0
6
CONTINUOUS
10
-0.084030
20
0.064561
30
0.0
11
-0.083079
21
0.064089
31
0.0
0
LINE
8
0
6
CONTINUOUS
10
-0.083596
20
0.065437
30
0.0
11
-0.084030
21
0.064561
31
0.0
0
LINE
8
0
6
CONTINUOUS
10
-0.085587
20
0.063354
30
0.0
11
-0.085154
21
0.064227
31
0.0
0
LINE
8
0
6
CONTINUOUS
10
-0.086087
20
0.063602
30
0.0
11
-0.085587
21
0.063354
31
0.0
0
LINE
8
0
6
CONTINUOUS
10
-0.085537
20
0.064709
30
0.0
11
-0.086087
21
0.063602
31
0.0
0
LINE
8
0
6
CONTINUOUS
10
-0.087538
20
0.064322
30
0.0
11
-0.086980
21
0.065445
31
0.0
0
LINE
8
0
6
CONTINUOUS
10
-0.088489
20
0.064794
30
0.0
11
-0.087538
21
0.064322
31
0.0
0
LINE
8
0
6
CONTINUOUS
10
-0.088048
20
0.065683
30
0.0
11
-0.088489
21
0.064794
31
0.0
0
LINE
8
0
6
CONTINUOUS
10
-0.078166
20
0.058186
30
0.0
11
-0.077748
21
0.059028
31
0.0
0
LINE
8
0
6
CONTINUOUS
10
-0.078665
20
0.058434
30
0.0
11
-0.078166
21
0.058186
31
0.0
0
LINE
8
0
6
CONTINUOUS
10
-0.078665
20
0.058434
30
0.0
11
-0.078162
21
0.059448
31
0.0
0
LINE
8
0
6
CONTINUOUS
10
-0.080116
20
0.059154
30
0.0
11
-0.078665
21
0.058434
31
0.0
0
LINE
8
0
6
CONTINUOUS
10
-0.080116
20
0.059154
30
0.0
11
-0.079602
21
0.060191
31
0.0
0
LINE
8
0
6
CONTINUOUS
10
-0.081068
20
0.059626
30
0.0
11
-0.080116
21
0.059154
31
0.0
0
LINE
8
0
6
CONTINUOUS
10
-0.080633
20
0.060502
30
0.0
11
-0.081068
21
0.059626
31
0.0
0
LINE
8
0
6
CONTINUOUS
10
-0.115748
20
0.080332
30
0.0
11
-0.115231
21
0.081374
31
0.0
0
LINE
8
0
6
CONTINUOUS
10
-0.117056
20
0.080980
30
0.0
11
-0.115748
21
0.080332
31
0.0
0
LINE
8
0
6
CONTINUOUS
10
-0.117056
20
0.080980
30
0.0
11
-0.116467
21
0.082165
31
0.0
0
LINE
8
0
6
CONTINUOUS
10
-0.117119
20
0.081012
30
0.0
11
-0.117056
21
0.080980
31
0.0
0
LINE
8
0
6
CONTINUOUS
10
-0.116615
20
0.082029
30
0.0
11
-0.117119
21
0.081012
31
0.0
0
LINE
8
0
6
CONTINUOUS
10
-0.106878
20
0.074019
30
0.0
11
-0.106533
21
0.074716
31
0.0
0
LINE
8
0
6
CONTINUOUS
10
-0.108122
20
0.074637
30
0.0
11
-0.106878
21
0.074019
31
0.0
0
LINE
8
0
6
CONTINUOUS
10
-0.108122
20
0.074637
30
0.0
11
-0.107641
21
0.075605
31
0.0
0
LINE
8
0
6
CONTINUOUS
10
-0.109429
20
0.075286
30
0.0
11
-0.108122
21
0.074637
31
0.0
0
LINE
8
0
6
CONTINUOUS
10
-0.109429
20
0.075286
30
0.0
11
-0.108878
21
0.076397
31
0.0
0
LINE
8
0
6
CONTINUOUS
10
-0.109493
20
0.075317
30
0.0
11
-0.109429
21
0.075286
31
0.0
0
LINE
8
0
6
CONTINUOUS
10
-0.108960
20
0.076391
30
0.0
11
-0.109493
21
0.075317
31
0.0
0
LINE
8
0
6
CONTINUOUS
10
-0.106659
20
0.075756
30
0.0
11
-0.106305
21
0.076470
31
0.0
0
LINE
8
0
6
CONTINUOUS
10
-0.107708
20
0.076277
30
0.0
11
-0.106659
21
0.075756
31
0.0
0
LINE
8
0
6
CONTINUOUS
10
-0.107708
20
0.076277
30
0.0
11
-0.107154
21
0.077394
31
0.0
0
LINE
8
0
6
CONTINUOUS
10
-0.109130
20
0.076982
30
0.0
11
-0.107708
21
0.076277
31
0.0
0
LINE
8
0
6
CONTINUOUS
10
-0.109130
20
0.076982
30
0.0
11
-0.108509
21
0.078234
31
0.0
0
LINE
8
0
6
CONTINUOUS
10
-0.109502
20
0.077167
30
0.0
11
-0.109130
21
0.076982
31
0.0
0
LINE
8
0
6
CONTINUOUS
10
-0.108989
20
0.078202
30
0.0
11
-0.109502
21
0.077167
31
0.0
0
LINE
8
0
6
CONTINUOUS
10
-0.098842
20
0.068875
30
0.0
11
-0.098469
21
0.069626
31
0.0
0
LINE
8
0
6
CONTINUOUS
10
-0.099891
20
0.069396
30
0.0
11
-0.098842
21
0.068875
31
0.0
0
LINE
8
0
6
CONTINUOUS
10
-0.099451
20
0.070282
30
0.0
11
-0.099891
21
0.069396
31
0.0
0
LINE
8
0
6
CONTINUOUS
10
-0.101313
20
0.070101
30
0.0
11
-0.100813
21
0.071108
31
0.0
0
LINE
8
0
6
CONTINUOUS
10
-0.101685
20
0.070286
30
0.0
11
-0.101313
21
0.070101
31
0.0
0
LINE
8
0
6
CONTINUOUS
10
-0.101192
20
0.071279
30
0.0
11
-0.101685
21
0.070286
31
0.0
0
LINE
8
0
6
CONTINUOUS
10
-0.094897
20
0.070078
30
0.0
11
-0.094475
21
0.070928
31
0.0
0
LINE
8
0
6
CONTINUOUS
10
-0.095704
20
0.070478
30
0.0
11
-0.094897
21
0.070078
31
0.0
0
LINE
8
0
6
CONTINUOUS
10
-0.095704
20
0.070478
30
0.0
11
-0.095169
21
0.071556
31
0.0
0
LINE
8
0
6
CONTINUOUS
10
-0.097176
20
0.071209
30
0.0
11
-0.095704
21
0.070478
31
0.0
0
LINE
8
0
6
CONTINUOUS
10
-0.097176
20
0.071209
30
0.0
11
-0.096624
21
0.072321
31
0.0
0
LINE
8
0
6
CONTINUOUS
10
-0.097840
20
0.071539
30
0.0
11
-0.097176
21
0.071209
31
0.0
0
LINE
8
0
6
CONTINUOUS
10
-0.097385
20
0.072456
30
0.0
11
-0.097840
21
0.071539
31
0.0
0
LINE
8
0
6
CONTINUOUS
10
-0.097880
20
0.069735
30
0.0
11
-0.097486
21
0.070528
31
0.0
0
LINE
8
0
6
CONTINUOUS
10
-0.098687
20
0.070136
30
0.0
11
-0.097880
21
0.069735
31
0.0
0
LINE
8
0
6
CONTINUOUS
10
-0.098687
20
0.070136
30
0.0
11
-0.098207
21
0.071103
31
0.0
0
LINE
8
0
6
CONTINUOUS
10
-0.100159
20
0.070866
30
0.0
11
-0.098687
21
0.070136
31
0.0
0
LINE
8
0
6
CONTINUOUS
10
-0.100159
20
0.070866
30
0.0
11
-0.099637
21
0.071919
31
0.0
0
LINE
8
0
6
CONTINUOUS
10
-0.100824
20
0.071196
30
0.0
11
-0.100159
21
0.070866
31
0.0
0
LINE
8
0
6
CONTINUOUS
10
-0.100345
20
0.072160
30
0.0
11
-0.100824
21
0.071196
31
0.0
0
LINE
8
0
6
CONTINUOUS
10
-0.088936
20
0.063731
30
0.0
11
-0.088486
21
0.064638
31
0.0
0
LINE
8
0
6
CONTINUOUS
10
-0.089744
20
0.064132
30
0.0
11
-0.088936
21
0.063731
31
0.0
0
LINE
8
0
6
CONTINUOUS
10
-0.089744
20
0.064132
30
0.0
11
-0.089226
21
0.065176
31
0.0
0
LINE
8
0
6
CONTINUOUS
10
-0.091216
20
0.064862
30
0.0
11
-0.089744
21
0.064132
31
0.0
0
LINE
8
0
6
CONTINUOUS
10
-0.090715
20
0.065872
30
0.0
11
-0.091216
21
0.064862
31
0.0
0
LINE
8
0
6
CONTINUOUS
10
-0.090593
20
0.063779
30
0.0
11
-0.090293
21
0.064384
31
0.0
0
LINE
8
0
6
CONTINUOUS
10
-0.091401
20
0.064180
30
0.0
11
-0.090593
21
0.063779
31
0.0
0
LINE
8
0
6
CONTINUOUS
10
-0.091401
20
0.064180
30
0.0
11
-0.091100
21
0.064786
31
0.0
0
LINE
8
0
6
CONTINUOUS
10
-0.092873
20
0.064911
30
0.0
11
-0.091401
21
0.064180
31
0.0
0
LINE
8
0
6
CONTINUOUS
10
-0.092873
20
0.064911
30
0.0
11
-0.092571
21
0.065518
31
0.0
0
LINE
8
0
6
CONTINUOUS
10
-0.093537
20
0.065240
30
0.0
11
-0.092873
21
0.064911
31
0.0
0
LINE
8
0
6
CONTINUOUS
10
-0.093235
20
0.065849
30
0.0
11
-0.093537
21
0.065240
31
0.0
0
LINE
8
0
6
CONTINUOUS
10
-0.090832
20
0.070397
30
0.0
11
-0.090424
21
0.071219
31
0.0
0
LINE
8
0
6
CONTINUOUS
10
-0.091332
20
0.070645
30
0.0
11
-0.090832
21
0.070397
31
0.0
0
LINE
8
0
6
CONTINUOUS
10
-0.091332
20
0.070645
30
0.0
11
-0.090756
21
0.071806
31
0.0
0
LINE
8
0
6
CONTINUOUS
10
-0.092783
20
0.071365
30
0.0
11
-0.091332
21
0.070645
31
0.0
0
LINE
8
0
6
CONTINUOUS
10
-0.092176
20
0.072586
30
0.0
11
-0.092783
21
0.071365
31
0.0
0
LINE
8
0
6
CONTINUOUS
10
-0.121833
20
0.085651
30
0.0
11
-0.121643
21
0.086035
31
0.0
0
LINE
8
0
6
CONTINUOUS
10
-0.122081
20
0.085774
30
0.0
11
-0.121833
21
0.085651
31
0.0
0
LINE
8
0
6
CONTINUOUS
10
-0.121768
20
0.086405
30
0.0
11
-0.122081
21
0.085774
31
0.0
0
LINE
8
0
6
CONTINUOUS
10
-0.116162
20
0.082694
30
0.0
11
-0.115635
21
0.083756
31
0.0
0
LINE
8
0
6
CONTINUOUS
10
-0.117583
20
0.083400
30
0.0
11
-0.116162
21
0.082694
31
0.0
0
LINE
8
0
6
CONTINUOUS
10
-0.117583
20
0.083400
30
0.0
11
-0.116931
21
0.084715
31
0.0
0
LINE
8
0
6
CONTINUOUS
10
-0.117956
20
0.083585
30
0.0
11
-0.117583
21
0.083400
31
0.0
0
LINE
8
0
6
CONTINUOUS
10
-0.117392
20
0.084720
30
0.0
11
-0.117956
21
0.083585
31
0.0
0
LINE
8
0
6
CONTINUOUS
10
-0.104319
20
0.076906
30
0.0
11
-0.103965
21
0.077620
31
0.0
0
LINE
8
0
6
CONTINUOUS
10
-0.105127
20
0.077306
30
0.0
11
-0.104319
21
0.076906
31
0.0
0
LINE
8
0
6
CONTINUOUS
10
-0.105127
20
0.077306
30
0.0
11
-0.104548
21
0.078474
31
0.0
0
LINE
8
0
6
CONTINUOUS
10
-0.106599
20
0.078037
30
0.0
11
-0.105127
21
0.077306
31
0.0
0
LINE
8
0
6
CONTINUOUS
10
-0.106599
20
0.078037
30
0.0
11
-0.105953
21
0.079338
31
0.0
0
LINE
8
0
6
CONTINUOUS
10
-0.107263
20
0.078367
30
0.0
11
-0.106599
21
0.078037
31
0.0
0
LINE
8
0
6
CONTINUOUS
10
-0.106765
20
0.079370
30
0.0
11
-0.107263
21
0.078367
31
0.0
0
LINE
8
0
6
CONTINUOUS
10
-0.124293
20
0.086829
30
0.0
11
-0.123972
21
0.086669
31
0.0
0
LINE
8
0
6
CONTINUOUS
10
-0.125700
20
0.087527
30
0.0
11
-0.125231
21
0.088472
31
0.0
0
LINE
8
0
6
CONTINUOUS
10
-0.126785
20
0.088066
30
0.0
11
-0.125700
21
0.087527
31
0.0
0
LINE
8
0
6
CONTINUOUS
10
-0.126155
20
0.089335
30
0.0
11
-0.126785
21
0.088066
31
0.0
0
LINE
8
0
6
CONTINUOUS
10
-0.096687
20
0.066744
30
0.0
11
-0.095265
21
0.066039
31
0.0
0
LINE
8
0
6
CONTINUOUS
10
-0.096242
20
0.067640
30
0.0
11
-0.096687
21
0.066744
31
0.0
0
LINE
8
0
6
CONTINUOUS
10
-0.094893
20
0.065854
30
0.0
11
-0.094540
21
0.066565
31
0.0
0
LINE
8
0
6
CONTINUOUS
10
-0.095265
20
0.066039
30
0.0
11
-0.094893
21
0.065854
31
0.0
0
LINE
8
0
6
CONTINUOUS
10
-0.094876
20
0.066823
30
0.0
11
-0.095265
21
0.066039
31
0.0
0
LINE
8
0
6
CONTINUOUS
10
-0.109842
20
0.075619
30
0.0
11
-0.109548
21
0.076211
31
0.0
0
LINE
8
0
6
CONTINUOUS
10
-0.110977
20
0.076182
30
0.0
11
-0.109842
21
0.075619
31
0.0
0
LINE
8
0
6
CONTINUOUS
10
-0.110977
20
0.076182
30
0.0
11
-0.110581
21
0.076979
31
0.0
0
LINE
8
0
6
CONTINUOUS
10
-0.112359
20
0.076868
30
0.0
11
-0.110977
21
0.076182
31
0.0
0
LINE
8
0
6
CONTINUOUS
10
-0.111834
20
0.077926
30
0.0
11
-0.112359
21
0.076868
31
0.0
0
LINE
8
0
6
CONTINUOUS
10
-0.117356
20
0.081188
30
0.0
11
-0.117056
21
0.081792
31
0.0
0
LINE
8
0
6
CONTINUOUS
10
-0.118491
20
0.081751
30
0.0
11
-0.117356
21
0.081188
31
0.0
0
LINE
8
0
6
CONTINUOUS
10
-0.118491
20
0.081751
30
0.0
11
-0.118089
21
0.082560
31
0.0
0
LINE
8
0
6
CONTINUOUS
10
-0.119873
20
0.082437
30
0.0
11
-0.118491
21
0.081751
31
0.0
0
LINE
8
0
6
CONTINUOUS
10
-0.119873
20
0.082437
30
0.0
11
-0.119348
21
0.083496
31
0.0
0
LINE
8
0
6
CONTINUOUS
10
-0.120121
20
0.082560
30
0.0
11
-0.119873
21
0.082437
31
0.0
0
LINE
8
0
6
CONTINUOUS
10
-0.119573
20
0.083664
30
0.0
11
-0.120121
21
0.082560
31
0.0
0
LINE
8
0
6
CONTINUOUS
10
-0.045656
20
0.045472
30
0.0
11
-0.045226
21
0.046339
31
0.0
0
LINE
8
0
6
CONTINUOUS
10
-0.046607
20
0.045944
30
0.0
11
-0.045656
21
0.045472
31
0.0
0
LINE
8
0
6
CONTINUOUS
10
-0.046170
20
0.046826
30
0.0
11
-0.046607
21
0.045944
31
0.0
0
LINE
8
0
6
CONTINUOUS
10
-0.064007
20
0.051975
30
0.0
11
-0.062556
21
0.051254
31
0.0
0
LINE
8
0
6
CONTINUOUS
10
-0.061604
20
0.050782
30
0.0
11
-0.061114
21
0.051771
31
0.0
0
LINE
8
0
6
CONTINUOUS
10
-0.062556
20
0.051254
30
0.0
11
-0.061604
21
0.050782
31
0.0
0
LINE
8
0
6
CONTINUOUS
10
-0.062094
20
0.052185
30
0.0
11
-0.062556
21
0.051254
31
0.0
0
LINE
8
0
6
CONTINUOUS
10
-0.064007
20
0.051975
30
0.0
11
-0.063629
21
0.052736
31
0.0
0
LINE
8
0
6
CONTINUOUS
10
-0.064506
20
0.052223
30
0.0
11
-0.064007
21
0.051975
31
0.0
0
LINE
8
0
6
CONTINUOUS
10
-0.064152
20
0.052937
30
0.0
11
-0.064506
21
0.052223
31
0.0
0
LINE
8
0
6
CONTINUOUS
10
-0.079238
20
0.057815
30
0.0
11
-0.078812
21
0.058672
31
0.0
0
LINE
8
0
6
CONTINUOUS
10
-0.080689
20
0.058535
30
0.0
11
-0.079238
21
0.057815
31
0.0
0
LINE
8
0
6
CONTINUOUS
10
-0.080689
20
0.058535
30
0.0
11
-0.080262
21
0.059393
31
0.0
0
LINE
8
0
6
CONTINUOUS
10
-0.081188
20
0.058783
30
0.0
11
-0.080689
21
0.058535
31
0.0
0
LINE
8
0
6
CONTINUOUS
10
-0.080762
20
0.059642
30
0.0
11
-0.081188
21
0.058783
31
0.0
0
LINE
8
0
6
CONTINUOUS
10
-0.102630
20
0.070721
30
0.0
11
-0.102271
21
0.071446
31
0.0
0
LINE
8
0
6
CONTINUOUS
10
-0.103874
20
0.071338
30
0.0
11
-0.102630
21
0.070721
31
0.0
0
LINE
8
0
6
CONTINUOUS
10
-0.103427
20
0.072240
30
0.0
11
-0.103874
21
0.071338
31
0.0
0
LINE
8
0
6
CONTINUOUS
10
-0.105181
20
0.071987
30
0.0
11
-0.104691
21
0.072975
31
0.0
0
LINE
8
0
6
CONTINUOUS
10
-0.105245
20
0.072019
30
0.0
11
-0.105181
21
0.071987
31
0.0
0
LINE
8
0
6
CONTINUOUS
10
-0.104752
20
0.073013
30
0.0
11
-0.105245
21
0.072019
31
0.0
0
LINE
8
0
6
CONTINUOUS
10
-0.123972
20
0.086669
30
0.0
11
-0.124293
21
0.086829
31
0.0
0
LINE
8
0
6
CONTINUOUS
10
-0.125700
20
0.087527
30
0.0
11
-0.126785
21
0.088066
31
0.0
0
LINE
8
0
6
CONTINUOUS
10
-0.124293
20
0.086829
30
0.0
11
-0.125700
21
0.087527
31
0.0
0
LINE
8
0
6
CONTINUOUS
10
-0.090832
20
0.070397
30
0.0
11
-0.091332
21
0.070645
31
0.0
0
LINE
8
0
6
CONTINUOUS
10
-0.092783
20
0.071365
30
0.0
11
-0.093734
21
0.071837
31
0.0
0
LINE
8
0
6
CONTINUOUS
10
-0.091332
20
0.070645
30
0.0
11
-0.092783
21
0.071365
31
0.0
0
LINE
8
0
6
CONTINUOUS
10
-0.090593
20
0.063779
30
0.0
11
-0.091401
21
0.064180
31
0.0
0
LINE
8
0
6
CONTINUOUS
10
-0.092873
20
0.064911
30
0.0
11
-0.093537
21
0.065240
31
0.0
0
LINE
8
0
6
CONTINUOUS
10
-0.091401
20
0.064180
30
0.0
11
-0.092873
21
0.064911
31
0.0
0
LINE
8
0
6
CONTINUOUS
10
-0.075930
20
0.058422
30
0.0
11
-0.076430
21
0.058670
31
0.0
0
LINE
8
0
6
CONTINUOUS
10
-0.074479
20
0.057702
30
0.0
11
-0.075930
21
0.058422
31
0.0
0
LINE
8
0
6
CONTINUOUS
10
-0.073528
20
0.057230
30
0.0
11
-0.074479
21
0.057702
31
0.0
0
LINE
8
0
6
CONTINUOUS
10
-0.055970
20
0.049343
30
0.0
11
-0.056921
21
0.049815
31
0.0
0
LINE
8
0
6
CONTINUOUS
10
-0.054519
20
0.048623
30
0.0
11
-0.055970
21
0.049343
31
0.0
0
LINE
8
0
6
CONTINUOUS
10
-0.054019
20
0.048375
30
0.0
11
-0.054519
21
0.048623
31
0.0
0
LINE
8
0
6
CONTINUOUS
10
-0.085587
20
0.063354
30
0.0
11
-0.086087
21
0.063602
31
0.0
0
LINE
8
0
6
CONTINUOUS
10
-0.087538
20
0.064322
30
0.0
11
-0.088489
21
0.064794
31
0.0
0
LINE
8
0
6
CONTINUOUS
10
-0.086087
20
0.063602
30
0.0
11
-0.087538
21
0.064322
31
0.0
0
LINE
8
0
6
CONTINUOUS
10
-0.091216
20
0.064862
30
0.0
11
-0.091880
21
0.065192
31
0.0
0
LINE
8
0
6
CONTINUOUS
10
-0.089744
20
0.064132
30
0.0
11
-0.091216
21
0.064862
31
0.0
0
LINE
8
0
6
CONTINUOUS
10
-0.088936
20
0.063731
30
0.0
11
-0.089744
21
0.064132
31
0.0
0
LINE
8
0
6
CONTINUOUS
10
-0.122081
20
0.085774
30
0.0
11
-0.123464
21
0.086460
31
0.0
0
LINE
8
0
6
CONTINUOUS
10
-0.121833
20
0.085651
30
0.0
11
-0.122081
21
0.085774
31
0.0
0
LINE
8
0
6
CONTINUOUS
10
-0.123464
20
0.086460
30
0.0
11
-0.124598
21
0.087024
31
0.0
0
LINE
8
0
6
CONTINUOUS
10
-0.117356
20
0.081188
30
0.0
11
-0.118491
21
0.081751
31
0.0
0
LINE
8
0
6
CONTINUOUS
10
-0.119873
20
0.082437
30
0.0
11
-0.120121
21
0.082560
31
0.0
0
LINE
8
0
6
CONTINUOUS
10
-0.118491
20
0.081751
30
0.0
11
-0.119873
21
0.082437
31
0.0
0
LINE
8
0
6
CONTINUOUS
10
-0.080116
20
0.059154
30
0.0
11
-0.081068
21
0.059626
31
0.0
0
LINE
8
0
6
CONTINUOUS
10
-0.078665
20
0.058434
30
0.0
11
-0.080116
21
0.059154
31
0.0
0
LINE
8
0
6
CONTINUOUS
10
-0.078166
20
0.058186
30
0.0
11
-0.078665
21
0.058434
31
0.0
0
LINE
8
0
6
CONTINUOUS
10
-0.105181
20
0.071987
30
0.0
11
-0.105245
21
0.072019
31
0.0
0
LINE
8
0
6
CONTINUOUS
10
-0.103874
20
0.071338
30
0.0
11
-0.105181
21
0.071987
31
0.0
0
LINE
8
0
6
CONTINUOUS
10
-0.102630
20
0.070721
30
0.0
11
-0.103874
21
0.071338
31
0.0
0
LINE
8
0
6
CONTINUOUS
10
-0.082366
20
0.059741
30
0.0
11
-0.082866
21
0.059989
31
0.0
0
LINE
8
0
6
CONTINUOUS
10
-0.084317
20
0.060709
30
0.0
11
-0.085268
21
0.061181
31
0.0
0
LINE
8
0
6
CONTINUOUS
10
-0.082866
20
0.059989
30
0.0
11
-0.084317
21
0.060709
31
0.0
0
LINE
8
0
6
CONTINUOUS
10
-0.071134
20
0.054748
30
0.0
11
-0.071633
21
0.054996
31
0.0
0
LINE
8
0
6
CONTINUOUS
10
-0.073084
20
0.055716
30
0.0
11
-0.074035
21
0.056189
31
0.0
0
LINE
8
0
6
CONTINUOUS
10
-0.071633
20
0.054996
30
0.0
11
-0.073084
21
0.055716
31
0.0
0
LINE
8
0
6
CONTINUOUS
10
-0.078286
20
0.057342
30
0.0
11
-0.079238
21
0.057815
31
0.0
0
LINE
8
0
6
CONTINUOUS
10
-0.080689
20
0.058535
30
0.0
11
-0.081188
21
0.058783
31
0.0
0
LINE
8
0
6
CONTINUOUS
10
-0.079238
20
0.057815
30
0.0
11
-0.080689
21
0.058535
31
0.0
0
LINE
8
0
6
CONTINUOUS
10
-0.100159
20
0.070866
30
0.0
11
-0.100824
21
0.071196
31
0.0
0
LINE
8
0
6
CONTINUOUS
10
-0.098687
20
0.070136
30
0.0
11
-0.100159
21
0.070866
31
0.0
0
LINE
8
0
6
CONTINUOUS
10
-0.097880
20
0.069735
30
0.0
11
-0.098687
21
0.070136
31
0.0
0
LINE
8
0
6
CONTINUOUS
10
-0.117056
20
0.080980
30
0.0
11
-0.117119
21
0.081012
31
0.0
0
LINE
8
0
6
CONTINUOUS
10
-0.115748
20
0.080332
30
0.0
11
-0.117056
21
0.080980
31
0.0
0
LINE
8
0
6
CONTINUOUS
10
-0.114504
20
0.079714
30
0.0
11
-0.115748
21
0.080332
31
0.0
0
LINE
8
0
6
CONTINUOUS
10
-0.115113
20
0.082174
30
0.0
11
-0.116162
21
0.082694
31
0.0
0
LINE
8
0
6
CONTINUOUS
10
-0.117583
20
0.083400
30
0.0
11
-0.117956
21
0.083585
31
0.0
0
LINE
8
0
6
CONTINUOUS
10
-0.116162
20
0.082694
30
0.0
11
-0.117583
21
0.083400
31
0.0
0
LINE
8
0
6
CONTINUOUS
10
0.074099
20
-0.055883
30
0.0
11
0.072119
21
-0.057514
31
0.0
0
LINE
8
0
6
CONTINUOUS
10
0.073756
20
-0.056205
30
0.0
11
0.072000
21
-0.057720
31
0.0
0
LINE
8
0
6
CONTINUOUS
10
0.074435
20
-0.056307
30
0.0
11
0.072455
21
-0.057938
31
0.0
0
LINE
8
0
6
CONTINUOUS
10
0.075592
20
-0.054656
30
0.0
11
0.076521
21
-0.053893
31
0.0
0
LINE
8
0
6
CONTINUOUS
10
0.076858
20
-0.054316
30
0.0
11
0.075928
21
-0.055079
31
0.0
0
LINE
8
0
6
CONTINUOUS
10
0.054517
20
-0.071994
30
0.0
11
0.053005
21
-0.073226
31
0.0
0
LINE
8
0
6
CONTINUOUS
10
0.055198
20
-0.072103
30
0.0
11
0.053333
21
-0.073655
31
0.0
0
LINE
8
0
6
CONTINUOUS
10
0.054847
20
-0.072422
30
0.0
11
0.053333
21
-0.073655
31
0.0
0
LINE
8
0
6
CONTINUOUS
10
0.072119
20
-0.057514
30
0.0
11
0.069751
21
-0.059467
31
0.0
0
LINE
8
0
6
CONTINUOUS
10
0.071895
20
-0.057811
30
0.0
11
0.069655
21
-0.059736
31
0.0
0
LINE
8
0
6
CONTINUOUS
10
0.072455
20
-0.057938
30
0.0
11
0.070086
21
-0.059891
31
0.0
0
LINE
8
0
6
CONTINUOUS
10
0.051570
20
-0.074037
30
0.0
11
0.051734
21
-0.074252
31
0.0
0
LINE
8
0
6
CONTINUOUS
10
0.051734
20
-0.074252
30
0.0
11
0.052605
21
-0.074322
31
0.0
0
LINE
8
0
6
CONTINUOUS
10
0.052058
20
-0.073992
30
0.0
11
0.051734
21
-0.074252
31
0.0
0
LINE
8
0
6
CONTINUOUS
10
0.052061
20
-0.074682
30
0.0
11
0.052224
21
-0.074897
31
0.0
0
LINE
8
0
6
CONTINUOUS
10
0.052385
20
-0.074421
30
0.0
11
0.052061
21
-0.074682
31
0.0
0
LINE
8
0
6
CONTINUOUS
10
0.061548
20
-0.066226
30
0.0
11
0.058899
21
-0.068404
31
0.0
0
LINE
8
0
6
CONTINUOUS
10
0.061851
20
-0.066413
30
0.0
11
0.059333
21
-0.068564
31
0.0
0
LINE
8
0
6
CONTINUOUS
10
0.061880
20
-0.066653
30
0.0
11
0.059230
21
-0.068831
31
0.0
0
LINE
8
0
6
CONTINUOUS
10
0.067112
20
-0.061643
30
0.0
11
0.064332
21
-0.063934
31
0.0
0
LINE
8
0
6
CONTINUOUS
10
0.067148
20
-0.061885
30
0.0
11
0.064501
21
-0.064148
31
0.0
0
LINE
8
0
6
CONTINUOUS
10
0.067446
20
-0.062068
30
0.0
11
0.064665
21
-0.064360
31
0.0
0
LINE
8
0
6
CONTINUOUS
10
0.053005
20
-0.073226
30
0.0
11
0.052058
21
-0.073992
31
0.0
0
LINE
8
0
6
CONTINUOUS
10
0.053333
20
-0.073655
30
0.0
11
0.052385
21
-0.074421
31
0.0
0
LINE
8
0
6
CONTINUOUS
10
0.058899
20
-0.068404
30
0.0
11
0.056516
21
-0.070359
31
0.0
0
LINE
8
0
6
CONTINUOUS
10
0.059333
20
-0.068564
30
0.0
11
0.057078
21
-0.070493
31
0.0
0
LINE
8
0
6
CONTINUOUS
10
0.059230
20
-0.068831
30
0.0
11
0.056846
21
-0.070787
31
0.0
0
LINE
8
0
6
CONTINUOUS
10
0.064332
20
-0.063934
30
0.0
11
0.061548
21
-0.066226
31
0.0
0
LINE
8
0
6
CONTINUOUS
10
0.064501
20
-0.064148
30
0.0
11
0.061851
21
-0.066413
31
0.0
0
LINE
8
0
6
CONTINUOUS
10
0.064665
20
-0.064360
30
0.0
11
0.061880
21
-0.066653
31
0.0
0
LINE
8
0
6
CONTINUOUS
10
0.056516
20
-0.070359
30
0.0
11
0.054517
21
-0.071994
31
0.0
0
LINE
8
0
6
CONTINUOUS
10
0.057078
20
-0.070493
30
0.0
11
0.055198
21
-0.072103
31
0.0
0
LINE
8
0
6
CONTINUOUS
10
0.056846
20
-0.070787
30
0.0
11
0.054847
21
-0.072422
31
0.0
0
LINE
8
0
6
CONTINUOUS
10
0.069751
20
-0.059467
30
0.0
11
0.067112
21
-0.061643
31
0.0
0
LINE
8
0
6
CONTINUOUS
10
0.069655
20
-0.059736
30
0.0
11
0.067148
21
-0.061885
31
0.0
0
LINE
8
0
6
CONTINUOUS
10
0.070086
20
-0.059891
30
0.0
11
0.067446
21
-0.062068
31
0.0
0
LINE
8
0
6
CONTINUOUS
10
0.073756
20
-0.056205
30
0.0
11
0.075592
21
-0.054656
31
0.0
0
LINE
8
0
6
CONTINUOUS
10
0.075592
20
-0.054656
30
0.0
11
0.074099
21
-0.055883
31
0.0
0
LINE
8
0
6
CONTINUOUS
10
0.075928
20
-0.055079
30
0.0
11
0.074435
21
-0.056307
31
0.0
0
LINE
8
0
6
CONTINUOUS
10
0.076837
20
-0.053634
30
0.0
11
0.076668
21
-0.053423
31
0.0
0
LINE
8
0
6
CONTINUOUS
10
0.076521
20
-0.053893
30
0.0
11
0.076837
21
-0.053634
31
0.0
0
LINE
8
0
6
CONTINUOUS
10
0.077174
20
-0.054057
30
0.0
11
0.076302
21
-0.053996
31
0.0
0
LINE
8
0
6
CONTINUOUS
10
0.077174
20
-0.054057
30
0.0
11
0.076858
21
-0.054316
31
0.0
0
LINE
8
0
6
CONTINUOUS
10
0.077343
20
-0.054268
30
0.0
11
0.077174
21
-0.054057
31
0.0
0
LINE
8
0
6
CONTINUOUS
10
0.115224
20
-0.101775
30
0.0
11
0.077343
21
-0.054268
31
0.0
0
LINE
8
0
6
CONTINUOUS
10
0.052224
20
-0.074897
30
0.0
11
0.072681
21
-0.101775
31
0.0
0
LINE
8
0
6
CONTINUOUS
10
0.061972
20
-0.109500
30
0.0
11
0.064412
21
-0.109500
31
0.0
0
LINE
8
0
6
CONTINUOUS
10
0.064412
20
-0.103500
30
0.0
11
0.061972
21
-0.103500
31
0.0
0
LINE
8
0
6
CONTINUOUS
10
0.131000
20
-0.109500
30
0.0
11
0.131000
21
-0.108711
31
0.0
0
LINE
8
0
6
CONTINUOUS
10
0.130028
20
-0.109500
30
0.0
11
0.131000
21
-0.109500
31
0.0
0
LINE
8
0
6
CONTINUOUS
10
0.131000
20
-0.108711
30
0.0
11
0.131000
21
-0.104289
31
0.0
0
LINE
8
0
6
CONTINUOUS
10
0.131000
20
-0.104289
30
0.0
11
0.131000
21
-0.103500
31
0.0
0
LINE
8
0
6
CONTINUOUS
10
0.131000
20
-0.103500
30
0.0
11
0.130028
21
-0.103500
31
0.0
0
LINE
8
0
6
CONTINUOUS
10
0.072681
20
-0.101775
30
0.0
11
0.072698
21
-0.102714
31
0.0
0
LINE
8
0
6
CONTINUOUS
10
0.073232
20
-0.101775
30
0.0
11
0.072681
21
-0.101775
31
0.0
0
LINE
8
0
6
CONTINUOUS
10
0.072698
20
-0.102714
30
0.0
11
0.072634
21
-0.103118
31
0.0
0
LINE
8
0
6
CONTINUOUS
10
0.072360
20
-0.103500
30
0.0
11
0.073002
21
-0.103500
31
0.0
0
LINE
8
0
6
CONTINUOUS
10
0.072634
20
-0.103118
30
0.0
11
0.072360
21
-0.103500
31
0.0
0
LINE
8
0
6
CONTINUOUS
10
0.073226
20
-0.103118
30
0.0
11
0.072634
21
-0.103118
31
0.0
0
LINE
8
0
6
CONTINUOUS
10
0.115899
20
-0.102714
30
0.0
11
0.115224
21
-0.101775
31
0.0
0
LINE
8
0
6
CONTINUOUS
10
0.116398
20
-0.103118
30
0.0
11
0.115899
21
-0.102714
31
0.0
0
LINE
8
0
6
CONTINUOUS
10
0.117026
20
-0.103500
30
0.0
11
0.117654
21
-0.103500
31
0.0
0
LINE
8
0
6
CONTINUOUS
10
0.117654
20
-0.103500
30
0.0
11
0.116398
21
-0.103118
31
0.0
0
LINE
8
0
6
CONTINUOUS
10
0.084773
20
-0.101775
30
0.0
11
0.080758
21
-0.101775
31
0.0
0
LINE
8
0
6
CONTINUOUS
10
0.081176
20
-0.103500
30
0.0
11
0.085390
21
-0.103500
31
0.0
0
LINE
8
0
6
CONTINUOUS
10
0.085142
20
-0.103118
30
0.0
11
0.081040
21
-0.103118
31
0.0
0
LINE
8
0
6
CONTINUOUS
10
0.074837
20
-0.101775
30
0.0
11
0.073232
21
-0.101775
31
0.0
0
LINE
8
0
6
CONTINUOUS
10
0.073002
20
-0.103500
30
0.0
11
0.074812
21
-0.103500
31
0.0
0
LINE
8
0
6
CONTINUOUS
10
0.074922
20
-0.103118
30
0.0
11
0.073226
21
-0.103118
31
0.0
0
LINE
8
0
6
CONTINUOUS
10
0.115220
20
-0.103500
30
0.0
11
0.117026
21
-0.103500
31
0.0
0
LINE
8
0
6
CONTINUOUS
10
0.112408
20
-0.103500
30
0.0
11
0.115220
21
-0.103500
31
0.0
0
LINE
8
0
6
CONTINUOUS
10
0.114121
20
-0.103118
30
0.0
11
0.111448
21
-0.103118
31
0.0
0
LINE
8
0
6
CONTINUOUS
10
0.108777
20
-0.103500
30
0.0
11
0.112408
21
-0.103500
31
0.0
0
LINE
8
0
6
CONTINUOUS
10
0.111448
20
-0.103118
30
0.0
11
0.107958
21
-0.103118
31
0.0
0
LINE
8
0
6
CONTINUOUS
10
0.077391
20
-0.101775
30
0.0
11
0.074837
21
-0.101775
31
0.0
0
LINE
8
0
6
CONTINUOUS
10
0.074812
20
-0.103500
30
0.0
11
0.077594
21
-0.103500
31
0.0
0
LINE
8
0
6
CONTINUOUS
10
0.077577
20
-0.103118
30
0.0
11
0.074922
21
-0.103118
31
0.0
0
LINE
8
0
6
CONTINUOUS
10
0.104519
20
-0.103500
30
0.0
11
0.108777
21
-0.103500
31
0.0
0
LINE
8
0
6
CONTINUOUS
10
0.107958
20
-0.103118
30
0.0
11
0.103830
21
-0.103118
31
0.0
0
LINE
8
0
6
CONTINUOUS
10
0.093935
20
-0.101775
30
0.0
11
0.089238
21
-0.101775
31
0.0
0
LINE
8
0
6
CONTINUOUS
10
0.090046
20
-0.103500
30
0.0
11
0.094935
21
-0.103500
31
0.0
0
LINE
8
0
6
CONTINUOUS
10
0.094475
20
-0.103118
30
0.0
11
0.089692
21
-0.103118
31
0.0
0
LINE
8
0
6
CONTINUOUS
10
0.099833
20
-0.103500
30
0.0
11
0.104519
21
-0.103500
31
0.0
0
LINE
8
0
6
CONTINUOUS
10
0.103830
20
-0.103118
30
0.0
11
0.099263
21
-0.103118
31
0.0
0
LINE
8
0
6
CONTINUOUS
10
0.080758
20
-0.101775
30
0.0
11
0.077391
21
-0.101775
31
0.0
0
LINE
8
0
6
CONTINUOUS
10
0.077594
20
-0.103500
30
0.0
11
0.081176
21
-0.103500
31
0.0
0
LINE
8
0
6
CONTINUOUS
10
0.081040
20
-0.103118
30
0.0
11
0.077577
21
-0.103118
31
0.0
0
LINE
8
0
6
CONTINUOUS
10
0.094935
20
-0.103500
30
0.0
11
0.099833
21
-0.103500
31
0.0
0
LINE
8
0
6
CONTINUOUS
10
0.099263
20
-0.103118
30
0.0
11
0.094475
21
-0.103118
31
0.0
0
LINE
8
0
6
CONTINUOUS
10
0.089238
20
-0.101775
30
0.0
11
0.084773
21
-0.101775
31
0.0
0
LINE
8
0
6
CONTINUOUS
10
0.085390
20
-0.103500
30
0.0
11
0.090046
21
-0.103500
31
0.0
0
LINE
8
0
6
CONTINUOUS
10
0.089692
20
-0.103118
30
0.0
11
0.085142
21
-0.103118
31
0.0
0
LINE
8
0
6
CONTINUOUS
10
0.076668
20
-0.053423
30
0.0
11
0.063238
21
-0.036580
31
0.0
0
LINE
8
0
6
CONTINUOUS
10
0.060068
20
-0.036936
30
0.0
11
0.059811
21
-0.037150
31
0.0
0
LINE
8
0
6
CONTINUOUS
10
0.060412
20
-0.037348
30
0.0
11
0.060068
21
-0.036936
31
0.0
0
LINE
8
0
6
CONTINUOUS
10
0.047549
20
-0.047387
30
0.0
11
0.045384
21
-0.049193
31
0.0
0
LINE
8
0
6
CONTINUOUS
10
0.040601
20
-0.053186
30
0.0
11
0.039844
21
-0.053819
31
0.0
0
LINE
8
0
6
CONTINUOUS
10
0.049828
20
-0.045484
30
0.0
11
0.047549
21
-0.047387
31
0.0
0
LINE
8
0
6
CONTINUOUS
10
0.041821
20
-0.052168
30
0.0
11
0.040601
21
-0.053186
31
0.0
0
LINE
8
0
6
CONTINUOUS
10
0.059054
20
-0.037782
30
0.0
11
0.057834
21
-0.038801
31
0.0
0
LINE
8
0
6
CONTINUOUS
10
0.052106
20
-0.043582
30
0.0
11
0.049828
21
-0.045484
31
0.0
0
LINE
8
0
6
CONTINUOUS
10
0.043443
20
-0.050814
30
0.0
11
0.041821
21
-0.052168
31
0.0
0
LINE
8
0
6
CONTINUOUS
10
0.059811
20
-0.037150
30
0.0
11
0.059054
21
-0.037782
31
0.0
0
LINE
8
0
6
CONTINUOUS
10
0.054271
20
-0.041775
30
0.0
11
0.052106
21
-0.043582
31
0.0
0
LINE
8
0
6
CONTINUOUS
10
0.045384
20
-0.049193
30
0.0
11
0.043443
21
-0.050814
31
0.0
0
LINE
8
0
6
CONTINUOUS
10
0.037888
20
-0.056151
30
0.0
11
0.038671
21
-0.057088
31
0.0
0
LINE
8
0
6
CONTINUOUS
10
0.038196
20
-0.055894
30
0.0
11
0.037888
21
-0.056151
31
0.0
0
LINE
8
0
6
CONTINUOUS
10
0.039105
20
-0.055135
30
0.0
11
0.038196
21
-0.055894
31
0.0
0
LINE
8
0
6
CONTINUOUS
10
0.040568
20
-0.053914
30
0.0
11
0.039105
21
-0.055135
31
0.0
0
LINE
8
0
6
CONTINUOUS
10
0.042513
20
-0.052290
30
0.0
11
0.040568
21
-0.053914
31
0.0
0
LINE
8
0
6
CONTINUOUS
10
0.044842
20
-0.050346
30
0.0
11
0.042513
21
-0.052290
31
0.0
0
LINE
8
0
6
CONTINUOUS
10
0.047438
20
-0.048178
30
0.0
11
0.044842
21
-0.050346
31
0.0
0
LINE
8
0
6
CONTINUOUS
10
0.050172
20
-0.045897
30
0.0
11
0.047438
21
-0.048178
31
0.0
0
LINE
8
0
6
CONTINUOUS
10
0.052905
20
-0.043615
30
0.0
11
0.050172
21
-0.045897
31
0.0
0
LINE
8
0
6
CONTINUOUS
10
0.055501
20
-0.041448
30
0.0
11
0.052905
21
-0.043615
31
0.0
0
LINE
8
0
6
CONTINUOUS
10
0.057830
20
-0.039503
30
0.0
11
0.055501
21
-0.041448
31
0.0
0
LINE
8
0
6
CONTINUOUS
10
0.059776
20
-0.037880
30
0.0
11
0.057830
21
-0.039503
31
0.0
0
LINE
8
0
6
CONTINUOUS
10
0.061239
20
-0.036658
30
0.0
11
0.059776
21
-0.037880
31
0.0
0
LINE
8
0
6
CONTINUOUS
10
0.062147
20
-0.035900
30
0.0
11
0.061239
21
-0.036658
31
0.0
0
LINE
8
0
6
CONTINUOUS
10
0.062455
20
-0.035643
30
0.0
11
0.062147
21
-0.035900
31
0.0
0
LINE
8
0
6
CONTINUOUS
10
0.063238
20
-0.036580
30
0.0
11
0.062455
21
-0.035643
31
0.0
0
LINE
8
0
6
CONTINUOUS
10
0.039587
20
-0.054033
30
0.0
11
0.039931
21
-0.054445
31
0.0
0
LINE
8
0
6
CONTINUOUS
10
0.039844
20
-0.053819
30
0.0
11
0.039587
21
-0.054033
31
0.0
0
LINE
8
0
6
CONTINUOUS
10
0.038671
20
-0.057088
30
0.0
11
0.051570
21
-0.074037
31
0.0
0
LINE
8
0
6
CONTINUOUS
10
0.130028
20
-0.103500
30
0.0
11
0.127588
21
-0.103500
31
0.0
0
LINE
8
0
6
CONTINUOUS
10
0.127588
20
-0.103500
30
0.0
11
0.123342
21
-0.103500
31
0.0
0
LINE
8
0
6
CONTINUOUS
10
0.123342
20
-0.103500
30
0.0
11
0.117829
21
-0.103500
31
0.0
0
LINE
8
0
6
CONTINUOUS
10
0.117829
20
-0.103500
30
0.0
11
0.111184
21
-0.103500
31
0.0
0
LINE
8
0
6
CONTINUOUS
10
0.111184
20
-0.103500
30
0.0
11
0.103789
21
-0.103500
31
0.0
0
LINE
8
0
6
CONTINUOUS
10
0.103789
20
-0.103500
30
0.0
11
0.096000
21
-0.103500
31
0.0
0
LINE
8
0
6
CONTINUOUS
10
0.096000
20
-0.103500
30
0.0
11
0.088211
21
-0.103500
31
0.0
0
LINE
8
0
6
CONTINUOUS
10
0.088211
20
-0.103500
30
0.0
11
0.080816
21
-0.103500
31
0.0
0
LINE
8
0
6
CONTINUOUS
10
0.080816
20
-0.103500
30
0.0
11
0.074171
21
-0.103500
31
0.0
0
LINE
8
0
6
CONTINUOUS
10
0.074171
20
-0.103500
30
0.0
11
0.068658
21
-0.103500
31
0.0
0
LINE
8
0
6
CONTINUOUS
10
0.068658
20
-0.103500
30
0.0
11
0.064412
21
-0.103500
31
0.0
0
LINE
8
0
6
CONTINUOUS
10
0.061000
20
-0.103500
30
0.0
11
0.061000
21
-0.104289
31
0.0
0
LINE
8
0
6
CONTINUOUS
10
0.061972
20
-0.103500
30
0.0
11
0.061000
21
-0.103500
31
0.0
0
LINE
8
0
6
CONTINUOUS
10
0.061000
20
-0.104289
30
0.0
11
0.061000
21
-0.108711
31
0.0
0
LINE
8
0
6
CONTINUOUS
10
0.128221
20
-0.109500
30
0.0
11
0.130028
21
-0.109500
31
0.0
0
LINE
8
0
6
CONTINUOUS
10
0.128221
20
-0.109500
30
0.0
11
0.127588
21
-0.108711
31
0.0
0
LINE
8
0
6
CONTINUOUS
10
0.123342
20
-0.109500
30
0.0
11
0.128221
21
-0.109500
31
0.0
0
LINE
8
0
6
CONTINUOUS
10
0.123342
20
-0.109500
30
0.0
11
0.127588
21
-0.108711
31
0.0
0
LINE
8
0
6
CONTINUOUS
10
0.117829
20
-0.109500
30
0.0
11
0.123342
21
-0.109500
31
0.0
0
LINE
8
0
6
CONTINUOUS
10
0.111184
20
-0.109500
30
0.0
11
0.117829
21
-0.109500
31
0.0
0
LINE
8
0
6
CONTINUOUS
10
0.103789
20
-0.109500
30
0.0
11
0.111184
21
-0.109500
31
0.0
0
LINE
8
0
6
CONTINUOUS
10
0.096000
20
-0.109500
30
0.0
11
0.103789
21
-0.109500
31
0.0
0
LINE
8
0
6
CONTINUOUS
10
0.088211
20
-0.109500
30
0.0
11
0.096000
21
-0.109500
31
0.0
0
LINE
8
0
6
CONTINUOUS
10
0.080816
20
-0.109500
30
0.0
11
0.088211
21
-0.109500
31
0.0
0
LINE
8
0
6
CONTINUOUS
10
0.074171
20
-0.109500
30
0.0
11
0.080816
21
-0.109500
31
0.0
0
LINE
8
0
6
CONTINUOUS
10
0.068658
20
-0.109500
30
0.0
11
0.074171
21
-0.109500
31
0.0
0
LINE
8
0
6
CONTINUOUS
10
0.064412
20
-0.109500
30
0.0
11
0.068658
21
-0.109500
31
0.0
0
LINE
8
0
6
CONTINUOUS
10
0.061000
20
-0.109500
30
0.0
11
0.061972
21
-0.109500
31
0.0
0
LINE
8
0
6
CONTINUOUS
10
0.061000
20
-0.108711
30
0.0
11
0.061000
21
-0.109500
31
0.0
0
LINE
8
0
6
CONTINUOUS
10
-0.063870
20
0.087642
30
0.0
11
-0.081616
21
0.096288
31
0.0
0
LINE
8
0
6
CONTINUOUS
10
-0.038502
20
0.045512
30
0.0
11
-0.035071
21
0.043152
31
0.0
0
LINE
8
0
6
CONTINUOUS
10
-0.040133
20
0.047009
30
0.0
11
-0.038502
21
0.045512
31
0.0
0
LINE
8
0
6
CONTINUOUS
10
-0.102787
20
0.079718
30
0.0
11
-0.090940
21
0.073659
31
0.0
0
LINE
8
0
6
CONTINUOUS
10
-0.110298
20
0.083395
30
0.0
11
-0.102787
21
0.079718
31
0.0
0
LINE
8
0
6
CONTINUOUS
10
-0.066607
20
0.061771
30
0.0
11
-0.056065
21
0.056514
31
0.0
0
LINE
8
0
6
CONTINUOUS
10
-0.130488
20
0.093354
30
0.0
11
-0.128975
21
0.092639
31
0.0
0
LINE
8
0
6
CONTINUOUS
10
-0.131000
20
0.093858
30
0.0
11
-0.130488
21
0.093354
31
0.0
0
LINE
8
0
6
CONTINUOUS
10
-0.128975
20
0.092639
30
0.0
11
-0.124436
21
0.090447
31
0.0
0
LINE
8
0
6
CONTINUOUS
10
-0.116885
20
0.086601
30
0.0
11
-0.110298
21
0.083395
31
0.0
0
LINE
8
0
6
CONTINUOUS
10
-0.056065
20
0.056514
30
0.0
11
-0.051455
21
0.054250
31
0.0
0
LINE
8
0
6
CONTINUOUS
10
-0.022191
20
0.025741
30
0.0
11
-0.020663
21
0.023860
31
0.0
0
LINE
8
0
6
CONTINUOUS
10
-0.021928
20
0.026982
30
0.0
11
-0.022051
21
0.025973
31
0.0
0
LINE
8
0
6
CONTINUOUS
10
-0.124436
20
0.090447
30
0.0
11
-0.116885
21
0.086601
31
0.0
0
LINE
8
0
6
CONTINUOUS
10
0.059664
20
-0.037172
30
0.0
11
0.059571
21
-0.037062
31
0.0
0
LINE
8
0
6
CONTINUOUS
10
0.040932
20
-0.051981
30
0.0
11
0.041023
21
-0.052093
31
0.0
0
LINE
8
0
6
CONTINUOUS
10
0.047963
20
-0.046538
30
0.0
11
0.046820
21
-0.047452
31
0.0
0
LINE
8
0
6
CONTINUOUS
10
0.047118
20
-0.047616
30
0.0
11
0.048242
21
-0.046716
31
0.0
0
LINE
8
0
6
CONTINUOUS
10
0.050645
20
-0.044391
30
0.0
11
0.049279
21
-0.045484
31
0.0
0
LINE
8
0
6
CONTINUOUS
10
0.049540
20
-0.045678
30
0.0
11
0.050879
21
-0.044606
31
0.0
0
LINE
8
0
6
CONTINUOUS
10
0.059664
20
-0.037172
30
0.0
11
0.059348
21
-0.037425
31
0.0
0
LINE
8
0
6
CONTINUOUS
10
0.059348
20
-0.037425
30
0.0
11
0.058417
21
-0.038169
31
0.0
0
LINE
8
0
6
CONTINUOUS
10
0.054981
20
-0.041322
30
0.0
11
0.056946
21
-0.039749
31
0.0
0
LINE
8
0
6
CONTINUOUS
10
0.056936
20
-0.039355
30
0.0
11
0.054944
21
-0.040950
31
0.0
0
LINE
8
0
6
CONTINUOUS
10
0.054243
20
-0.041913
30
0.0
11
0.054709
21
-0.041540
31
0.0
0
LINE
8
0
6
CONTINUOUS
10
0.054605
20
-0.041221
30
0.0
11
0.054055
21
-0.041661
31
0.0
0
LINE
8
0
6
CONTINUOUS
10
0.054709
20
-0.041540
30
0.0
11
0.054981
21
-0.041322
31
0.0
0
LINE
8
0
6
CONTINUOUS
10
0.054055
20
-0.041661
30
0.0
11
0.050645
21
-0.044391
31
0.0
0
LINE
8
0
6
CONTINUOUS
10
0.048242
20
-0.046716
30
0.0
11
0.049540
21
-0.045678
31
0.0
0
LINE
8
0
6
CONTINUOUS
10
0.049279
20
-0.045484
30
0.0
11
0.047963
21
-0.046538
31
0.0
0
LINE
8
0
6
CONTINUOUS
10
0.046008
20
-0.048505
30
0.0
11
0.046563
21
-0.048060
31
0.0
0
LINE
8
0
6
CONTINUOUS
10
0.046250
20
-0.047908
30
0.0
11
0.045680
21
-0.048365
31
0.0
0
LINE
8
0
6
CONTINUOUS
10
0.044127
20
-0.050010
30
0.0
11
0.046008
21
-0.048505
31
0.0
0
LINE
8
0
6
CONTINUOUS
10
0.045680
20
-0.048365
30
0.0
11
0.043749
21
-0.049910
31
0.0
0
LINE
8
0
6
CONTINUOUS
10
0.042684
20
-0.051165
30
0.0
11
0.044127
21
-0.050010
31
0.0
0
LINE
8
0
6
CONTINUOUS
10
0.043749
20
-0.049910
30
0.0
11
0.042269
21
-0.051095
31
0.0
0
LINE
8
0
6
CONTINUOUS
10
0.041778
20
-0.051890
30
0.0
11
0.042684
21
-0.051165
31
0.0
0
LINE
8
0
6
CONTINUOUS
10
0.042269
20
-0.051095
30
0.0
11
0.041339
21
-0.051839
31
0.0
0
LINE
8
0
6
CONTINUOUS
10
0.041468
20
-0.052138
30
0.0
11
0.041778
21
-0.051890
31
0.0
0
LINE
8
0
6
CONTINUOUS
10
0.041023
20
-0.052093
30
0.0
11
0.041468
21
-0.052138
31
0.0
0
LINE
8
0
6
CONTINUOUS
10
0.041339
20
-0.051839
30
0.0
11
0.041023
21
-0.052093
31
0.0
0
LINE
8
0
6
CONTINUOUS
10
-0.130639
20
0.095247
30
0.0
11
-0.130699
21
0.095084
31
0.0
0
LINE
8
0
6
CONTINUOUS
10
0.059571
20
-0.037062
30
0.0
11
0.049757
21
-0.025559
31
0.0
0
LINE
8
0
6
CONTINUOUS
10
-0.078646
20
0.067661
30
0.0
11
-0.066607
21
0.061771
31
0.0
0
LINE
8
0
6
CONTINUOUS
10
-0.123632
20
0.109500
30
0.0
11
-0.124390
21
0.109150
31
0.0
0
LINE
8
0
6
CONTINUOUS
10
-0.047453
20
0.052156
30
0.0
11
-0.051123
21
0.054312
31
0.0
0
LINE
8
0
6
CONTINUOUS
10
-0.051455
20
0.054250
30
0.0
11
-0.047718
21
0.052080
31
0.0
0
LINE
8
0
6
CONTINUOUS
10
-0.081616
20
0.096288
30
0.0
11
-0.099184
21
0.103051
31
0.0
0
LINE
8
0
6
CONTINUOUS
10
-0.099184
20
0.103051
30
0.0
11
-0.115076
21
0.107514
31
0.0
0
LINE
8
0
6
CONTINUOUS
10
-0.045168
20
0.050470
30
0.0
11
-0.043893
21
0.049665
31
0.0
0
LINE
8
0
6
CONTINUOUS
10
-0.115076
20
0.107514
30
0.0
11
-0.123060
21
0.109389
31
0.0
0
LINE
8
0
6
CONTINUOUS
10
-0.036157
20
0.070658
30
0.0
11
-0.041794
21
0.074444
31
0.0
0
LINE
8
0
6
CONTINUOUS
10
-0.041794
20
0.074444
30
0.0
11
-0.047494
21
0.078137
31
0.0
0
LINE
8
0
6
CONTINUOUS
10
-0.129470
20
0.093123
30
0.0
11
-0.124910
21
0.090897
31
0.0
0
LINE
8
0
6
CONTINUOUS
10
-0.046443
20
0.051275
30
0.0
11
-0.045168
21
0.050470
31
0.0
0
LINE
8
0
6
CONTINUOUS
10
-0.038833
20
0.065780
30
0.0
11
-0.037219
21
0.064747
31
0.0
0
LINE
8
0
6
CONTINUOUS
10
0.013205
20
-0.009916
30
0.0
11
-0.004349
21
0.011155
31
0.0
0
LINE
8
0
6
CONTINUOUS
10
0.049757
20
-0.025559
30
0.0
11
0.027254
21
0.001224
31
0.0
0
LINE
8
0
6
CONTINUOUS
10
0.006728
20
0.019317
30
0.0
11
-0.006958
21
0.036585
31
0.0
0
LINE
8
0
6
CONTINUOUS
10
-0.004503
20
0.038824
30
0.0
11
-0.012688
21
0.048444
31
0.0
0
LINE
8
0
6
CONTINUOUS
10
-0.125148
20
0.108800
30
0.0
11
-0.125471
21
0.108030
31
0.0
0
LINE
8
0
6
CONTINUOUS
10
-0.047383
20
0.069597
30
0.0
11
-0.058275
21
0.075295
31
0.0
0
LINE
8
0
6
CONTINUOUS
10
0.031315
20
-0.040258
30
0.0
11
0.040932
21
-0.051981
31
0.0
0
LINE
8
0
6
CONTINUOUS
10
-0.029121
20
0.059023
30
0.0
11
-0.032977
21
0.062505
31
0.0
0
LINE
8
0
6
CONTINUOUS
10
-0.125471
20
0.108030
30
0.0
11
-0.128990
21
0.099646
31
0.0
0
LINE
8
0
6
CONTINUOUS
10
-0.017233
20
0.053594
30
0.0
11
-0.020395
21
0.056902
31
0.0
0
LINE
8
0
6
CONTINUOUS
10
-0.033706
20
0.044280
30
0.0
11
-0.038743
21
0.047080
31
0.0
0
LINE
8
0
6
CONTINUOUS
10
-0.033706
20
0.044280
30
0.0
11
-0.039792
21
0.047164
31
0.0
0
LINE
8
0
6
CONTINUOUS
10
-0.039792
20
0.047164
30
0.0
11
-0.034469
21
0.043589
31
0.0
0
LINE
8
0
6
CONTINUOUS
10
-0.070451
20
0.082819
30
0.0
11
-0.082942
21
0.089356
31
0.0
0
LINE
8
0
6
CONTINUOUS
10
-0.111130
20
0.101879
30
0.0
11
-0.103733
21
0.098217
31
0.0
0
LINE
8
0
6
CONTINUOUS
10
-0.012688
20
0.048444
30
0.0
11
-0.017233
21
0.053594
31
0.0
0
LINE
8
0
6
CONTINUOUS
10
-0.006958
20
0.036585
30
0.0
11
-0.015943
21
0.047562
31
0.0
0
LINE
8
0
6
CONTINUOUS
10
-0.027932
20
0.037936
30
0.0
11
-0.018612
21
0.027922
31
0.0
0
LINE
8
0
6
CONTINUOUS
10
0.045018
20
-0.029108
30
0.0
11
0.023500
21
-0.001864
31
0.0
0
LINE
8
0
6
CONTINUOUS
10
-0.043636
20
0.049791
30
0.0
11
-0.038743
21
0.047080
31
0.0
0
LINE
8
0
6
CONTINUOUS
10
-0.058435
20
0.076412
30
0.0
11
-0.047705
21
0.070800
31
0.0
0
LINE
8
0
6
CONTINUOUS
10
-0.090940
20
0.073659
30
0.0
11
-0.078646
21
0.067661
31
0.0
0
LINE
8
0
6
CONTINUOUS
10
-0.078265
20
0.067753
30
0.0
11
-0.066249
21
0.061875
31
0.0
0
LINE
8
0
6
CONTINUOUS
10
-0.043893
20
0.049665
30
0.0
11
-0.040133
21
0.047009
31
0.0
0
LINE
8
0
6
CONTINUOUS
10
-0.125148
20
0.108800
30
0.0
11
-0.123534
21
0.107957
31
0.0
0
LINE
8
0
6
CONTINUOUS
10
-0.124390
20
0.109150
30
0.0
11
-0.125148
21
0.108800
31
0.0
0
LINE
8
0
6
CONTINUOUS
10
-0.118902
20
0.105776
30
0.0
11
-0.111130
21
0.101879
31
0.0
0
LINE
8
0
6
CONTINUOUS
10
-0.066249
20
0.061875
30
0.0
11
-0.055684
21
0.056576
31
0.0
0
LINE
8
0
6
CONTINUOUS
10
0.054605
20
-0.041221
30
0.0
11
0.054944
21
-0.040950
31
0.0
0
LINE
8
0
6
CONTINUOUS
10
0.054515
20
-0.041107
30
0.0
11
0.054605
21
-0.041221
31
0.0
0
LINE
8
0
6
CONTINUOUS
10
0.056936
20
-0.039355
30
0.0
11
0.058417
21
-0.038169
31
0.0
0
LINE
8
0
6
CONTINUOUS
10
-0.027932
20
0.037936
30
0.0
11
-0.034469
21
0.043589
31
0.0
0
LINE
8
0
6
CONTINUOUS
10
-0.095434
20
0.094081
30
0.0
11
-0.083319
21
0.087922
31
0.0
0
LINE
8
0
6
CONTINUOUS
10
-0.021745
20
0.028466
30
0.0
11
-0.021928
21
0.026982
31
0.0
0
LINE
8
0
6
CONTINUOUS
10
-0.047705
20
0.070800
30
0.0
11
-0.043266
21
0.068261
31
0.0
0
LINE
8
0
6
CONTINUOUS
10
0.033828
20
-0.038233
30
0.0
11
0.011116
21
-0.011563
31
0.0
0
LINE
8
0
6
CONTINUOUS
10
-0.094872
20
0.095525
30
0.0
11
-0.102822
21
0.099463
31
0.0
0
LINE
8
0
6
CONTINUOUS
10
-0.103029
20
0.099428
30
0.0
11
-0.094732
21
0.095287
31
0.0
0
LINE
8
0
6
CONTINUOUS
10
-0.122328
20
0.108846
30
0.0
11
-0.118124
21
0.106772
31
0.0
0
LINE
8
0
6
CONTINUOUS
10
-0.123632
20
0.109500
30
0.0
11
-0.122328
21
0.108846
31
0.0
0
LINE
8
0
6
CONTINUOUS
10
-0.123060
20
0.109389
30
0.0
11
-0.123632
21
0.109500
31
0.0
0
LINE
8
0
6
CONTINUOUS
10
-0.035605
20
0.063713
30
0.0
11
-0.037219
21
0.064747
31
0.0
0
LINE
8
0
6
CONTINUOUS
10
-0.110772
20
0.103213
30
0.0
11
-0.103029
21
0.099428
31
0.0
0
LINE
8
0
6
CONTINUOUS
10
-0.102822
20
0.099463
30
0.0
11
-0.110268
21
0.103093
31
0.0
0
LINE
8
0
6
CONTINUOUS
10
-0.008263
20
0.008147
30
0.0
11
0.009148
21
-0.013127
31
0.0
0
LINE
8
0
6
CONTINUOUS
10
-0.090561
20
0.073711
30
0.0
11
-0.078265
21
0.067753
31
0.0
0
LINE
8
0
6
CONTINUOUS
10
-0.110326
20
0.083580
30
0.0
11
-0.102365
21
0.079684
31
0.0
0
LINE
8
0
6
CONTINUOUS
10
-0.055684
20
0.056576
30
0.0
11
-0.051123
21
0.054312
31
0.0
0
LINE
8
0
6
CONTINUOUS
10
0.027254
20
0.001224
30
0.0
11
0.009532
21
0.022208
31
0.0
0
LINE
8
0
6
CONTINUOUS
10
-0.131000
20
0.093858
30
0.0
11
-0.129470
21
0.093123
31
0.0
0
LINE
8
0
6
CONTINUOUS
10
-0.130699
20
0.095084
30
0.0
11
-0.131000
21
0.093858
31
0.0
0
LINE
8
0
6
CONTINUOUS
10
-0.020663
20
0.023860
30
0.0
11
-0.008263
21
0.008147
31
0.0
0
LINE
8
0
6
CONTINUOUS
10
-0.128990
20
0.099646
30
0.0
11
-0.130639
21
0.095247
31
0.0
0
LINE
8
0
6
CONTINUOUS
10
-0.032977
20
0.062505
30
0.0
11
-0.028161
21
0.059132
31
0.0
0
LINE
8
0
6
CONTINUOUS
10
0.009148
20
-0.013127
30
0.0
11
0.031315
21
-0.040258
31
0.0
0
LINE
8
0
6
CONTINUOUS
10
-0.117298
20
0.086969
30
0.0
11
-0.110326
21
0.083580
31
0.0
0
LINE
8
0
6
CONTINUOUS
10
-0.035605
20
0.063713
30
0.0
11
-0.033990
21
0.062679
31
0.0
0
LINE
8
0
6
CONTINUOUS
10
-0.035071
20
0.043152
30
0.0
11
-0.028459
21
0.036847
31
0.0
0
LINE
8
0
6
CONTINUOUS
10
-0.043010
20
0.066975
30
0.0
11
-0.038681
21
0.064460
31
0.0
0
LINE
8
0
6
CONTINUOUS
10
-0.004349
20
0.011155
30
0.0
11
-0.018612
21
0.027922
31
0.0
0
LINE
8
0
6
CONTINUOUS
10
-0.019853
20
0.026636
30
0.0
11
-0.006552
21
0.009440
31
0.0
0
LINE
8
0
6
CONTINUOUS
10
-0.047494
20
0.078137
30
0.0
11
-0.063870
21
0.087642
31
0.0
0
LINE
8
0
6
CONTINUOUS
10
-0.110772
20
0.103213
30
0.0
11
-0.118124
21
0.106772
31
0.0
0
LINE
8
0
6
CONTINUOUS
10
-0.029121
20
0.059023
30
0.0
11
-0.033990
21
0.062679
31
0.0
0
LINE
8
0
6
CONTINUOUS
10
-0.023584
20
0.060164
30
0.0
11
-0.026145
21
0.062456
31
0.0
0
LINE
8
0
6
CONTINUOUS
10
-0.020395
20
0.056902
30
0.0
11
-0.023584
21
0.060164
31
0.0
0
LINE
8
0
6
CONTINUOUS
10
-0.028459
20
0.036847
30
0.0
11
-0.021745
21
0.028466
31
0.0
0
LINE
8
0
6
CONTINUOUS
10
-0.038833
20
0.065780
30
0.0
11
-0.043266
21
0.068261
31
0.0
0
LINE
8
0
6
CONTINUOUS
10
-0.103733
20
0.098217
30
0.0
11
-0.095434
21
0.094081
31
0.0
0
LINE
8
0
6
CONTINUOUS
10
-0.030809
20
0.066473
30
0.0
11
-0.036157
21
0.070658
31
0.0
0
LINE
8
0
6
CONTINUOUS
10
-0.046181
20
0.051368
30
0.0
11
-0.047453
21
0.052156
31
0.0
0
LINE
8
0
6
CONTINUOUS
10
-0.047718
20
0.052080
30
0.0
11
-0.046443
21
0.051275
31
0.0
0
LINE
8
0
6
CONTINUOUS
10
-0.046181
20
0.051368
30
0.0
11
-0.044908
21
0.050579
31
0.0
0
LINE
8
0
6
CONTINUOUS
10
0.006728
20
0.019317
30
0.0
11
0.023500
21
-0.001864
31
0.0
0
LINE
8
0
6
CONTINUOUS
10
-0.029121
20
0.059023
30
0.0
11
-0.022631
21
0.054153
31
0.0
0
LINE
8
0
6
CONTINUOUS
10
0.054515
20
-0.041107
30
0.0
11
0.045018
21
-0.029108
31
0.0
0
LINE
8
0
6
CONTINUOUS
10
-0.026145
20
0.062456
30
0.0
11
-0.030809
21
0.066473
31
0.0
0
LINE
8
0
6
CONTINUOUS
10
-0.070451
20
0.082819
30
0.0
11
-0.058435
21
0.076412
31
0.0
0
LINE
8
0
6
CONTINUOUS
10
0.011116
20
-0.011563
30
0.0
11
-0.006552
21
0.009440
31
0.0
0
LINE
8
0
6
CONTINUOUS
10
0.009532
20
0.022208
30
0.0
11
-0.004503
21
0.038824
31
0.0
0
LINE
8
0
6
CONTINUOUS
10
-0.044908
20
0.050579
30
0.0
11
-0.043636
21
0.049791
31
0.0
0
LINE
8
0
6
CONTINUOUS
10
-0.082942
20
0.089356
30
0.0
11
-0.094732
21
0.095287
31
0.0
0
LINE
8
0
6
CONTINUOUS
10
-0.015943
20
0.047562
30
0.0
11
-0.022631
21
0.054153
31
0.0
0
LINE
8
0
6
CONTINUOUS
10
-0.124910
20
0.090897
30
0.0
11
-0.117298
21
0.086969
31
0.0
0
LINE
8
0
6
CONTINUOUS
10
0.046563
20
-0.048060
30
0.0
11
0.047118
21
-0.047616
31
0.0
0
LINE
8
0
6
CONTINUOUS
10
0.046820
20
-0.047452
30
0.0
11
0.046250
21
-0.047908
31
0.0
0
LINE
8
0
6
CONTINUOUS
10
-0.123534
20
0.107957
30
0.0
11
-0.118902
21
0.105776
31
0.0
0
LINE
8
0
6
CONTINUOUS
10
-0.102365
20
0.079684
30
0.0
11
-0.090561
21
0.073711
31
0.0
0
LINE
8
0
6
CONTINUOUS
10
0.131000
20
-0.103500
30
0.0
11
0.129807
21
-0.103500
31
0.0
0
LINE
8
0
6
CONTINUOUS
10
0.129807
20
-0.103500
30
0.0
11
0.126311
21
-0.103500
31
0.0
0
LINE
8
0
6
CONTINUOUS
10
0.126311
20
-0.103500
30
0.0
11
0.120749
21
-0.103500
31
0.0
0
LINE
8
0
6
CONTINUOUS
10
0.120749
20
-0.103500
30
0.0
11
0.120000
21
-0.103500
31
0.0
0
LINE
8
0
6
CONTINUOUS
10
0.072000
20
-0.103500
30
0.0
11
0.071251
21
-0.103500
31
0.0
0
LINE
8
0
6
CONTINUOUS
10
0.071251
20
-0.103500
30
0.0
11
0.065689
21
-0.103500
31
0.0
0
LINE
8
0
6
CONTINUOUS
10
0.065689
20
-0.103500
30
0.0
11
0.062193
21
-0.103500
31
0.0
0
LINE
8
0
6
CONTINUOUS
10
0.062193
20
-0.103500
30
0.0
11
0.061000
21
-0.103500
31
0.0
0
LINE
8
0
6
CONTINUOUS
10
0.072000
20
-0.100880
30
0.0
11
0.072000
21
-0.103500
31
0.0
0
LINE
8
0
6
CONTINUOUS
10
0.081500
20
-0.022013
30
0.0
11
0.081500
21
-0.047099
31
0.0
0
LINE
8
0
6
CONTINUOUS
10
0.081359
20
-0.015791
30
0.0
11
0.081536
21
-0.018889
31
0.0
0
LINE
8
0
6
CONTINUOUS
10
0.110116
20
-0.014553
30
0.0
11
0.109057
21
-0.007199
31
0.0
0
LINE
8
0
6
CONTINUOUS
10
0.079380
20
-0.009891
30
0.0
11
0.080625
21
-0.012755
31
0.0
0
LINE
8
0
6
CONTINUOUS
10
0.106766
20
-0.000089
30
0.0
11
0.103289
21
0.006522
31
0.0
0
LINE
8
0
6
CONTINUOUS
10
0.075743
20
-0.004842
30
0.0
11
0.077743
21
-0.007223
31
0.0
0
LINE
8
0
6
CONTINUOUS
10
0.098913
20
0.012596
30
0.0
11
0.093715
21
0.017918
31
0.0
0
LINE
8
0
6
CONTINUOUS
10
0.070772
20
-0.001097
30
0.0
11
0.073393
21
-0.002775
31
0.0
0
LINE
8
0
6
CONTINUOUS
10
0.087745
20
0.022431
30
0.0
11
0.081195
21
0.025966
31
0.0
0
LINE
8
0
6
CONTINUOUS
10
0.064915
20
0.001008
30
0.0
11
0.067915
21
0.000175
31
0.0
0
LINE
8
0
6
CONTINUOUS
10
0.074154
20
0.028425
30
0.0
11
0.066852
21
0.029943
31
0.0
0
LINE
8
0
6
CONTINUOUS
10
0.057612
20
0.001400
30
0.0
11
0.064915
21
0.001008
31
0.0
0
LINE
8
0
6
CONTINUOUS
10
0.066852
20
0.029943
30
0.0
11
0.058208
21
0.030336
31
0.0
0
LINE
8
0
6
CONTINUOUS
10
-0.120965
20
0.006528
30
0.0
11
-0.115091
21
0.006360
31
0.0
0
LINE
8
0
6
CONTINUOUS
10
-0.088031
20
0.005583
30
0.0
11
-0.004194
21
0.003175
31
0.0
0
LINE
8
0
6
CONTINUOUS
10
0.026347
20
0.002298
30
0.0
11
0.057612
21
0.001400
31
0.0
0
LINE
8
0
6
CONTINUOUS
10
0.058208
20
0.030336
30
0.0
11
0.001277
21
0.031981
31
0.0
0
LINE
8
0
6
CONTINUOUS
10
-0.028143
20
0.032830
30
0.0
11
-0.119286
21
0.035463
31
0.0
0
LINE
8
0
6
CONTINUOUS
10
-0.120531
20
0.031890
30
0.0
11
-0.120420
21
0.033796
31
0.0
0
LINE
8
0
6
CONTINUOUS
10
-0.122000
20
0.006565
30
0.0
11
-0.120965
21
0.006528
31
0.0
0
LINE
8
0
6
CONTINUOUS
10
-0.121959
20
0.007273
30
0.0
11
-0.122000
21
0.006565
31
0.0
0
LINE
8
0
6
CONTINUOUS
10
-0.121840
20
0.009328
30
0.0
11
-0.121959
21
0.007273
31
0.0
0
LINE
8
0
6
CONTINUOUS
10
-0.121654
20
0.012529
30
0.0
11
-0.121840
21
0.009328
31
0.0
0
LINE
8
0
6
CONTINUOUS
10
-0.121420
20
0.016562
30
0.0
11
-0.121654
21
0.012529
31
0.0
0
LINE
8
0
6
CONTINUOUS
10
-0.121161
20
0.021032
30
0.0
11
-0.121420
21
0.016562
31
0.0
0
LINE
8
0
6
CONTINUOUS
10
-0.120901
20
0.025503
30
0.0
11
-0.121161
21
0.021032
31
0.0
0
LINE
8
0
6
CONTINUOUS
10
-0.120667
20
0.029536
30
0.0
11
-0.120901
21
0.025503
31
0.0
0
LINE
8
0
6
CONTINUOUS
10
-0.120481
20
0.032737
30
0.0
11
-0.120667
21
0.029536
31
0.0
0
LINE
8
0
6
CONTINUOUS
10
-0.120362
20
0.034792
30
0.0
11
-0.120481
21
0.032737
31
0.0
0
LINE
8
0
6
CONTINUOUS
10
-0.119286
20
0.035463
30
0.0
11
-0.120321
21
0.035500
31
0.0
0
LINE
8
0
6
CONTINUOUS
10
-0.120321
20
0.035500
30
0.0
11
-0.120362
21
0.034792
31
0.0
0
LINE
8
0
6
CONTINUOUS
10
0.110500
20
-0.047099
30
0.0
11
0.110500
21
-0.022013
31
0.0
0
LINE
8
0
6
CONTINUOUS
10
-0.090877
20
-0.009389
30
0.0
11
-0.090719
21
-0.008447
31
0.0
0
LINE
8
0
6
CONTINUOUS
10
-0.091520
20
-0.009266
30
0.0
11
-0.090877
21
-0.009389
31
0.0
0
LINE
8
0
6
CONTINUOUS
10
-0.093384
20
-0.008909
30
0.0
11
-0.091520
21
-0.009266
31
0.0
0
LINE
8
0
6
CONTINUOUS
10
-0.096287
20
-0.008352
30
0.0
11
-0.093384
21
-0.008909
31
0.0
0
LINE
8
0
6
CONTINUOUS
10
-0.099945
20
-0.007651
30
0.0
11
-0.096287
21
-0.008352
31
0.0
0
LINE
8
0
6
CONTINUOUS
10
-0.104000
20
-0.006875
30
0.0
11
-0.099945
21
-0.007651
31
0.0
0
LINE
8
0
6
CONTINUOUS
10
-0.108055
20
-0.006098
30
0.0
11
-0.104000
21
-0.006875
31
0.0
0
LINE
8
0
6
CONTINUOUS
10
-0.111713
20
-0.005397
30
0.0
11
-0.108055
21
-0.006098
31
0.0
0
LINE
8
0
6
CONTINUOUS
10
-0.114616
20
-0.004840
30
0.0
11
-0.111713
21
-0.005397
31
0.0
0
LINE
8
0
6
CONTINUOUS
10
-0.116480
20
-0.004483
30
0.0
11
-0.114616
21
-0.004840
31
0.0
0
LINE
8
0
6
CONTINUOUS
10
-0.116964
20
-0.003419
30
0.0
11
-0.117123
21
-0.004360
31
0.0
0
LINE
8
0
6
CONTINUOUS
10
-0.117123
20
-0.004360
30
0.0
11
-0.116480
21
-0.004483
31
0.0
0
LINE
8
0
6
CONTINUOUS
10
-0.090719
20
-0.008447
30
0.0
11
-0.088031
21
0.005583
31
0.0
0
LINE
8
0
6
CONTINUOUS
10
-0.095993
20
0.013091
30
0.0
11
-0.100048
21
0.013868
31
0.0
0
LINE
8
0
6
CONTINUOUS
10
-0.115091
20
0.006360
30
0.0
11
-0.116964
21
-0.003419
31
0.0
0
LINE
8
0
6
CONTINUOUS
10
-0.100048
20
0.013868
30
0.0
11
-0.104103
21
0.014645
31
0.0
0
LINE
8
0
6
CONTINUOUS
10
0.120000
20
-0.103500
30
0.0
11
0.120000
21
-0.049004
31
0.0
0
LINE
8
0
6
CONTINUOUS
10
0.081500
20
-0.047099
30
0.0
11
0.081500
21
-0.048004
31
0.0
0
LINE
8
0
6
CONTINUOUS
10
0.082210
20
-0.048004
30
0.0
11
0.081500
21
-0.048004
31
0.0
0
LINE
8
0
6
CONTINUOUS
10
0.084269
20
-0.048004
30
0.0
11
0.082210
21
-0.048004
31
0.0
0
LINE
8
0
6
CONTINUOUS
10
0.087477
20
-0.048004
30
0.0
11
0.084269
21
-0.048004
31
0.0
0
LINE
8
0
6
CONTINUOUS
10
0.091519
20
-0.048004
30
0.0
11
0.087477
21
-0.048004
31
0.0
0
LINE
8
0
6
CONTINUOUS
10
0.092470
20
-0.048004
30
0.0
11
0.091519
21
-0.048004
31
0.0
0
LINE
8
0
6
CONTINUOUS
10
0.100481
20
-0.048004
30
0.0
11
0.099530
21
-0.048004
31
0.0
0
LINE
8
0
6
CONTINUOUS
10
0.104523
20
-0.048004
30
0.0
11
0.100481
21
-0.048004
31
0.0
0
LINE
8
0
6
CONTINUOUS
10
0.107731
20
-0.048004
30
0.0
11
0.104523
21
-0.048004
31
0.0
0
LINE
8
0
6
CONTINUOUS
10
0.109790
20
-0.048004
30
0.0
11
0.107731
21
-0.048004
31
0.0
0
LINE
8
0
6
CONTINUOUS
10
0.110500
20
-0.048004
30
0.0
11
0.110500
21
-0.047099
31
0.0
0
LINE
8
0
6
CONTINUOUS
10
0.110500
20
-0.048004
30
0.0
11
0.109790
21
-0.048004
31
0.0
0
LINE
8
0
6
CONTINUOUS
10
0.072818
20
-0.048004
30
0.0
11
0.072347
21
-0.048004
31
0.0
0
LINE
8
0
6
CONTINUOUS
10
0.075215
20
-0.048004
30
0.0
11
0.072818
21
-0.048004
31
0.0
0
LINE
8
0
6
CONTINUOUS
10
0.079029
20
-0.048004
30
0.0
11
0.075215
21
-0.048004
31
0.0
0
LINE
8
0
6
CONTINUOUS
10
0.084000
20
-0.048004
30
0.0
11
0.079029
21
-0.048004
31
0.0
0
LINE
8
0
6
CONTINUOUS
10
0.089788
20
-0.048004
30
0.0
11
0.084000
21
-0.048004
31
0.0
0
LINE
8
0
6
CONTINUOUS
10
0.092470
20
-0.048004
30
0.0
11
0.089788
21
-0.048004
31
0.0
0
LINE
8
0
6
CONTINUOUS
10
0.102212
20
-0.048004
30
0.0
11
0.099530
21
-0.048004
31
0.0
0
LINE
8
0
6
CONTINUOUS
10
0.108000
20
-0.048004
30
0.0
11
0.102212
21
-0.048004
31
0.0
0
LINE
8
0
6
CONTINUOUS
10
0.112971
20
-0.048004
30
0.0
11
0.108000
21
-0.048004
31
0.0
0
LINE
8
0
6
CONTINUOUS
10
0.116785
20
-0.048004
30
0.0
11
0.112971
21
-0.048004
31
0.0
0
LINE
8
0
6
CONTINUOUS
10
0.119182
20
-0.048004
30
0.0
11
0.116785
21
-0.048004
31
0.0
0
LINE
8
0
6
CONTINUOUS
10
0.120000
20
-0.048004
30
0.0
11
0.119182
21
-0.048004
31
0.0
0
LINE
8
0
6
CONTINUOUS
10
0.120000
20
-0.049004
30
0.0
11
0.120000
21
-0.048004
31
0.0
0
LINE
8
0
6
CONTINUOUS
10
-0.120531
20
0.031890
30
0.0
11
-0.120420
21
0.033796
31
0.0
0
LINE
8
0
6
CONTINUOUS
10
0.109057
20
-0.007199
30
0.0
11
0.106766
21
-0.000089
31
0.0
0
LINE
8
0
6
CONTINUOUS
10
0.080625
20
-0.012755
30
0.0
11
0.081359
21
-0.015791
31
0.0
0
LINE
8
0
6
CONTINUOUS
10
0.103289
20
0.006522
30
0.0
11
0.098913
21
0.012596
31
0.0
0
LINE
8
0
6
CONTINUOUS
10
0.077743
20
-0.007223
30
0.0
11
0.079380
21
-0.009891
31
0.0
0
LINE
8
0
6
CONTINUOUS
10
0.110500
20
-0.022013
30
0.0
11
0.110116
21
-0.014553
31
0.0
0
LINE
8
0
6
CONTINUOUS
10
0.081536
20
-0.018889
30
0.0
11
0.081500
21
-0.022013
31
0.0
0
LINE
8
0
6
CONTINUOUS
10
0.093715
20
0.017918
30
0.0
11
0.087745
21
0.022431
31
0.0
0
LINE
8
0
6
CONTINUOUS
10
0.073393
20
-0.002775
30
0.0
11
0.075743
21
-0.004842
31
0.0
0
LINE
8
0
6
CONTINUOUS
10
0.081195
20
0.025966
30
0.0
11
0.074154
21
0.028425
31
0.0
0
LINE
8
0
6
CONTINUOUS
10
0.067915
20
0.000175
30
0.0
11
0.070772
21
-0.001097
31
0.0
0
LINE
8
0
6
CONTINUOUS
10
0.101627
20
-0.051441
30
0.0
11
0.100367
21
-0.051441
31
0.0
0
LINE
8
0
6
CONTINUOUS
10
0.099530
20
-0.042284
30
0.0
11
0.099530
21
-0.042163
31
0.0
0
LINE
8
0
6
CONTINUOUS
10
0.097351
20
-0.045670
30
0.0
11
0.097351
21
-0.045548
31
0.0
0
LINE
8
0
6
CONTINUOUS
10
0.097787
20
-0.058423
30
0.0
11
0.098496
21
-0.056490
31
0.0
0
LINE
8
0
6
CONTINUOUS
10
0.110001
20
-0.057690
30
0.0
11
0.110001
21
-0.055607
31
0.0
0
LINE
8
0
6
CONTINUOUS
10
0.110001
20
-0.059773
30
0.0
11
0.110001
21
-0.057690
31
0.0
0
LINE
8
0
6
CONTINUOUS
10
0.110001
20
-0.055607
30
0.0
11
0.110001
21
-0.053524
31
0.0
0
LINE
8
0
6
CONTINUOUS
10
0.110001
20
-0.061856
30
0.0
11
0.110001
21
-0.059773
31
0.0
0
LINE
8
0
6
CONTINUOUS
10
0.110001
20
-0.063769
30
0.0
11
0.110001
21
-0.061856
31
0.0
0
LINE
8
0
6
CONTINUOUS
10
0.097351
20
-0.057346
30
0.0
11
0.098496
21
-0.056490
31
0.0
0
LINE
8
0
6
CONTINUOUS
10
0.099530
20
-0.053611
30
0.0
11
0.099530
21
-0.052769
31
0.0
0
LINE
8
0
6
CONTINUOUS
10
0.099530
20
-0.052769
30
0.0
11
0.099530
21
-0.052019
31
0.0
0
LINE
8
0
6
CONTINUOUS
10
0.097351
20
-0.055476
30
0.0
11
0.097351
21
-0.056231
31
0.0
0
LINE
8
0
6
CONTINUOUS
10
0.099173
20
-0.061136
30
0.0
11
0.099734
21
-0.062015
31
0.0
0
LINE
8
0
6
CONTINUOUS
10
0.092470
20
-0.042163
30
0.0
11
0.092470
21
-0.042284
31
0.0
0
LINE
8
0
6
CONTINUOUS
10
0.094213
20
-0.058423
30
0.0
11
0.093504
21
-0.056490
31
0.0
0
LINE
8
0
6
CONTINUOUS
10
0.094649
20
-0.045548
30
0.0
11
0.094649
21
-0.045670
31
0.0
0
LINE
8
0
6
CONTINUOUS
10
0.096000
20
-0.045948
30
0.0
11
0.096000
21
-0.045827
31
0.0
0
LINE
8
0
6
CONTINUOUS
10
0.092827
20
-0.061136
30
0.0
11
0.093551
21
-0.059862
31
0.0
0
LINE
8
0
6
CONTINUOUS
10
0.081999
20
-0.055607
30
0.0
11
0.081999
21
-0.057690
31
0.0
0
LINE
8
0
6
CONTINUOUS
10
0.081999
20
-0.057690
30
0.0
11
0.081999
21
-0.059773
31
0.0
0
LINE
8
0
6
CONTINUOUS
10
0.081999
20
-0.053524
30
0.0
11
0.081999
21
-0.055607
31
0.0
0
LINE
8
0
6
CONTINUOUS
10
0.096000
20
-0.058455
30
0.0
11
0.096000
21
-0.057616
31
0.0
0
LINE
8
0
6
CONTINUOUS
10
0.081999
20
-0.059773
30
0.0
11
0.081999
21
-0.060109
31
0.0
0
LINE
8
0
6
CONTINUOUS
10
0.083166
20
-0.051441
30
0.0
11
0.082662
21
-0.051441
31
0.0
0
LINE
8
0
6
CONTINUOUS
10
0.089757
20
-0.051441
30
0.0
11
0.083166
21
-0.051441
31
0.0
0
LINE
8
0
6
CONTINUOUS
10
0.081999
20
-0.052077
30
0.0
11
0.081999
21
-0.053524
31
0.0
0
LINE
8
0
6
CONTINUOUS
10
0.093504
20
-0.056490
30
0.0
11
0.094649
21
-0.057346
31
0.0
0
LINE
8
0
6
CONTINUOUS
10
0.096000
20
-0.057616
30
0.0
11
0.096000
21
-0.056494
31
0.0
0
LINE
8
0
6
CONTINUOUS
10
0.092470
20
-0.052769
30
0.0
11
0.092470
21
-0.053611
31
0.0
0
LINE
8
0
6
CONTINUOUS
10
0.092470
20
-0.052019
30
0.0
11
0.092470
21
-0.052769
31
0.0
0
LINE
8
0
6
CONTINUOUS
10
0.096000
20
-0.056494
30
0.0
11
0.096000
21
-0.055739
31
0.0
0
LINE
8
0
6
CONTINUOUS
10
0.094649
20
-0.056231
30
0.0
11
0.094649
21
-0.055476
31
0.0
0
LINE
8
0
6
CONTINUOUS
10
0.092266
20
-0.062015
30
0.0
11
0.092827
21
-0.061136
31
0.0
0
LINE
8
0
6
CONTINUOUS
10
0.099173
20
-0.061136
30
0.0
11
0.098449
21
-0.059862
31
0.0
0
LINE
8
0
6
CONTINUOUS
10
0.097787
20
-0.058423
30
0.0
11
0.098449
21
-0.059862
31
0.0
0
LINE
8
0
6
CONTINUOUS
10
0.093294
20
-0.056913
30
0.0
11
0.092617
21
-0.055454
31
0.0
0
LINE
8
0
6
CONTINUOUS
10
0.094213
20
-0.058423
30
0.0
11
0.093294
21
-0.056913
31
0.0
0
LINE
8
0
6
CONTINUOUS
10
0.093551
20
-0.059862
30
0.0
11
0.094213
21
-0.058423
31
0.0
0
LINE
8
0
6
CONTINUOUS
10
0.091767
20
-0.052897
30
0.0
11
0.092434
21
-0.052332
31
0.0
0
LINE
8
0
6
CONTINUOUS
10
0.110001
20
-0.051441
30
0.0
11
0.109497
21
-0.051441
31
0.0
0
LINE
8
0
6
CONTINUOUS
10
0.110001
20
-0.052077
30
0.0
11
0.110001
21
-0.051441
31
0.0
0
LINE
8
0
6
CONTINUOUS
10
0.108153
20
-0.051441
30
0.0
11
0.105912
21
-0.051441
31
0.0
0
LINE
8
0
6
CONTINUOUS
10
0.109497
20
-0.051441
30
0.0
11
0.108153
21
-0.051441
31
0.0
0
LINE
8
0
6
CONTINUOUS
10
0.105912
20
-0.051441
30
0.0
11
0.102944
21
-0.051441
31
0.0
0
LINE
8
0
6
CONTINUOUS
10
0.101056
20
-0.051441
30
0.0
11
0.100428
21
-0.051441
31
0.0
0
LINE
8
0
6
CONTINUOUS
10
0.102944
20
-0.051441
30
0.0
11
0.101056
21
-0.051441
31
0.0
0
LINE
8
0
6
CONTINUOUS
10
0.081999
20
-0.051441
30
0.0
11
0.081999
21
-0.052077
31
0.0
0
LINE
8
0
6
CONTINUOUS
10
0.082503
20
-0.051441
30
0.0
11
0.081999
21
-0.051441
31
0.0
0
LINE
8
0
6
CONTINUOUS
10
0.086088
20
-0.051441
30
0.0
11
0.083848
21
-0.051441
31
0.0
0
LINE
8
0
6
CONTINUOUS
10
0.083848
20
-0.051441
30
0.0
11
0.082503
21
-0.051441
31
0.0
0
LINE
8
0
6
CONTINUOUS
10
0.089056
20
-0.051441
30
0.0
11
0.086088
21
-0.051441
31
0.0
0
LINE
8
0
6
CONTINUOUS
10
0.091572
20
-0.051441
30
0.0
11
0.090944
21
-0.051441
31
0.0
0
LINE
8
0
6
CONTINUOUS
10
0.090944
20
-0.051441
30
0.0
11
0.089056
21
-0.051441
31
0.0
0
LINE
8
0
6
CONTINUOUS
10
0.100428
20
-0.051441
30
0.0
11
0.099681
21
-0.051297
31
0.0
0
LINE
8
0
6
CONTINUOUS
10
0.092319
20
-0.051297
30
0.0
11
0.091572
21
-0.051441
31
0.0
0
LINE
8
0
6
CONTINUOUS
10
0.110001
20
-0.053524
30
0.0
11
0.110001
21
-0.052077
31
0.0
0
LINE
8
0
6
CONTINUOUS
10
0.110001
20
-0.095224
30
0.0
11
0.110001
21
-0.063769
31
0.0
0
LINE
8
0
6
CONTINUOUS
10
0.092470
20
-0.051441
30
0.0
11
0.089757
21
-0.051441
31
0.0
0
LINE
8
0
6
CONTINUOUS
10
0.102625
20
-0.051441
30
0.0
11
0.099530
21
-0.051441
31
0.0
0
LINE
8
0
6
CONTINUOUS
10
0.102556
20
-0.051441
30
0.0
11
0.102625
21
-0.051441
31
0.0
0
LINE
8
0
6
CONTINUOUS
10
0.091639
20
-0.051441
30
0.0
11
0.090376
21
-0.051441
31
0.0
0
LINE
8
0
6
CONTINUOUS
10
0.097351
20
-0.038779
30
0.0
11
0.096000
21
-0.038500
31
0.0
0
LINE
8
0
6
CONTINUOUS
10
0.099530
20
-0.042163
30
0.0
11
0.099261
21
-0.040761
31
0.0
0
LINE
8
0
6
CONTINUOUS
10
0.099261
20
-0.043565
30
0.0
11
0.099530
21
-0.042163
31
0.0
0
LINE
8
0
6
CONTINUOUS
10
0.098496
20
-0.044754
30
0.0
11
0.099261
21
-0.043565
31
0.0
0
LINE
8
0
6
CONTINUOUS
10
0.097351
20
-0.045548
30
0.0
11
0.098496
21
-0.044754
31
0.0
0
LINE
8
0
6
CONTINUOUS
10
0.096000
20
-0.045827
30
0.0
11
0.097351
21
-0.045548
31
0.0
0
LINE
8
0
6
CONTINUOUS
10
0.096000
20
-0.038500
30
0.0
11
0.094649
21
-0.038779
31
0.0
0
LINE
8
0
6
CONTINUOUS
10
0.092739
20
-0.040761
30
0.0
11
0.092470
21
-0.042163
31
0.0
0
LINE
8
0
6
CONTINUOUS
10
0.092470
20
-0.042163
30
0.0
11
0.092739
21
-0.043565
31
0.0
0
LINE
8
0
6
CONTINUOUS
10
0.092739
20
-0.043565
30
0.0
11
0.093504
21
-0.044754
31
0.0
0
LINE
8
0
6
CONTINUOUS
10
0.093504
20
-0.044754
30
0.0
11
0.094649
21
-0.045548
31
0.0
0
LINE
8
0
6
CONTINUOUS
10
0.094649
20
-0.045548
30
0.0
11
0.096000
21
-0.045827
31
0.0
0
LINE
8
0
6
CONTINUOUS
10
0.098924
20
-0.040237
30
0.0
11
0.098496
21
-0.039573
31
0.0
0
LINE
8
0
6
CONTINUOUS
10
0.098496
20
-0.039573
30
0.0
11
0.098000
21
-0.039229
31
0.0
0
LINE
8
0
6
CONTINUOUS
10
0.093504
20
-0.039573
30
0.0
11
0.093076
21
-0.040237
31
0.0
0
LINE
8
0
6
CONTINUOUS
10
0.094000
20
-0.039229
30
0.0
11
0.093504
21
-0.039573
31
0.0
0
LINE
8
0
6
CONTINUOUS
10
0.099261
20
-0.040761
30
0.0
11
0.098924
21
-0.040237
31
0.0
0
LINE
8
0
6
CONTINUOUS
10
0.098000
20
-0.039229
30
0.0
11
0.097351
21
-0.038779
31
0.0
0
LINE
8
0
6
CONTINUOUS
10
0.094649
20
-0.038779
30
0.0
11
0.094000
21
-0.039229
31
0.0
0
LINE
8
0
6
CONTINUOUS
10
0.093076
20
-0.040237
30
0.0
11
0.092739
21
-0.040761
31
0.0
0
LINE
8
0
6
CONTINUOUS
10
0.094649
20
-0.055476
30
0.0
11
0.094649
21
-0.045670
31
0.0
0
LINE
8
0
6
CONTINUOUS
10
0.092470
20
-0.042284
30
0.0
11
0.092470
21
-0.052019
31
0.0
0
LINE
8
0
6
CONTINUOUS
10
0.096000
20
-0.045948
30
0.0
11
0.096000
21
-0.055739
31
0.0
0
LINE
8
0
6
CONTINUOUS
10
0.097351
20
-0.045670
30
0.0
11
0.097351
21
-0.055476
31
0.0
0
LINE
8
0
6
CONTINUOUS
10
0.099530
20
-0.052019
30
0.0
11
0.099530
21
-0.042284
31
0.0
0
LINE
8
0
6
CONTINUOUS
10
0.126000
20
-0.103500
30
0.0
11
0.124978
21
-0.103500
31
0.0
0
LINE
8
0
6
CONTINUOUS
10
0.124978
20
-0.103500
30
0.0
11
0.121981
21
-0.103500
31
0.0
0
LINE
8
0
6
CONTINUOUS
10
0.121981
20
-0.103500
30
0.0
11
0.117213
21
-0.103500
31
0.0
0
LINE
8
0
6
CONTINUOUS
10
0.072000
20
-0.103500
30
0.0
11
0.070019
21
-0.103500
31
0.0
0
LINE
8
0
6
CONTINUOUS
10
0.070019
20
-0.103500
30
0.0
11
0.067022
21
-0.103500
31
0.0
0
LINE
8
0
6
CONTINUOUS
10
0.067022
20
-0.103500
30
0.0
11
0.066000
21
-0.103500
31
0.0
0
LINE
8
0
6
CONTINUOUS
10
0.126000
20
-0.103500
30
0.0
11
0.124978
21
-0.103500
31
0.0
0
LINE
8
0
6
CONTINUOUS
10
0.124978
20
-0.103500
30
0.0
11
0.121981
21
-0.103500
31
0.0
0
LINE
8
0
6
CONTINUOUS
10
0.121981
20
-0.103500
30
0.0
11
0.120000
21
-0.103500
31
0.0
0
LINE
8
0
6
CONTINUOUS
10
0.072000
20
-0.103500
30
0.0
11
0.070019
21
-0.103500
31
0.0
0
LINE
8
0
6
CONTINUOUS
10
0.070019
20
-0.103500
30
0.0
11
0.067022
21
-0.103500
31
0.0
0
LINE
8
0
6
CONTINUOUS
10
0.067022
20
-0.103500
30
0.0
11
0.066000
21
-0.103500
31
0.0
0
LINE
8
0
6
CONTINUOUS
10
-0.113950
20
0.079887
30
0.0
11
-0.112666
21
0.079096
31
0.0
0
LINE
8
0
6
CONTINUOUS
10
-0.046045
20
0.048122
30
0.0
11
-0.046222
21
0.048240
31
0.0
0
LINE
8
0
6
CONTINUOUS
10
-0.111022
20
0.078295
30
0.0
11
-0.109328
21
0.077518
31
0.0
0
LINE
8
0
6
CONTINUOUS
10
-0.115231
20
0.081374
30
0.0
11
-0.114149
21
0.080430
31
0.0
0
LINE
8
0
6
CONTINUOUS
10
-0.111889
20
0.078588
30
0.0
11
-0.111022
21
0.078295
31
0.0
0
LINE
8
0
6
CONTINUOUS
10
-0.116606
20
0.082029
30
0.0
11
-0.116467
21
0.082165
31
0.0
0
LINE
8
0
6
CONTINUOUS
10
-0.121768
20
0.086405
30
0.0
11
-0.122919
21
0.087557
31
0.0
0
LINE
8
0
6
CONTINUOUS
10
-0.082895
20
0.061268
30
0.0
11
-0.081535
21
0.060573
31
0.0
0
LINE
8
0
6
CONTINUOUS
10
-0.081535
20
0.060573
30
0.0
11
-0.081250
21
0.060422
31
0.0
0
LINE
8
0
6
CONTINUOUS
10
-0.075994
20
0.057631
30
0.0
11
-0.076134
21
0.057736
31
0.0
0
LINE
8
0
6
CONTINUOUS
10
-0.076005
20
0.057566
30
0.0
11
-0.075994
21
0.057631
31
0.0
0
LINE
8
0
6
CONTINUOUS
10
-0.070645
20
0.055732
30
0.0
11
-0.071136
21
0.055998
31
0.0
0
LINE
8
0
6
CONTINUOUS
10
-0.116931
20
0.084715
30
0.0
11
-0.116663
21
0.084502
31
0.0
0
LINE
8
0
6
CONTINUOUS
10
-0.116663
20
0.084502
30
0.0
11
-0.115635
21
0.083756
31
0.0
0
LINE
8
0
6
CONTINUOUS
10
-0.094475
20
0.070928
30
0.0
11
-0.095169
21
0.071556
31
0.0
0
LINE
8
0
6
CONTINUOUS
10
-0.097385
20
0.072456
30
0.0
11
-0.096624
21
0.072321
31
0.0
0
LINE
8
0
6
CONTINUOUS
10
-0.112666
20
0.079096
30
0.0
11
-0.111889
21
0.078588
31
0.0
0
LINE
8
0
6
CONTINUOUS
10
-0.055044
20
0.053194
30
0.0
11
-0.053415
21
0.052832
31
0.0
0
LINE
8
0
6
CONTINUOUS
10
-0.066141
20
0.058970
30
0.0
11
-0.065434
21
0.059140
31
0.0
0
LINE
8
0
6
CONTINUOUS
10
-0.103965
20
0.077620
30
0.0
11
-0.104548
21
0.078474
31
0.0
0
LINE
8
0
6
CONTINUOUS
10
-0.101295
20
0.073197
30
0.0
11
-0.100728
21
0.073000
31
0.0
0
LINE
8
0
6
CONTINUOUS
10
-0.054221
20
0.049794
30
0.0
11
-0.053975
21
0.049718
31
0.0
0
LINE
8
0
6
CONTINUOUS
10
-0.055531
20
0.050228
30
0.0
11
-0.054221
21
0.049794
31
0.0
0
LINE
8
0
6
CONTINUOUS
10
-0.108960
20
0.076391
30
0.0
11
-0.108881
21
0.076394
31
0.0
0
LINE
8
0
6
CONTINUOUS
10
-0.114110
20
0.079972
30
0.0
11
-0.113950
21
0.079887
31
0.0
0
LINE
8
0
6
CONTINUOUS
10
-0.076134
20
0.057736
30
0.0
11
-0.076232
21
0.057804
31
0.0
0
LINE
8
0
6
CONTINUOUS
10
-0.049161
20
0.049131
30
0.0
11
-0.049099
21
0.049121
31
0.0
0
LINE
8
0
6
CONTINUOUS
10
-0.061559
20
0.053452
30
0.0
11
-0.061048
21
0.053512
31
0.0
0
LINE
8
0
6
CONTINUOUS
10
-0.103427
20
0.072240
30
0.0
11
-0.102264
21
0.071460
31
0.0
0
LINE
8
0
6
CONTINUOUS
10
-0.108886
20
0.078172
30
0.0
11
-0.108509
21
0.078234
31
0.0
0
LINE
8
0
6
CONTINUOUS
10
-0.106305
20
0.076470
30
0.0
11
-0.107154
21
0.077394
31
0.0
0
LINE
8
0
6
CONTINUOUS
10
-0.071506
20
0.058998
30
0.0
11
-0.070856
21
0.059054
31
0.0
0
LINE
8
0
6
CONTINUOUS
10
-0.101192
20
0.071279
30
0.0
11
-0.100813
21
0.071108
31
0.0
0
LINE
8
0
6
CONTINUOUS
10
-0.098469
20
0.069626
30
0.0
11
-0.099451
21
0.070282
31
0.0
0
LINE
8
0
6
CONTINUOUS
10
-0.106824
20
0.074905
30
0.0
11
-0.106533
21
0.074716
31
0.0
0
LINE
8
0
6
CONTINUOUS
10
-0.080690
20
0.064004
30
0.0
11
-0.081073
21
0.064487
31
0.0
0
LINE
8
0
6
CONTINUOUS
10
-0.073663
20
0.056939
30
0.0
11
-0.072646
21
0.056599
31
0.0
0
LINE
8
0
6
CONTINUOUS
10
-0.106765
20
0.079370
30
0.0
11
-0.106141
21
0.079354
31
0.0
0
LINE
8
0
6
CONTINUOUS
10
-0.106141
20
0.079354
30
0.0
11
-0.105953
21
0.079338
31
0.0
0
LINE
8
0
6
CONTINUOUS
10
-0.046222
20
0.048240
30
0.0
11
-0.046521
21
0.048416
31
0.0
0
LINE
8
0
6
CONTINUOUS
10
-0.106875
20
0.074944
30
0.0
11
-0.106824
21
0.074905
31
0.0
0
LINE
8
0
6
CONTINUOUS
10
-0.108989
20
0.078202
30
0.0
11
-0.108886
21
0.078172
31
0.0
0
LINE
8
0
6
CONTINUOUS
10
-0.091464
20
0.066030
30
0.0
11
-0.090715
21
0.065872
31
0.0
0
LINE
8
0
6
CONTINUOUS
10
-0.114807
20
0.082790
30
0.0
11
-0.115635
21
0.083756
31
0.0
0
ENDSEC
0
EOF
