999
Erzeugt mit innoplus bad 
0
SECTION
2
HEADER
9
$ACADVER
1
AC1009
9
$DWGCODEPAGE
3
ISO8859-1
0
ENDSEC
0
SECTION
2
TABLES
0
TABLE
2
LAYER
70
1
0
LAYER
2
0
70
0
62
7
6
CONTINUOUS
0
ENDTAB
0
ENDSEC
0
SECTION
2
ENTITIES
0
LINE
8
0
6
CONTINUOUS
10
0.027166
20
0.013195
30
0.0
11
0.022413
21
0.022824
31
0.0
0
LINE
8
0
6
CONTINUOUS
10
0.026669
20
0.011785
30
0.0
11
0.027166
21
0.013195
31
0.0
0
LINE
8
0
6
CONTINUOUS
10
-0.009397
20
0.046489
30
0.0
11
-0.008716
21
0.046040
31
0.0
0
LINE
8
0
6
CONTINUOUS
10
-0.019563
20
0.053286
30
0.0
11
-0.017582
21
0.051957
31
0.0
0
LINE
8
0
6
CONTINUOUS
10
-0.014881
20
0.050146
30
0.0
11
-0.012109
21
0.048287
31
0.0
0
LINE
8
0
6
CONTINUOUS
10
0.008617
20
0.035294
30
0.0
11
0.016581
21
0.027249
31
0.0
0
LINE
8
0
6
CONTINUOUS
10
0.010098
20
0.038662
30
0.0
11
0.006895
21
0.041830
31
0.0
0
LINE
8
0
6
CONTINUOUS
10
-0.058464
20
0.090413
30
0.0
11
-0.056361
21
0.087990
31
0.0
0
LINE
8
0
6
CONTINUOUS
10
-0.054481
20
0.085823
30
0.0
11
-0.054248
21
0.085554
31
0.0
0
LINE
8
0
6
CONTINUOUS
10
-0.048444
20
0.078865
30
0.0
11
-0.048012
21
0.078368
31
0.0
0
LINE
8
0
6
CONTINUOUS
10
-0.000316
20
0.047969
30
0.0
11
-0.005666
21
0.052291
31
0.0
0
LINE
8
0
6
CONTINUOUS
10
0.016581
20
0.027249
30
0.0
11
0.020919
21
0.020645
31
0.0
0
LINE
8
0
6
CONTINUOUS
10
-0.059786
20
0.095816
30
0.0
11
-0.063748
21
0.098933
31
0.0
0
LINE
8
0
6
CONTINUOUS
10
0.003699
20
0.044767
30
0.0
11
0.001117
21
0.046826
31
0.0
0
LINE
8
0
6
CONTINUOUS
10
-0.065071
20
0.099957
30
0.0
11
-0.061707
21
0.095097
31
0.0
0
LINE
8
0
6
CONTINUOUS
10
-0.063748
20
0.098933
30
0.0
11
-0.065071
21
0.099957
31
0.0
0
LINE
8
0
6
CONTINUOUS
10
0.026331
20
0.010826
30
0.0
11
0.026669
21
0.011785
31
0.0
0
LINE
8
0
6
CONTINUOUS
10
0.000520
20
0.040313
30
0.0
11
0.003389
21
0.038714
31
0.0
0
LINE
8
0
6
CONTINUOUS
10
-0.053240
20
0.090436
30
0.0
11
-0.059786
21
0.095816
31
0.0
0
LINE
8
0
6
CONTINUOUS
10
0.022413
20
0.022824
30
0.0
11
0.017312
21
0.030404
31
0.0
0
LINE
8
0
6
CONTINUOUS
10
0.020919
20
0.020645
30
0.0
11
0.026110
21
0.010630
31
0.0
0
LINE
8
0
6
CONTINUOUS
10
0.026110
20
0.010630
30
0.0
11
0.026331
21
0.010826
31
0.0
0
LINE
8
0
6
CONTINUOUS
10
-0.045994
20
0.076218
30
0.0
11
-0.044277
21
0.074519
31
0.0
0
LINE
8
0
6
CONTINUOUS
10
-0.042227
20
0.072492
30
0.0
11
-0.041484
21
0.071756
31
0.0
0
LINE
8
0
6
CONTINUOUS
10
-0.030686
20
0.072215
30
0.0
11
-0.040952
21
0.080681
31
0.0
0
LINE
8
0
6
CONTINUOUS
10
0.007920
20
0.035822
30
0.0
11
0.008617
21
0.035294
31
0.0
0
LINE
8
0
6
CONTINUOUS
10
-0.019970
20
0.063713
30
0.0
11
-0.030686
21
0.072215
31
0.0
0
LINE
8
0
6
CONTINUOUS
10
0.013199
20
0.035260
30
0.0
11
0.010098
21
0.038662
31
0.0
0
LINE
8
0
6
CONTINUOUS
10
-0.047496
20
0.085888
30
0.0
11
-0.053240
21
0.090436
31
0.0
0
LINE
8
0
6
CONTINUOUS
10
-0.040952
20
0.080681
30
0.0
11
-0.047496
21
0.085888
31
0.0
0
LINE
8
0
6
CONTINUOUS
10
-0.001242
20
0.080048
30
0.0
11
-0.016713
21
0.092309
31
0.0
0
LINE
8
0
6
CONTINUOUS
10
0.014469
20
0.033447
30
0.0
11
0.017312
21
0.030404
31
0.0
0
LINE
8
0
6
CONTINUOUS
10
0.013199
20
0.035260
30
0.0
11
0.014469
21
0.033447
31
0.0
0
LINE
8
0
6
CONTINUOUS
10
-0.040952
20
0.080681
30
0.0
11
-0.030686
21
0.072215
31
0.0
0
LINE
8
0
6
CONTINUOUS
10
-0.047496
20
0.085888
30
0.0
11
-0.040952
21
0.080681
31
0.0
0
LINE
8
0
6
CONTINUOUS
10
-0.009480
20
0.055371
30
0.0
11
-0.000316
21
0.047969
31
0.0
0
LINE
8
0
6
CONTINUOUS
10
-0.065071
20
0.099957
30
0.0
11
-0.063748
21
0.098933
31
0.0
0
LINE
8
0
6
CONTINUOUS
10
-0.065463
20
0.100559
30
0.0
11
-0.065071
21
0.099957
31
0.0
0
LINE
8
0
6
CONTINUOUS
10
-0.063748
20
0.098933
30
0.0
11
-0.059786
21
0.095816
31
0.0
0
LINE
8
0
6
CONTINUOUS
10
-0.053240
20
0.090436
30
0.0
11
-0.047496
21
0.085888
31
0.0
0
LINE
8
0
6
CONTINUOUS
10
-0.000316
20
0.047969
30
0.0
11
0.003699
21
0.044767
31
0.0
0
LINE
8
0
6
CONTINUOUS
10
0.026145
20
0.010630
30
0.0
11
0.027233
21
0.008464
31
0.0
0
LINE
8
0
6
CONTINUOUS
10
0.026669
20
0.011785
30
0.0
11
0.026331
21
0.010826
31
0.0
0
LINE
8
0
6
CONTINUOUS
10
-0.059786
20
0.095816
30
0.0
11
-0.053240
21
0.090436
31
0.0
0
LINE
8
0
6
CONTINUOUS
10
0.092843
20
-0.069104
30
0.0
11
0.092776
21
-0.068978
31
0.0
0
LINE
8
0
6
CONTINUOUS
10
0.071364
20
-0.079537
30
0.0
11
0.071429
21
-0.079666
31
0.0
0
LINE
8
0
6
CONTINUOUS
10
0.079401
20
-0.075734
30
0.0
11
0.078089
21
-0.076381
31
0.0
0
LINE
8
0
6
CONTINUOUS
10
0.078345
20
-0.076605
30
0.0
11
0.079636
21
-0.075968
31
0.0
0
LINE
8
0
6
CONTINUOUS
10
0.082483
20
-0.074214
30
0.0
11
0.080913
21
-0.074988
31
0.0
0
LINE
8
0
6
CONTINUOUS
10
0.081126
20
-0.075233
30
0.0
11
0.082665
21
-0.074474
31
0.0
0
LINE
8
0
6
CONTINUOUS
10
0.092706
20
-0.069522
30
0.0
11
0.092843
21
-0.069104
31
0.0
0
LINE
8
0
6
CONTINUOUS
10
0.092348
20
-0.069698
30
0.0
11
0.092706
21
-0.069522
31
0.0
0
LINE
8
0
6
CONTINUOUS
10
0.092843
20
-0.069104
30
0.0
11
0.092480
21
-0.069283
31
0.0
0
LINE
8
0
6
CONTINUOUS
10
0.091300
20
-0.070216
30
0.0
11
0.092348
21
-0.069698
31
0.0
0
LINE
8
0
6
CONTINUOUS
10
0.092480
20
-0.069283
30
0.0
11
0.091412
21
-0.069810
31
0.0
0
LINE
8
0
6
CONTINUOUS
10
0.089634
20
-0.071037
30
0.0
11
0.091300
21
-0.070216
31
0.0
0
LINE
8
0
6
CONTINUOUS
10
0.087377
20
-0.072150
30
0.0
11
0.089634
21
-0.071037
31
0.0
0
LINE
8
0
6
CONTINUOUS
10
0.089710
20
-0.070650
30
0.0
11
0.087421
21
-0.071778
31
0.0
0
LINE
8
0
6
CONTINUOUS
10
0.086530
20
-0.072568
30
0.0
11
0.087065
21
-0.072304
31
0.0
0
LINE
8
0
6
CONTINUOUS
10
0.087032
20
-0.071970
30
0.0
11
0.086401
21
-0.072282
31
0.0
0
LINE
8
0
6
CONTINUOUS
10
0.087065
20
-0.072304
30
0.0
11
0.087377
21
-0.072150
31
0.0
0
LINE
8
0
6
CONTINUOUS
10
0.082665
20
-0.074474
30
0.0
11
0.086530
21
-0.072568
31
0.0
0
LINE
8
0
6
CONTINUOUS
10
0.086401
20
-0.072282
30
0.0
11
0.082483
21
-0.074214
31
0.0
0
LINE
8
0
6
CONTINUOUS
10
0.079636
20
-0.075968
30
0.0
11
0.081126
21
-0.075233
31
0.0
0
LINE
8
0
6
CONTINUOUS
10
0.080913
20
-0.074988
30
0.0
11
0.079401
21
-0.075734
31
0.0
0
LINE
8
0
6
CONTINUOUS
10
0.077069
20
-0.077234
30
0.0
11
0.077707
21
-0.076920
31
0.0
0
LINE
8
0
6
CONTINUOUS
10
0.077434
20
-0.076704
30
0.0
11
0.076779
21
-0.077027
31
0.0
0
LINE
8
0
6
CONTINUOUS
10
0.074908
20
-0.078300
30
0.0
11
0.077069
21
-0.077234
31
0.0
0
LINE
8
0
6
CONTINUOUS
10
0.076779
20
-0.077027
30
0.0
11
0.074561
21
-0.078121
31
0.0
0
LINE
8
0
6
CONTINUOUS
10
0.073251
20
-0.079117
30
0.0
11
0.074908
21
-0.078300
31
0.0
0
LINE
8
0
6
CONTINUOUS
10
0.074561
20
-0.078121
30
0.0
11
0.072861
21
-0.078959
31
0.0
0
LINE
8
0
6
CONTINUOUS
10
0.072210
20
-0.079631
30
0.0
11
0.073251
21
-0.079117
31
0.0
0
LINE
8
0
6
CONTINUOUS
10
0.072861
20
-0.078959
30
0.0
11
0.071793
21
-0.079486
31
0.0
0
LINE
8
0
6
CONTINUOUS
10
0.071854
20
-0.079806
30
0.0
11
0.072210
21
-0.079631
31
0.0
0
LINE
8
0
6
CONTINUOUS
10
0.071429
20
-0.079666
30
0.0
11
0.071854
21
-0.079806
31
0.0
0
LINE
8
0
6
CONTINUOUS
10
0.071793
20
-0.079486
30
0.0
11
0.071429
21
-0.079666
31
0.0
0
LINE
8
0
6
CONTINUOUS
10
-0.064811
20
0.101838
30
0.0
11
-0.064905
21
0.101692
31
0.0
0
LINE
8
0
6
CONTINUOUS
10
0.092776
20
-0.068978
30
0.0
11
0.085372
21
-0.054947
31
0.0
0
LINE
8
0
6
CONTINUOUS
10
-0.019970
20
0.063713
30
0.0
11
-0.009480
21
0.055371
31
0.0
0
LINE
8
0
6
CONTINUOUS
10
-0.054902
20
0.114250
30
0.0
11
-0.055718
21
0.114071
31
0.0
0
LINE
8
0
6
CONTINUOUS
10
0.007157
20
0.041861
30
0.0
11
0.004036
21
0.044755
31
0.0
0
LINE
8
0
6
CONTINUOUS
10
0.003699
20
0.044767
30
0.0
11
0.006882
21
0.041843
31
0.0
0
LINE
8
0
6
CONTINUOUS
10
-0.016713
20
0.092309
30
0.0
11
-0.032414
21
0.102692
31
0.0
0
LINE
8
0
6
CONTINUOUS
10
-0.032414
20
0.102692
30
0.0
11
-0.046974
21
0.110470
31
0.0
0
LINE
8
0
6
CONTINUOUS
10
0.009026
20
0.039722
30
0.0
11
0.010098
21
0.038662
31
0.0
0
LINE
8
0
6
CONTINUOUS
10
-0.046974
20
0.110470
30
0.0
11
-0.054367
21
0.114018
31
0.0
0
LINE
8
0
6
CONTINUOUS
10
0.022169
20
0.057500
30
0.0
11
0.017478
21
0.062409
31
0.0
0
LINE
8
0
6
CONTINUOUS
10
0.017478
20
0.062409
30
0.0
11
0.012707
21
0.067242
31
0.0
0
LINE
8
0
6
CONTINUOUS
10
-0.064127
20
0.099513
30
0.0
11
-0.060152
21
0.096357
31
0.0
0
LINE
8
0
6
CONTINUOUS
10
0.007954
20
0.040783
30
0.0
11
0.009026
21
0.039722
31
0.0
0
LINE
8
0
6
CONTINUOUS
10
0.018506
20
0.053311
30
0.0
11
0.019860
21
0.051955
31
0.0
0
LINE
8
0
6
CONTINUOUS
10
0.053042
20
-0.031807
30
0.0
11
0.040432
21
-0.007453
31
0.0
0
LINE
8
0
6
CONTINUOUS
10
0.085372
20
-0.054947
30
0.0
11
0.069158
21
-0.023950
31
0.0
0
LINE
8
0
6
CONTINUOUS
10
0.053005
20
-0.001865
30
0.0
11
0.043354
21
0.017942
31
0.0
0
LINE
8
0
6
CONTINUOUS
10
0.046233
20
0.019601
30
0.0
11
0.040309
21
0.030757
31
0.0
0
LINE
8
0
6
CONTINUOUS
10
-0.056533
20
0.113892
30
0.0
11
-0.057014
21
0.113210
31
0.0
0
LINE
8
0
6
CONTINUOUS
10
0.010977
20
0.058878
30
0.0
11
0.001567
21
0.066786
31
0.0
0
LINE
8
0
6
CONTINUOUS
10
0.064200
20
-0.065335
30
0.0
11
0.071364
21
-0.079537
31
0.0
0
LINE
8
0
6
CONTINUOUS
10
0.026537
20
0.044623
30
0.0
11
0.023521
21
0.048853
31
0.0
0
LINE
8
0
6
CONTINUOUS
10
-0.057014
20
0.113210
30
0.0
11
-0.062255
21
0.105779
31
0.0
0
LINE
8
0
6
CONTINUOUS
10
0.036979
20
0.036764
30
0.0
11
0.034603
21
0.040675
31
0.0
0
LINE
8
0
6
CONTINUOUS
10
0.018888
20
0.031211
30
0.0
11
0.014571
21
0.035030
31
0.0
0
LINE
8
0
6
CONTINUOUS
10
0.018888
20
0.031211
30
0.0
11
0.013565
21
0.035338
31
0.0
0
LINE
8
0
6
CONTINUOUS
10
0.013565
20
0.035338
30
0.0
11
0.017994
21
0.030701
31
0.0
0
LINE
8
0
6
CONTINUOUS
10
-0.008706
20
0.076753
30
0.0
11
-0.019498
21
0.085824
31
0.0
0
LINE
8
0
6
CONTINUOUS
10
-0.044333
20
0.104118
30
0.0
11
-0.037897
21
0.098951
31
0.0
0
LINE
8
0
6
CONTINUOUS
10
0.040309
20
0.030757
30
0.0
11
0.036979
21
0.036764
31
0.0
0
LINE
8
0
6
CONTINUOUS
10
0.043354
20
0.017942
30
0.0
11
0.036941
21
0.030596
31
0.0
0
LINE
8
0
6
CONTINUOUS
10
0.023162
20
0.023775
30
0.0
11
0.030109
21
0.011990
31
0.0
0
LINE
8
0
6
CONTINUOUS
10
0.079981
20
-0.057393
30
0.0
11
0.064828
21
-0.026158
31
0.0
0
LINE
8
0
6
CONTINUOUS
10
0.010376
20
0.038730
30
0.0
11
0.014571
21
0.035030
31
0.0
0
LINE
8
0
6
CONTINUOUS
10
0.001650
20
0.067912
30
0.0
11
0.010922
21
0.060122
31
0.0
0
LINE
8
0
6
CONTINUOUS
10
-0.030686
20
0.072215
30
0.0
11
-0.019970
21
0.063713
31
0.0
0
LINE
8
0
6
CONTINUOUS
10
-0.019578
20
0.063721
30
0.0
11
-0.009109
21
0.055396
31
0.0
0
LINE
8
0
6
CONTINUOUS
10
0.010098
20
0.038662
30
0.0
11
0.013199
21
0.035260
31
0.0
0
LINE
8
0
6
CONTINUOUS
10
-0.056533
20
0.113892
30
0.0
11
-0.055138
21
0.112722
31
0.0
0
LINE
8
0
6
CONTINUOUS
10
-0.055718
20
0.114071
30
0.0
11
-0.056533
21
0.113892
31
0.0
0
LINE
8
0
6
CONTINUOUS
10
-0.051084
20
0.109595
30
0.0
11
-0.044333
21
0.104118
31
0.0
0
LINE
8
0
6
CONTINUOUS
10
-0.009109
20
0.055396
30
0.0
11
0.000070
21
0.047948
31
0.0
0
LINE
8
0
6
CONTINUOUS
10
0.087032
20
-0.071970
30
0.0
11
0.087421
21
-0.071778
31
0.0
0
LINE
8
0
6
CONTINUOUS
10
0.086969
20
-0.071840
30
0.0
11
0.087032
21
-0.071970
31
0.0
0
LINE
8
0
6
CONTINUOUS
10
0.089710
20
-0.070650
30
0.0
11
0.091412
21
-0.069810
31
0.0
0
LINE
8
0
6
CONTINUOUS
10
0.023162
20
0.023775
30
0.0
11
0.017994
21
0.030701
31
0.0
0
LINE
8
0
6
CONTINUOUS
10
-0.030681
20
0.093126
30
0.0
11
-0.020175
21
0.084505
31
0.0
0
LINE
8
0
6
CONTINUOUS
10
0.027166
20
0.013195
30
0.0
11
0.026669
21
0.011785
31
0.0
0
LINE
8
0
6
CONTINUOUS
10
0.010922
20
0.060122
30
0.0
11
0.014711
21
0.056688
31
0.0
0
LINE
8
0
6
CONTINUOUS
10
0.067090
20
-0.063898
30
0.0
11
0.050647
21
-0.032966
31
0.0
0
LINE
8
0
6
CONTINUOUS
10
-0.029822
20
0.094416
30
0.0
11
-0.036739
21
0.099971
31
0.0
0
LINE
8
0
6
CONTINUOUS
10
-0.036948
20
0.099981
30
0.0
11
-0.029737
21
0.094153
31
0.0
0
LINE
8
0
6
CONTINUOUS
10
-0.053770
20
0.113331
30
0.0
11
-0.050110
21
0.110401
31
0.0
0
LINE
8
0
6
CONTINUOUS
10
-0.054902
20
0.114250
30
0.0
11
-0.053770
21
0.113331
31
0.0
0
LINE
8
0
6
CONTINUOUS
10
-0.054367
20
0.114018
30
0.0
11
-0.054902
21
0.114250
31
0.0
0
LINE
8
0
6
CONTINUOUS
10
0.021214
20
0.050598
30
0.0
11
0.019860
21
0.051955
31
0.0
0
LINE
8
0
6
CONTINUOUS
10
-0.043696
20
0.105344
30
0.0
11
-0.036948
21
0.099981
31
0.0
0
LINE
8
0
6
CONTINUOUS
10
-0.036739
20
0.099971
30
0.0
11
-0.043230
21
0.105118
31
0.0
0
LINE
8
0
6
CONTINUOUS
10
0.035962
20
-0.009549
30
0.0
11
0.048389
21
-0.034070
31
0.0
0
LINE
8
0
6
CONTINUOUS
10
-0.030305
20
0.072185
30
0.0
11
-0.019578
21
0.063721
31
0.0
0
LINE
8
0
6
CONTINUOUS
10
-0.047484
20
0.086075
30
0.0
11
-0.040548
21
0.080557
31
0.0
0
LINE
8
0
6
CONTINUOUS
10
0.000070
20
0.047948
30
0.0
11
0.004036
21
0.044755
31
0.0
0
LINE
8
0
6
CONTINUOUS
10
0.069158
20
-0.023950
30
0.0
11
0.056365
21
0.000355
31
0.0
0
LINE
8
0
6
CONTINUOUS
10
-0.065463
20
0.100559
30
0.0
11
-0.064127
21
0.099513
31
0.0
0
LINE
8
0
6
CONTINUOUS
10
-0.064905
20
0.101692
30
0.0
11
-0.065463
21
0.100559
31
0.0
0
LINE
8
0
6
CONTINUOUS
10
0.027233
20
0.008464
30
0.0
11
0.035962
21
-0.009549
31
0.0
0
LINE
8
0
6
CONTINUOUS
10
-0.062255
20
0.105779
30
0.0
11
-0.064811
21
0.101838
31
0.0
0
LINE
8
0
6
CONTINUOUS
10
0.023521
20
0.048853
30
0.0
11
0.027498
21
0.044523
31
0.0
0
LINE
8
0
6
CONTINUOUS
10
0.048389
20
-0.034070
30
0.0
11
0.064200
21
-0.065335
31
0.0
0
LINE
8
0
6
CONTINUOUS
10
-0.053563
20
0.090884
30
0.0
11
-0.047484
21
0.086075
31
0.0
0
LINE
8
0
6
CONTINUOUS
10
0.021214
20
0.050598
30
0.0
11
0.022568
21
0.049242
31
0.0
0
LINE
8
0
6
CONTINUOUS
10
0.017312
20
0.030404
30
0.0
11
0.022413
21
0.022824
31
0.0
0
LINE
8
0
6
CONTINUOUS
10
0.014684
20
0.055377
30
0.0
11
0.018371
21
0.051989
31
0.0
0
LINE
8
0
6
CONTINUOUS
10
0.040432
20
-0.007453
30
0.0
11
0.030109
21
0.011990
31
0.0
0
LINE
8
0
6
CONTINUOUS
10
0.028620
20
0.011001
30
0.0
11
0.037911
21
-0.008654
31
0.0
0
LINE
8
0
6
CONTINUOUS
10
0.012707
20
0.067242
30
0.0
11
-0.001242
21
0.080048
31
0.0
0
LINE
8
0
6
CONTINUOUS
10
-0.043696
20
0.105344
30
0.0
11
-0.050110
21
0.110401
31
0.0
0
LINE
8
0
6
CONTINUOUS
10
0.026537
20
0.044623
30
0.0
11
0.022568
21
0.049242
31
0.0
0
LINE
8
0
6
CONTINUOUS
10
0.032190
20
0.044546
30
0.0
11
0.030182
21
0.047335
31
0.0
0
LINE
8
0
6
CONTINUOUS
10
0.034603
20
0.040675
30
0.0
11
0.032190
21
0.044546
31
0.0
0
LINE
8
0
6
CONTINUOUS
10
0.022413
20
0.022824
30
0.0
11
0.027166
21
0.013195
31
0.0
0
LINE
8
0
6
CONTINUOUS
10
0.018506
20
0.053311
30
0.0
11
0.014711
21
0.056688
31
0.0
0
LINE
8
0
6
CONTINUOUS
10
-0.037897
20
0.098951
30
0.0
11
-0.030681
21
0.093126
31
0.0
0
LINE
8
0
6
CONTINUOUS
10
0.026491
20
0.052262
30
0.0
11
0.022169
21
0.057500
31
0.0
0
LINE
8
0
6
CONTINUOUS
10
0.008230
20
0.040817
30
0.0
11
0.007157
21
0.041861
31
0.0
0
LINE
8
0
6
CONTINUOUS
10
0.006882
20
0.041843
30
0.0
11
0.007954
21
0.040783
31
0.0
0
LINE
8
0
6
CONTINUOUS
10
0.008230
20
0.040817
30
0.0
11
0.009303
21
0.039773
31
0.0
0
LINE
8
0
6
CONTINUOUS
10
0.053005
20
-0.001865
30
0.0
11
0.064828
21
-0.026158
31
0.0
0
LINE
8
0
6
CONTINUOUS
10
0.026537
20
0.044623
30
0.0
11
0.031827
21
0.038471
31
0.0
0
LINE
8
0
6
CONTINUOUS
10
0.086969
20
-0.071840
30
0.0
11
0.079981
21
-0.057393
31
0.0
0
LINE
8
0
6
CONTINUOUS
10
0.030182
20
0.047335
30
0.0
11
0.026491
21
0.052262
31
0.0
0
LINE
8
0
6
CONTINUOUS
10
-0.008706
20
0.076753
30
0.0
11
0.001650
21
0.067912
31
0.0
0
LINE
8
0
6
CONTINUOUS
10
0.050647
20
-0.032966
30
0.0
11
0.037911
21
-0.008654
31
0.0
0
LINE
8
0
6
CONTINUOUS
10
0.056365
20
0.000355
30
0.0
11
0.046233
21
0.019601
31
0.0
0
LINE
8
0
6
CONTINUOUS
10
0.009303
20
0.039773
30
0.0
11
0.010376
21
0.038730
31
0.0
0
LINE
8
0
6
CONTINUOUS
10
-0.019498
20
0.085824
30
0.0
11
-0.029737
21
0.094153
31
0.0
0
LINE
8
0
6
CONTINUOUS
10
0.036941
20
0.030596
30
0.0
11
0.031827
21
0.038471
31
0.0
0
LINE
8
0
6
CONTINUOUS
10
-0.060152
20
0.096357
30
0.0
11
-0.053563
21
0.090884
31
0.0
0
LINE
8
0
6
CONTINUOUS
10
0.077707
20
-0.076920
30
0.0
11
0.078345
21
-0.076605
31
0.0
0
LINE
8
0
6
CONTINUOUS
10
0.078089
20
-0.076381
30
0.0
11
0.077434
21
-0.076704
31
0.0
0
LINE
8
0
6
CONTINUOUS
10
-0.055138
20
0.112722
30
0.0
11
-0.051084
21
0.109595
31
0.0
0
LINE
8
0
6
CONTINUOUS
10
-0.040548
20
0.080557
30
0.0
11
-0.030305
21
0.072185
31
0.0
0
LINE
8
0
6
CONTINUOUS
10
0.091500
20
-0.113750
30
0.0
11
0.098153
21
-0.113750
31
0.0
0
LINE
8
0
6
CONTINUOUS
10
0.117500
20
-0.108750
30
0.0
11
0.117500
21
-0.107750
31
0.0
0
LINE
8
0
6
CONTINUOUS
10
0.117500
20
-0.107750
30
0.0
11
0.116582
21
-0.107750
31
0.0
0
LINE
8
0
6
CONTINUOUS
10
0.113982
20
-0.113750
30
0.0
11
0.116582
21
-0.113750
31
0.0
0
LINE
8
0
6
CONTINUOUS
10
0.065500
20
-0.107750
30
0.0
11
0.065500
21
-0.108750
31
0.0
0
LINE
8
0
6
CONTINUOUS
10
0.066418
20
-0.107750
30
0.0
11
0.065500
21
-0.107750
31
0.0
0
LINE
8
0
6
CONTINUOUS
10
0.104423
20
-0.107750
30
0.0
11
0.098153
21
-0.107750
31
0.0
0
LINE
8
0
6
CONTINUOUS
10
0.078576
20
-0.107750
30
0.0
11
0.073147
21
-0.107750
31
0.0
0
LINE
8
0
6
CONTINUOUS
10
0.109853
20
-0.107750
30
0.0
11
0.104423
21
-0.107750
31
0.0
0
LINE
8
0
6
CONTINUOUS
10
0.078576
20
-0.113750
30
0.0
11
0.084847
21
-0.113750
31
0.0
0
LINE
8
0
6
CONTINUOUS
10
0.109853
20
-0.113750
30
0.0
11
0.113982
21
-0.113750
31
0.0
0
LINE
8
0
6
CONTINUOUS
10
0.091500
20
-0.107750
30
0.0
11
0.084847
21
-0.107750
31
0.0
0
LINE
8
0
6
CONTINUOUS
10
0.073147
20
-0.113750
30
0.0
11
0.078576
21
-0.113750
31
0.0
0
LINE
8
0
6
CONTINUOUS
10
0.113982
20
-0.107750
30
0.0
11
0.109853
21
-0.107750
31
0.0
0
LINE
8
0
6
CONTINUOUS
10
0.084847
20
-0.107750
30
0.0
11
0.078576
21
-0.107750
31
0.0
0
LINE
8
0
6
CONTINUOUS
10
0.078502
20
-0.106750
30
0.0
11
0.078500
21
-0.107750
31
0.0
0
LINE
8
0
6
CONTINUOUS
10
0.098153
20
-0.107750
30
0.0
11
0.091500
21
-0.107750
31
0.0
0
LINE
8
0
6
CONTINUOUS
10
0.073147
20
-0.107750
30
0.0
11
0.069018
21
-0.107750
31
0.0
0
LINE
8
0
6
CONTINUOUS
10
0.069018
20
-0.107750
30
0.0
11
0.066418
21
-0.107750
31
0.0
0
LINE
8
0
6
CONTINUOUS
10
0.116582
20
-0.107750
30
0.0
11
0.113982
21
-0.107750
31
0.0
0
LINE
8
0
6
CONTINUOUS
10
0.117500
20
-0.113750
30
0.0
11
0.117500
21
-0.112750
31
0.0
0
LINE
8
0
6
CONTINUOUS
10
0.116582
20
-0.113750
30
0.0
11
0.117500
21
-0.113750
31
0.0
0
LINE
8
0
6
CONTINUOUS
10
0.069018
20
-0.113750
30
0.0
11
0.073147
21
-0.113750
31
0.0
0
LINE
8
0
6
CONTINUOUS
10
0.066418
20
-0.113750
30
0.0
11
0.069018
21
-0.113750
31
0.0
0
LINE
8
0
6
CONTINUOUS
10
0.065500
20
-0.112750
30
0.0
11
0.065500
21
-0.113750
31
0.0
0
LINE
8
0
6
CONTINUOUS
10
0.065500
20
-0.113750
30
0.0
11
0.066418
21
-0.113750
31
0.0
0
LINE
8
0
6
CONTINUOUS
10
0.104423
20
-0.113750
30
0.0
11
0.109853
21
-0.113750
31
0.0
0
LINE
8
0
6
CONTINUOUS
10
0.104500
20
-0.107750
30
0.0
11
0.104500
21
-0.106750
31
0.0
0
LINE
8
0
6
CONTINUOUS
10
0.084847
20
-0.113750
30
0.0
11
0.091500
21
-0.113750
31
0.0
0
LINE
8
0
6
CONTINUOUS
10
0.098153
20
-0.113750
30
0.0
11
0.104423
21
-0.113750
31
0.0
0
LINE
8
0
6
CONTINUOUS
10
0.103623
20
-0.089967
30
0.0
11
0.094888
21
-0.070541
31
0.0
0
LINE
8
0
6
CONTINUOUS
10
0.071789
20
-0.082329
30
0.0
11
0.077558
21
-0.093781
31
0.0
0
LINE
8
0
6
CONTINUOUS
10
0.077195
20
-0.078537
30
0.0
11
0.074746
21
-0.079785
31
0.0
0
LINE
8
0
6
CONTINUOUS
10
0.079975
20
-0.077112
30
0.0
11
0.077195
21
-0.078537
31
0.0
0
LINE
8
0
6
CONTINUOUS
10
0.072893
20
-0.080724
30
0.0
11
0.071780
21
-0.081285
31
0.0
0
LINE
8
0
6
CONTINUOUS
10
0.074746
20
-0.079785
30
0.0
11
0.072893
21
-0.080724
31
0.0
0
LINE
8
0
6
CONTINUOUS
10
0.094888
20
-0.070541
30
0.0
11
0.094504
21
-0.069687
31
0.0
0
LINE
8
0
6
CONTINUOUS
10
0.094504
20
-0.069687
30
0.0
11
0.094088
21
-0.069896
31
0.0
0
LINE
8
0
6
CONTINUOUS
10
0.071367
20
-0.081493
30
0.0
11
0.071789
21
-0.082329
31
0.0
0
LINE
8
0
6
CONTINUOUS
10
0.073063
20
-0.079066
30
0.0
11
0.073700
21
-0.080316
31
0.0
0
LINE
8
0
6
CONTINUOUS
10
0.092169
20
-0.070865
30
0.0
11
0.091538
21
-0.069616
31
0.0
0
LINE
8
0
6
CONTINUOUS
10
0.079975
20
-0.077112
30
0.0
11
0.082929
21
-0.075594
31
0.0
0
LINE
8
0
6
CONTINUOUS
10
0.088659
20
-0.072652
30
0.0
11
0.091116
21
-0.071400
31
0.0
0
LINE
8
0
6
CONTINUOUS
10
0.091116
20
-0.071400
30
0.0
11
0.092973
21
-0.070459
31
0.0
0
LINE
8
0
6
CONTINUOUS
10
0.071367
20
-0.081493
30
0.0
11
0.071780
21
-0.081285
31
0.0
0
LINE
8
0
6
CONTINUOUS
10
0.085895
20
-0.074069
30
0.0
11
0.088659
21
-0.072652
31
0.0
0
LINE
8
0
6
CONTINUOUS
10
0.092973
20
-0.070459
30
0.0
11
0.094088
21
-0.069896
31
0.0
0
LINE
8
0
6
CONTINUOUS
10
0.082929
20
-0.075594
30
0.0
11
0.085895
21
-0.074069
31
0.0
0
LINE
8
0
6
CONTINUOUS
10
0.078520
20
-0.095690
30
0.0
11
0.078518
21
-0.098010
31
0.0
0
LINE
8
0
6
CONTINUOUS
10
0.102792
20
-0.092177
30
0.0
11
0.104032
21
-0.091917
31
0.0
0
LINE
8
0
6
CONTINUOUS
10
0.078520
20
-0.095690
30
0.0
11
0.078945
21
-0.095575
31
0.0
0
LINE
8
0
6
CONTINUOUS
10
0.077558
20
-0.093781
30
0.0
11
0.078520
21
-0.095690
31
0.0
0
LINE
8
0
6
CONTINUOUS
10
0.104500
20
-0.094237
30
0.0
11
0.104500
21
-0.091917
31
0.0
0
LINE
8
0
6
CONTINUOUS
10
0.104500
20
-0.091917
30
0.0
11
0.103623
21
-0.089967
31
0.0
0
LINE
8
0
6
CONTINUOUS
10
0.104032
20
-0.091917
30
0.0
11
0.104500
21
-0.091917
31
0.0
0
LINE
8
0
6
CONTINUOUS
10
0.078945
20
-0.095575
30
0.0
11
0.080180
21
-0.095343
31
0.0
0
LINE
8
0
6
CONTINUOUS
10
0.117500
20
-0.112750
30
0.0
11
0.117500
21
-0.108750
31
0.0
0
LINE
8
0
6
CONTINUOUS
10
0.065500
20
-0.108750
30
0.0
11
0.065500
21
-0.112750
31
0.0
0
LINE
8
0
6
CONTINUOUS
10
0.104500
20
-0.106750
30
0.0
11
0.104500
21
-0.094237
31
0.0
0
LINE
8
0
6
CONTINUOUS
10
0.078518
20
-0.098010
30
0.0
11
0.078502
21
-0.106750
31
0.0
0
LINE
8
0
6
CONTINUOUS
10
-0.052670
20
0.083736
30
0.0
11
-0.052541
21
0.082826
31
0.0
0
LINE
8
0
6
CONTINUOUS
10
-0.052541
20
0.082826
30
0.0
11
-0.052319
21
0.082642
31
0.0
0
LINE
8
0
6
CONTINUOUS
10
-0.052319
20
0.082642
30
0.0
11
-0.051675
21
0.082106
31
0.0
0
LINE
8
0
6
CONTINUOUS
10
-0.051675
20
0.082106
30
0.0
11
-0.050637
21
0.081242
31
0.0
0
LINE
8
0
6
CONTINUOUS
10
-0.050637
20
0.081242
30
0.0
11
-0.049233
21
0.080074
31
0.0
0
LINE
8
0
6
CONTINUOUS
10
-0.049233
20
0.080074
30
0.0
11
-0.047494
21
0.078627
31
0.0
0
LINE
8
0
6
CONTINUOUS
10
-0.047494
20
0.078627
30
0.0
11
-0.045446
21
0.076923
31
0.0
0
LINE
8
0
6
CONTINUOUS
10
-0.045446
20
0.076923
30
0.0
11
-0.043120
21
0.074988
31
0.0
0
LINE
8
0
6
CONTINUOUS
10
-0.043120
20
0.074988
30
0.0
11
-0.040545
21
0.072844
31
0.0
0
LINE
8
0
6
CONTINUOUS
10
-0.040545
20
0.072844
30
0.0
11
-0.037774
21
0.070539
31
0.0
0
LINE
8
0
6
CONTINUOUS
10
-0.034327
20
0.069015
30
0.0
11
-0.035189
21
0.069733
31
0.0
0
LINE
8
0
6
CONTINUOUS
10
-0.037749
20
0.070517
30
0.0
11
-0.034760
21
0.068031
31
0.0
0
LINE
8
0
6
CONTINUOUS
10
-0.031060
20
0.066296
30
0.0
11
-0.034327
21
0.069015
31
0.0
0
LINE
8
0
6
CONTINUOUS
10
-0.034760
20
0.068031
30
0.0
11
-0.031609
21
0.065409
31
0.0
0
LINE
8
0
6
CONTINUOUS
10
-0.027655
20
0.063464
30
0.0
11
-0.031060
21
0.066296
31
0.0
0
LINE
8
0
6
CONTINUOUS
10
-0.031609
20
0.065409
30
0.0
11
-0.028324
21
0.062675
31
0.0
0
LINE
8
0
6
CONTINUOUS
10
-0.025820
20
0.061937
30
0.0
11
-0.027655
21
0.063464
31
0.0
0
LINE
8
0
6
CONTINUOUS
10
-0.028324
20
0.062675
30
0.0
11
-0.025039
21
0.059941
31
0.0
0
LINE
8
0
6
CONTINUOUS
10
-0.020984
20
0.057912
30
0.0
11
-0.023330
21
0.059864
31
0.0
0
LINE
8
0
6
CONTINUOUS
10
-0.025039
20
0.059941
30
0.0
11
-0.021888
21
0.057319
31
0.0
0
LINE
8
0
6
CONTINUOUS
10
-0.017886
20
0.055334
30
0.0
11
-0.020984
21
0.057912
31
0.0
0
LINE
8
0
6
CONTINUOUS
10
-0.021888
20
0.057319
30
0.0
11
-0.018900
21
0.054832
31
0.0
0
LINE
8
0
6
CONTINUOUS
10
-0.015295
20
0.053178
30
0.0
11
-0.017886
21
0.055334
31
0.0
0
LINE
8
0
6
CONTINUOUS
10
-0.018900
20
0.054832
30
0.0
11
-0.016103
21
0.052506
31
0.0
0
LINE
8
0
6
CONTINUOUS
10
-0.016103
20
0.052506
30
0.0
11
-0.013528
21
0.050362
31
0.0
0
LINE
8
0
6
CONTINUOUS
10
-0.009906
20
0.048694
30
0.0
11
-0.012317
21
0.050700
31
0.0
0
LINE
8
0
6
CONTINUOUS
10
-0.013528
20
0.050362
30
0.0
11
-0.011202
21
0.048427
31
0.0
0
LINE
8
0
6
CONTINUOUS
10
-0.007784
20
0.046928
30
0.0
11
-0.009906
21
0.048694
31
0.0
0
LINE
8
0
6
CONTINUOUS
10
-0.011202
20
0.048427
30
0.0
11
-0.009155
21
0.046723
31
0.0
0
LINE
8
0
6
CONTINUOUS
10
-0.006646
20
0.045982
30
0.0
11
-0.007784
21
0.046928
31
0.0
0
LINE
8
0
6
CONTINUOUS
10
-0.009155
20
0.046723
30
0.0
11
-0.007415
21
0.045276
31
0.0
0
LINE
8
0
6
CONTINUOUS
10
-0.007415
20
0.045276
30
0.0
11
-0.006011
21
0.044108
31
0.0
0
LINE
8
0
6
CONTINUOUS
10
-0.006011
20
0.044108
30
0.0
11
-0.004973
21
0.043244
31
0.0
0
LINE
8
0
6
CONTINUOUS
10
-0.004973
20
0.043244
30
0.0
11
-0.004329
21
0.042708
31
0.0
0
LINE
8
0
6
CONTINUOUS
10
-0.004108
20
0.042524
30
0.0
11
-0.002552
21
0.042575
31
0.0
0
LINE
8
0
6
CONTINUOUS
10
-0.004329
20
0.042708
30
0.0
11
-0.004108
21
0.042524
31
0.0
0
LINE
8
0
6
CONTINUOUS
10
-0.021182
20
0.061007
30
0.0
11
-0.019920
21
0.059992
31
0.0
0
LINE
8
0
6
CONTINUOUS
10
-0.001766
20
0.040946
30
0.0
11
-0.000504
21
0.039930
31
0.0
0
LINE
8
0
6
CONTINUOUS
10
-0.025307
20
0.056779
30
0.0
11
-0.024914
21
0.057266
31
0.0
0
LINE
8
0
6
CONTINUOUS
10
-0.025741
20
0.057128
30
0.0
11
-0.025307
21
0.056779
31
0.0
0
LINE
8
0
6
CONTINUOUS
10
-0.019740
20
0.054456
30
0.0
11
-0.019305
21
0.054106
31
0.0
0
LINE
8
0
6
CONTINUOUS
10
-0.019236
20
0.055082
30
0.0
11
-0.019740
21
0.054456
31
0.0
0
LINE
8
0
6
CONTINUOUS
10
-0.019305
20
0.054106
30
0.0
11
-0.018043
21
0.053091
31
0.0
0
LINE
8
0
6
CONTINUOUS
10
-0.018651
20
0.054919
30
0.0
11
-0.019305
21
0.054106
31
0.0
0
LINE
8
0
6
CONTINUOUS
10
-0.017216
20
0.052425
30
0.0
11
-0.016731
21
0.053028
31
0.0
0
LINE
8
0
6
CONTINUOUS
10
-0.018043
20
0.053091
30
0.0
11
-0.017216
21
0.052425
31
0.0
0
LINE
8
0
6
CONTINUOUS
10
-0.017280
20
0.054039
30
0.0
11
-0.018043
21
0.053091
31
0.0
0
LINE
8
0
6
CONTINUOUS
10
-0.009668
20
0.046153
30
0.0
11
-0.008998
21
0.046985
31
0.0
0
LINE
8
0
6
CONTINUOUS
10
-0.010102
20
0.046503
30
0.0
11
-0.009668
21
0.046153
31
0.0
0
LINE
8
0
6
CONTINUOUS
10
-0.023371
20
0.059813
30
0.0
11
-0.022753
21
0.060581
31
0.0
0
LINE
8
0
6
CONTINUOUS
10
-0.023806
20
0.060163
30
0.0
11
-0.023371
21
0.059813
31
0.0
0
LINE
8
0
6
CONTINUOUS
10
-0.023806
20
0.060163
30
0.0
11
-0.023023
21
0.061136
31
0.0
0
LINE
8
0
6
CONTINUOUS
10
-0.025068
20
0.061178
30
0.0
11
-0.023806
21
0.060163
31
0.0
0
LINE
8
0
6
CONTINUOUS
10
-0.029372
20
0.062365
30
0.0
11
-0.028110
21
0.061350
31
0.0
0
LINE
8
0
6
CONTINUOUS
10
-0.052396
20
0.083198
30
0.0
11
-0.051895
21
0.083821
31
0.0
0
LINE
8
0
6
CONTINUOUS
10
-0.053478
20
0.084069
30
0.0
11
-0.052396
21
0.083198
31
0.0
0
LINE
8
0
6
CONTINUOUS
10
-0.041581
20
0.070972
30
0.0
11
-0.040345
21
0.069978
31
0.0
0
LINE
8
0
6
CONTINUOUS
10
-0.033426
20
0.064149
30
0.0
11
-0.032848
21
0.063684
31
0.0
0
LINE
8
0
6
CONTINUOUS
10
-0.032839
20
0.064878
30
0.0
11
-0.033426
21
0.064149
31
0.0
0
LINE
8
0
6
CONTINUOUS
10
-0.033807
20
0.071037
30
0.0
11
-0.032979
21
0.070372
31
0.0
0
LINE
8
0
6
CONTINUOUS
10
-0.033146
20
0.071858
30
0.0
11
-0.033807
21
0.071037
31
0.0
0
LINE
8
0
6
CONTINUOUS
10
-0.059694
20
0.091714
30
0.0
11
-0.058492
21
0.090746
31
0.0
0
LINE
8
0
6
CONTINUOUS
10
-0.059694
20
0.091714
30
0.0
11
-0.058927
21
0.092667
31
0.0
0
LINE
8
0
6
CONTINUOUS
10
-0.060681
20
0.092508
30
0.0
11
-0.059694
21
0.091714
31
0.0
0
LINE
8
0
6
CONTINUOUS
10
-0.059761
20
0.093651
30
0.0
11
-0.060681
21
0.092508
31
0.0
0
LINE
8
0
6
CONTINUOUS
10
-0.052461
20
0.085731
30
0.0
11
-0.052030
21
0.086267
31
0.0
0
LINE
8
0
6
CONTINUOUS
10
-0.053373
20
0.086465
30
0.0
11
-0.052461
21
0.085731
31
0.0
0
LINE
8
0
6
CONTINUOUS
10
-0.061649
20
0.093237
30
0.0
11
-0.060425
21
0.092252
31
0.0
0
LINE
8
0
6
CONTINUOUS
10
-0.038698
20
0.067433
30
0.0
11
-0.037786
21
0.066699
31
0.0
0
LINE
8
0
6
CONTINUOUS
10
-0.051129
20
0.080131
30
0.0
11
-0.050913
21
0.079958
31
0.0
0
LINE
8
0
6
CONTINUOUS
10
-0.050365
20
0.081080
30
0.0
11
-0.051129
21
0.080131
31
0.0
0
LINE
8
0
6
CONTINUOUS
10
0.005385
20
0.036628
30
0.0
11
0.006647
21
0.035613
31
0.0
0
LINE
8
0
6
CONTINUOUS
10
0.004950
20
0.036978
30
0.0
11
0.005385
21
0.036628
31
0.0
0
LINE
8
0
6
CONTINUOUS
10
-0.021839
20
0.053559
30
0.0
11
-0.021183
21
0.054373
31
0.0
0
LINE
8
0
6
CONTINUOUS
10
-0.022666
20
0.054224
30
0.0
11
-0.021839
21
0.053559
31
0.0
0
LINE
8
0
6
CONTINUOUS
10
-0.044954
20
0.073646
30
0.0
11
-0.043817
21
0.072731
31
0.0
0
LINE
8
0
6
CONTINUOUS
10
-0.039861
20
0.070012
30
0.0
11
-0.039612
21
0.068864
31
0.0
0
LINE
8
0
6
CONTINUOUS
10
-0.039612
20
0.068864
30
0.0
11
-0.039524
21
0.068792
31
0.0
0
LINE
8
0
6
CONTINUOUS
10
-0.039524
20
0.068792
30
0.0
11
-0.039268
21
0.068585
31
0.0
0
LINE
8
0
6
CONTINUOUS
10
-0.039268
20
0.068585
30
0.0
11
-0.038855
21
0.068251
31
0.0
0
LINE
8
0
6
CONTINUOUS
10
-0.038449
20
0.068869
30
0.0
11
-0.039048
21
0.069354
31
0.0
0
LINE
8
0
6
CONTINUOUS
10
-0.038855
20
0.068251
30
0.0
11
-0.038297
21
0.067799
31
0.0
0
LINE
8
0
6
CONTINUOUS
10
-0.037706
20
0.068268
30
0.0
11
-0.038449
21
0.068869
31
0.0
0
LINE
8
0
6
CONTINUOUS
10
-0.038297
20
0.067799
30
0.0
11
-0.037605
21
0.067239
31
0.0
0
LINE
8
0
6
CONTINUOUS
10
-0.036832
20
0.067560
30
0.0
11
-0.037706
21
0.068268
31
0.0
0
LINE
8
0
6
CONTINUOUS
10
-0.037605
20
0.067239
30
0.0
11
-0.036791
21
0.066580
31
0.0
0
LINE
8
0
6
CONTINUOUS
10
-0.035838
20
0.066756
30
0.0
11
-0.036832
21
0.067560
31
0.0
0
LINE
8
0
6
CONTINUOUS
10
-0.036791
20
0.066580
30
0.0
11
-0.035866
21
0.065832
31
0.0
0
LINE
8
0
6
CONTINUOUS
10
-0.035866
20
0.065832
30
0.0
11
-0.034842
21
0.065003
31
0.0
0
LINE
8
0
6
CONTINUOUS
10
-0.034842
20
0.065003
30
0.0
11
-0.033730
21
0.064103
31
0.0
0
LINE
8
0
6
CONTINUOUS
10
-0.033730
20
0.064103
30
0.0
11
-0.032542
21
0.063141
31
0.0
0
LINE
8
0
6
CONTINUOUS
10
-0.032542
20
0.063141
30
0.0
11
-0.031289
21
0.062127
31
0.0
0
LINE
8
0
6
CONTINUOUS
10
-0.029519
20
0.061642
30
0.0
11
-0.030922
21
0.062777
31
0.0
0
LINE
8
0
6
CONTINUOUS
10
-0.031289
20
0.062127
30
0.0
11
-0.029983
21
0.061070
31
0.0
0
LINE
8
0
6
CONTINUOUS
10
-0.028117
20
0.060507
30
0.0
11
-0.029519
21
0.061642
31
0.0
0
LINE
8
0
6
CONTINUOUS
10
-0.029983
20
0.061070
30
0.0
11
-0.028676
21
0.060012
31
0.0
0
LINE
8
0
6
CONTINUOUS
10
-0.026771
20
0.059417
30
0.0
11
-0.028117
21
0.060507
31
0.0
0
LINE
8
0
6
CONTINUOUS
10
-0.028676
20
0.060012
30
0.0
11
-0.027423
21
0.058998
31
0.0
0
LINE
8
0
6
CONTINUOUS
10
-0.025495
20
0.058384
30
0.0
11
-0.026771
21
0.059417
31
0.0
0
LINE
8
0
6
CONTINUOUS
10
-0.027423
20
0.058998
30
0.0
11
-0.026235
21
0.058036
31
0.0
0
LINE
8
0
6
CONTINUOUS
10
-0.026235
20
0.058036
30
0.0
11
-0.025123
21
0.057136
31
0.0
0
LINE
8
0
6
CONTINUOUS
10
-0.025123
20
0.057136
30
0.0
11
-0.024099
21
0.056307
31
0.0
0
LINE
8
0
6
CONTINUOUS
10
-0.024099
20
0.056307
30
0.0
11
-0.023174
21
0.055559
31
0.0
0
LINE
8
0
6
CONTINUOUS
10
-0.023174
20
0.055559
30
0.0
11
-0.022360
21
0.054900
31
0.0
0
LINE
8
0
6
CONTINUOUS
10
-0.022360
20
0.054900
30
0.0
11
-0.021668
21
0.054340
31
0.0
0
LINE
8
0
6
CONTINUOUS
10
-0.021668
20
0.054340
30
0.0
11
-0.021110
21
0.053888
31
0.0
0
LINE
8
0
6
CONTINUOUS
10
-0.021110
20
0.053888
30
0.0
11
-0.020697
21
0.053554
31
0.0
0
LINE
8
0
6
CONTINUOUS
10
-0.020697
20
0.053554
30
0.0
11
-0.020441
21
0.053347
31
0.0
0
LINE
8
0
6
CONTINUOUS
10
-0.020353
20
0.053276
30
0.0
11
-0.019178
21
0.053271
31
0.0
0
LINE
8
0
6
CONTINUOUS
10
-0.020441
20
0.053347
30
0.0
11
-0.020353
21
0.053276
31
0.0
0
LINE
8
0
6
CONTINUOUS
10
-0.021617
20
0.061357
30
0.0
11
-0.021182
21
0.061007
31
0.0
0
LINE
8
0
6
CONTINUOUS
10
-0.021118
20
0.061977
30
0.0
11
-0.021617
21
0.061357
31
0.0
0
LINE
8
0
6
CONTINUOUS
10
-0.019920
20
0.059992
30
0.0
11
-0.019092
21
0.059326
31
0.0
0
LINE
8
0
6
CONTINUOUS
10
-0.019032
20
0.061096
30
0.0
11
-0.019920
21
0.059992
31
0.0
0
LINE
8
0
6
CONTINUOUS
10
-0.015411
20
0.049486
30
0.0
11
-0.014723
21
0.050342
31
0.0
0
LINE
8
0
6
CONTINUOUS
10
-0.015846
20
0.049836
30
0.0
11
-0.015411
21
0.049486
31
0.0
0
LINE
8
0
6
CONTINUOUS
10
-0.015846
20
0.049836
30
0.0
11
-0.015145
21
0.050708
31
0.0
0
LINE
8
0
6
CONTINUOUS
10
-0.017108
20
0.050852
30
0.0
11
-0.015846
21
0.049836
31
0.0
0
LINE
8
0
6
CONTINUOUS
10
-0.017108
20
0.050852
30
0.0
11
-0.016490
21
0.051619
31
0.0
0
LINE
8
0
6
CONTINUOUS
10
-0.017936
20
0.051517
30
0.0
11
-0.017108
21
0.050852
31
0.0
0
LINE
8
0
6
CONTINUOUS
10
-0.017410
20
0.052170
30
0.0
11
-0.017936
21
0.051517
31
0.0
0
LINE
8
0
6
CONTINUOUS
10
-0.000069
20
0.039580
30
0.0
11
0.000713
21
0.040552
31
0.0
0
LINE
8
0
6
CONTINUOUS
10
-0.000504
20
0.039930
30
0.0
11
-0.000069
21
0.039580
31
0.0
0
LINE
8
0
6
CONTINUOUS
10
0.000263
20
0.040883
30
0.0
11
-0.000504
21
0.039930
31
0.0
0
LINE
8
0
6
CONTINUOUS
10
-0.001766
20
0.040946
30
0.0
11
-0.001146
21
0.041716
31
0.0
0
LINE
8
0
6
CONTINUOUS
10
-0.002593
20
0.041611
30
0.0
11
-0.001766
21
0.040946
31
0.0
0
LINE
8
0
6
CONTINUOUS
10
-0.002110
20
0.042213
30
0.0
11
-0.002593
21
0.041611
31
0.0
0
LINE
8
0
6
CONTINUOUS
10
-0.025741
20
0.057128
30
0.0
11
-0.025349
21
0.057616
31
0.0
0
LINE
8
0
6
CONTINUOUS
10
-0.027004
20
0.058144
30
0.0
11
-0.025741
21
0.057128
31
0.0
0
LINE
8
0
6
CONTINUOUS
10
-0.027004
20
0.058144
30
0.0
11
-0.026610
21
0.058633
31
0.0
0
LINE
8
0
6
CONTINUOUS
10
-0.027831
20
0.058809
30
0.0
11
-0.027004
21
0.058144
31
0.0
0
LINE
8
0
6
CONTINUOUS
10
-0.027437
20
0.059300
30
0.0
11
-0.027831
21
0.058809
31
0.0
0
LINE
8
0
6
CONTINUOUS
10
-0.010052
20
0.052008
30
0.0
11
-0.009618
21
0.051658
31
0.0
0
LINE
8
0
6
CONTINUOUS
10
-0.009628
20
0.052535
30
0.0
11
-0.010052
21
0.052008
31
0.0
0
LINE
8
0
6
CONTINUOUS
10
-0.009618
20
0.051658
30
0.0
11
-0.008356
21
0.050642
31
0.0
0
LINE
8
0
6
CONTINUOUS
10
-0.008900
20
0.052549
30
0.0
11
-0.009618
21
0.051658
31
0.0
0
LINE
8
0
6
CONTINUOUS
10
-0.008356
20
0.050642
30
0.0
11
-0.007528
21
0.049977
31
0.0
0
LINE
8
0
6
CONTINUOUS
10
-0.007453
20
0.051764
30
0.0
11
-0.008356
21
0.050642
31
0.0
0
LINE
8
0
6
CONTINUOUS
10
-0.001235
20
0.043903
30
0.0
11
-0.000801
21
0.043553
31
0.0
0
LINE
8
0
6
CONTINUOUS
10
-0.000769
20
0.044482
30
0.0
11
-0.001235
21
0.043903
31
0.0
0
LINE
8
0
6
CONTINUOUS
10
-0.000801
20
0.043553
30
0.0
11
0.000461
21
0.042537
31
0.0
0
LINE
8
0
6
CONTINUOUS
10
-0.000033
20
0.044507
30
0.0
11
-0.000801
21
0.043553
31
0.0
0
LINE
8
0
6
CONTINUOUS
10
0.000461
20
0.042537
30
0.0
11
0.001289
21
0.041872
31
0.0
0
LINE
8
0
6
CONTINUOUS
10
0.001480
20
0.043803
30
0.0
11
0.000461
21
0.042537
31
0.0
0
LINE
8
0
6
CONTINUOUS
10
-0.006784
20
0.045811
30
0.0
11
-0.006349
21
0.045461
31
0.0
0
LINE
8
0
6
CONTINUOUS
10
-0.006468
20
0.046204
30
0.0
11
-0.006784
21
0.045811
31
0.0
0
LINE
8
0
6
CONTINUOUS
10
-0.006349
20
0.045461
30
0.0
11
-0.005087
21
0.044446
31
0.0
0
LINE
8
0
6
CONTINUOUS
10
-0.005828
20
0.046109
30
0.0
11
-0.006349
21
0.045461
31
0.0
0
LINE
8
0
6
CONTINUOUS
10
-0.005087
20
0.044446
30
0.0
11
-0.004260
21
0.043780
31
0.0
0
LINE
8
0
6
CONTINUOUS
10
-0.004406
20
0.045292
30
0.0
11
-0.005087
21
0.044446
31
0.0
0
LINE
8
0
6
CONTINUOUS
10
-0.015326
20
0.053140
30
0.0
11
-0.014891
21
0.052790
31
0.0
0
LINE
8
0
6
CONTINUOUS
10
-0.014861
20
0.053717
30
0.0
11
-0.015326
21
0.053140
31
0.0
0
LINE
8
0
6
CONTINUOUS
10
-0.014891
20
0.052790
30
0.0
11
-0.013629
21
0.051775
31
0.0
0
LINE
8
0
6
CONTINUOUS
10
-0.014214
20
0.053631
30
0.0
11
-0.014891
21
0.052790
31
0.0
0
LINE
8
0
6
CONTINUOUS
10
-0.013629
20
0.051775
30
0.0
11
-0.012802
21
0.051109
31
0.0
0
LINE
8
0
6
CONTINUOUS
10
-0.012821
20
0.052779
30
0.0
11
-0.013629
21
0.051775
31
0.0
0
LINE
8
0
6
CONTINUOUS
10
-0.010102
20
0.046503
30
0.0
11
-0.009368
21
0.047415
31
0.0
0
LINE
8
0
6
CONTINUOUS
10
-0.011365
20
0.047518
30
0.0
11
-0.010102
21
0.046503
31
0.0
0
LINE
8
0
6
CONTINUOUS
10
-0.011365
20
0.047518
30
0.0
11
-0.010703
21
0.048340
31
0.0
0
LINE
8
0
6
CONTINUOUS
10
-0.012192
20
0.048184
30
0.0
11
-0.011365
21
0.047518
31
0.0
0
LINE
8
0
6
CONTINUOUS
10
-0.011677
20
0.048823
30
0.0
11
-0.012192
21
0.048184
31
0.0
0
LINE
8
0
6
CONTINUOUS
10
0.006542
20
0.036223
30
0.0
11
0.007664
21
0.037618
31
0.0
0
LINE
8
0
6
CONTINUOUS
10
0.006108
20
0.036573
30
0.0
11
0.006542
21
0.036223
31
0.0
0
LINE
8
0
6
CONTINUOUS
10
0.006108
20
0.036573
30
0.0
11
0.007262
21
0.038008
31
0.0
0
LINE
8
0
6
CONTINUOUS
10
0.004845
20
0.037588
30
0.0
11
0.006108
21
0.036573
31
0.0
0
LINE
8
0
6
CONTINUOUS
10
0.004845
20
0.037588
30
0.0
11
0.005860
21
0.038849
31
0.0
0
LINE
8
0
6
CONTINUOUS
10
0.004018
20
0.038254
30
0.0
11
0.004845
21
0.037588
31
0.0
0
LINE
8
0
6
CONTINUOUS
10
0.004838
20
0.039274
30
0.0
11
0.004018
21
0.038254
31
0.0
0
LINE
8
0
6
CONTINUOUS
10
-0.025068
20
0.061178
30
0.0
11
-0.024287
21
0.062148
31
0.0
0
LINE
8
0
6
CONTINUOUS
10
-0.025895
20
0.061844
30
0.0
11
-0.025068
21
0.061178
31
0.0
0
LINE
8
0
6
CONTINUOUS
10
-0.025282
20
0.062606
30
0.0
11
-0.025895
21
0.061844
31
0.0
0
LINE
8
0
6
CONTINUOUS
10
-0.027675
20
0.061000
30
0.0
11
-0.027064
21
0.061759
31
0.0
0
LINE
8
0
6
CONTINUOUS
10
-0.028110
20
0.061350
30
0.0
11
-0.027675
21
0.061000
31
0.0
0
LINE
8
0
6
CONTINUOUS
10
-0.027335
20
0.062313
30
0.0
11
-0.028110
21
0.061350
31
0.0
0
LINE
8
0
6
CONTINUOUS
10
-0.029372
20
0.062365
30
0.0
11
-0.028586
21
0.063342
31
0.0
0
LINE
8
0
6
CONTINUOUS
10
-0.030199
20
0.063031
30
0.0
11
-0.029372
21
0.062365
31
0.0
0
LINE
8
0
6
CONTINUOUS
10
-0.029577
20
0.063804
30
0.0
11
-0.030199
21
0.063031
31
0.0
0
LINE
8
0
6
CONTINUOUS
10
-0.021539
20
0.054357
30
0.0
11
-0.020950
21
0.055089
31
0.0
0
LINE
8
0
6
CONTINUOUS
10
-0.021974
20
0.054706
30
0.0
11
-0.021539
21
0.054357
31
0.0
0
LINE
8
0
6
CONTINUOUS
10
-0.021974
20
0.054706
30
0.0
11
-0.021265
21
0.055588
31
0.0
0
LINE
8
0
6
CONTINUOUS
10
-0.023236
20
0.055722
30
0.0
11
-0.021974
21
0.054706
31
0.0
0
LINE
8
0
6
CONTINUOUS
10
-0.023236
20
0.055722
30
0.0
11
-0.022511
21
0.056623
31
0.0
0
LINE
8
0
6
CONTINUOUS
10
-0.024063
20
0.056388
30
0.0
11
-0.023236
21
0.055722
31
0.0
0
LINE
8
0
6
CONTINUOUS
10
-0.023450
20
0.057150
30
0.0
11
-0.024063
21
0.056388
31
0.0
0
LINE
8
0
6
CONTINUOUS
10
-0.053478
20
0.084069
30
0.0
11
-0.052748
21
0.084975
31
0.0
0
LINE
8
0
6
CONTINUOUS
10
-0.054615
20
0.084983
30
0.0
11
-0.053478
21
0.084069
31
0.0
0
LINE
8
0
6
CONTINUOUS
10
-0.054615
20
0.084983
30
0.0
11
-0.053786
21
0.086014
31
0.0
0
LINE
8
0
6
CONTINUOUS
10
-0.054670
20
0.085028
30
0.0
11
-0.054615
21
0.084983
31
0.0
0
LINE
8
0
6
CONTINUOUS
10
-0.053959
20
0.085912
30
0.0
11
-0.054670
21
0.085028
31
0.0
0
LINE
8
0
6
CONTINUOUS
10
-0.046173
20
0.075996
30
0.0
11
-0.045686
21
0.076602
31
0.0
0
LINE
8
0
6
CONTINUOUS
10
-0.047255
20
0.076866
30
0.0
11
-0.046173
21
0.075996
31
0.0
0
LINE
8
0
6
CONTINUOUS
10
-0.047255
20
0.076866
30
0.0
11
-0.046577
21
0.077709
31
0.0
0
LINE
8
0
6
CONTINUOUS
10
-0.048392
20
0.077781
30
0.0
11
-0.047255
21
0.076866
31
0.0
0
LINE
8
0
6
CONTINUOUS
10
-0.048392
20
0.077781
30
0.0
11
-0.047615
21
0.078748
31
0.0
0
LINE
8
0
6
CONTINUOUS
10
-0.048448
20
0.077826
30
0.0
11
-0.048392
21
0.077781
31
0.0
0
LINE
8
0
6
CONTINUOUS
10
-0.047696
20
0.078760
30
0.0
11
-0.048448
21
0.077826
31
0.0
0
LINE
8
0
6
CONTINUOUS
10
-0.045586
20
0.077645
30
0.0
11
-0.045086
21
0.078266
31
0.0
0
LINE
8
0
6
CONTINUOUS
10
-0.046499
20
0.078379
30
0.0
11
-0.045586
21
0.077645
31
0.0
0
LINE
8
0
6
CONTINUOUS
10
-0.046499
20
0.078379
30
0.0
11
-0.045717
21
0.079351
31
0.0
0
LINE
8
0
6
CONTINUOUS
10
-0.047735
20
0.079374
30
0.0
11
-0.046499
21
0.078379
31
0.0
0
LINE
8
0
6
CONTINUOUS
10
-0.047735
20
0.079374
30
0.0
11
-0.046859
21
0.080463
31
0.0
0
LINE
8
0
6
CONTINUOUS
10
-0.048059
20
0.079635
30
0.0
11
-0.047735
21
0.079374
31
0.0
0
LINE
8
0
6
CONTINUOUS
10
-0.047335
20
0.080535
30
0.0
11
-0.048059
21
0.079635
31
0.0
0
LINE
8
0
6
CONTINUOUS
10
-0.039432
20
0.069243
30
0.0
11
-0.038906
21
0.069897
31
0.0
0
LINE
8
0
6
CONTINUOUS
10
-0.040345
20
0.069978
30
0.0
11
-0.039432
21
0.069243
31
0.0
0
LINE
8
0
6
CONTINUOUS
10
-0.039725
20
0.070748
30
0.0
11
-0.040345
21
0.069978
31
0.0
0
LINE
8
0
6
CONTINUOUS
10
-0.041581
20
0.070972
30
0.0
11
-0.040876
21
0.071848
31
0.0
0
LINE
8
0
6
CONTINUOUS
10
-0.041905
20
0.071233
30
0.0
11
-0.041581
21
0.070972
31
0.0
0
LINE
8
0
6
CONTINUOUS
10
-0.041210
20
0.072097
30
0.0
11
-0.041905
21
0.071233
31
0.0
0
LINE
8
0
6
CONTINUOUS
10
-0.035320
20
0.069569
30
0.0
11
-0.034725
21
0.070308
31
0.0
0
LINE
8
0
6
CONTINUOUS
10
-0.036023
20
0.070134
30
0.0
11
-0.035320
21
0.069569
31
0.0
0
LINE
8
0
6
CONTINUOUS
10
-0.036023
20
0.070134
30
0.0
11
-0.035268
21
0.071072
31
0.0
0
LINE
8
0
6
CONTINUOUS
10
-0.037303
20
0.071164
30
0.0
11
-0.036023
21
0.070134
31
0.0
0
LINE
8
0
6
CONTINUOUS
10
-0.037303
20
0.071164
30
0.0
11
-0.036525
21
0.072131
31
0.0
0
LINE
8
0
6
CONTINUOUS
10
-0.037881
20
0.071629
30
0.0
11
-0.037303
21
0.071164
31
0.0
0
LINE
8
0
6
CONTINUOUS
10
-0.037239
20
0.072427
30
0.0
11
-0.037881
21
0.071629
31
0.0
0
LINE
8
0
6
CONTINUOUS
10
-0.038308
20
0.069876
30
0.0
11
-0.037752
21
0.070566
31
0.0
0
LINE
8
0
6
CONTINUOUS
10
-0.039010
20
0.070441
30
0.0
11
-0.038308
21
0.069876
31
0.0
0
LINE
8
0
6
CONTINUOUS
10
-0.039010
20
0.070441
30
0.0
11
-0.038333
21
0.071283
31
0.0
0
LINE
8
0
6
CONTINUOUS
10
-0.040290
20
0.071471
30
0.0
11
-0.039010
21
0.070441
31
0.0
0
LINE
8
0
6
CONTINUOUS
10
-0.040290
20
0.071471
30
0.0
11
-0.039553
21
0.072387
31
0.0
0
LINE
8
0
6
CONTINUOUS
10
-0.040868
20
0.071936
30
0.0
11
-0.040290
21
0.071471
31
0.0
0
LINE
8
0
6
CONTINUOUS
10
-0.040193
20
0.072775
30
0.0
11
-0.040868
21
0.071936
31
0.0
0
LINE
8
0
6
CONTINUOUS
10
-0.030865
20
0.062089
30
0.0
11
-0.030231
21
0.062877
31
0.0
0
LINE
8
0
6
CONTINUOUS
10
-0.031567
20
0.062654
30
0.0
11
-0.030865
21
0.062089
31
0.0
0
LINE
8
0
6
CONTINUOUS
10
-0.031567
20
0.062654
30
0.0
11
-0.030837
21
0.063562
31
0.0
0
LINE
8
0
6
CONTINUOUS
10
-0.032848
20
0.063684
30
0.0
11
-0.031567
21
0.062654
31
0.0
0
LINE
8
0
6
CONTINUOUS
10
-0.032141
20
0.064562
30
0.0
11
-0.032848
21
0.063684
31
0.0
0
LINE
8
0
6
CONTINUOUS
10
-0.032473
20
0.062492
30
0.0
11
-0.032049
21
0.063019
31
0.0
0
LINE
8
0
6
CONTINUOUS
10
-0.033175
20
0.063057
30
0.0
11
-0.032473
21
0.062492
31
0.0
0
LINE
8
0
6
CONTINUOUS
10
-0.033175
20
0.063057
30
0.0
11
-0.032751
21
0.063585
31
0.0
0
LINE
8
0
6
CONTINUOUS
10
-0.034456
20
0.064088
30
0.0
11
-0.033175
21
0.063057
31
0.0
0
LINE
8
0
6
CONTINUOUS
10
-0.034456
20
0.064088
30
0.0
11
-0.034030
21
0.064616
31
0.0
0
LINE
8
0
6
CONTINUOUS
10
-0.035034
20
0.064553
30
0.0
11
-0.034456
21
0.064088
31
0.0
0
LINE
8
0
6
CONTINUOUS
10
-0.034608
20
0.065082
30
0.0
11
-0.035034
21
0.064553
31
0.0
0
LINE
8
0
6
CONTINUOUS
10
-0.031282
20
0.069006
30
0.0
11
-0.030707
21
0.069722
31
0.0
0
LINE
8
0
6
CONTINUOUS
10
-0.031717
20
0.069356
30
0.0
11
-0.031282
21
0.069006
31
0.0
0
LINE
8
0
6
CONTINUOUS
10
-0.031717
20
0.069356
30
0.0
11
-0.030905
21
0.070366
31
0.0
0
LINE
8
0
6
CONTINUOUS
10
-0.032979
20
0.070372
30
0.0
11
-0.031717
21
0.069356
31
0.0
0
LINE
8
0
6
CONTINUOUS
10
-0.032124
20
0.071434
30
0.0
11
-0.032979
21
0.070372
31
0.0
0
LINE
8
0
6
CONTINUOUS
10
-0.058276
20
0.090573
30
0.0
11
-0.058007
21
0.090907
31
0.0
0
LINE
8
0
6
CONTINUOUS
10
-0.058492
20
0.090746
30
0.0
11
-0.058276
21
0.090573
31
0.0
0
LINE
8
0
6
CONTINUOUS
10
-0.058050
20
0.091295
30
0.0
11
-0.058492
21
0.090746
31
0.0
0
LINE
8
0
6
CONTINUOUS
10
-0.053373
20
0.086465
30
0.0
11
-0.052630
21
0.087389
31
0.0
0
LINE
8
0
6
CONTINUOUS
10
-0.054610
20
0.087460
30
0.0
11
-0.053373
21
0.086465
31
0.0
0
LINE
8
0
6
CONTINUOUS
10
-0.054610
20
0.087460
30
0.0
11
-0.053690
21
0.088603
31
0.0
0
LINE
8
0
6
CONTINUOUS
10
-0.054934
20
0.087720
30
0.0
11
-0.054610
21
0.087460
31
0.0
0
LINE
8
0
6
CONTINUOUS
10
-0.054140
20
0.088708
30
0.0
11
-0.054934
21
0.087720
31
0.0
0
LINE
8
0
6
CONTINUOUS
10
-0.043054
20
0.078264
30
0.0
11
-0.042554
21
0.078886
31
0.0
0
LINE
8
0
6
CONTINUOUS
10
-0.043756
20
0.078829
30
0.0
11
-0.043054
21
0.078264
31
0.0
0
LINE
8
0
6
CONTINUOUS
10
-0.043756
20
0.078829
30
0.0
11
-0.042939
21
0.079845
31
0.0
0
LINE
8
0
6
CONTINUOUS
10
-0.045036
20
0.079859
30
0.0
11
-0.043756
21
0.078829
31
0.0
0
LINE
8
0
6
CONTINUOUS
10
-0.045036
20
0.079859
30
0.0
11
-0.044126
21
0.080991
31
0.0
0
LINE
8
0
6
CONTINUOUS
10
-0.045614
20
0.080324
30
0.0
11
-0.045036
21
0.079859
31
0.0
0
LINE
8
0
6
CONTINUOUS
10
-0.044912
20
0.081197
30
0.0
11
-0.045614
21
0.080324
31
0.0
0
LINE
8
0
6
CONTINUOUS
10
-0.060425
20
0.092252
30
0.0
11
-0.060145
21
0.092027
31
0.0
0
LINE
8
0
6
CONTINUOUS
10
-0.061649
20
0.093237
30
0.0
11
-0.060988
21
0.094059
31
0.0
0
LINE
8
0
6
CONTINUOUS
10
-0.062593
20
0.093996
30
0.0
11
-0.061649
21
0.093237
31
0.0
0
LINE
8
0
6
CONTINUOUS
10
-0.061705
20
0.095100
30
0.0
11
-0.062593
21
0.093996
31
0.0
0
LINE
8
0
6
CONTINUOUS
10
-0.037786
20
0.066699
30
0.0
11
-0.036549
21
0.065704
31
0.0
0
LINE
8
0
6
CONTINUOUS
10
-0.037159
20
0.067478
30
0.0
11
-0.037786
21
0.066699
31
0.0
0
LINE
8
0
6
CONTINUOUS
10
-0.036225
20
0.065443
30
0.0
11
-0.035728
21
0.066062
31
0.0
0
LINE
8
0
6
CONTINUOUS
10
-0.036549
20
0.065704
30
0.0
11
-0.036225
21
0.065443
31
0.0
0
LINE
8
0
6
CONTINUOUS
10
-0.036001
20
0.066386
30
0.0
11
-0.036549
21
0.065704
31
0.0
0
LINE
8
0
6
CONTINUOUS
10
-0.048724
20
0.078196
30
0.0
11
-0.048310
21
0.078711
31
0.0
0
LINE
8
0
6
CONTINUOUS
10
-0.049711
20
0.078990
30
0.0
11
-0.048724
21
0.078196
31
0.0
0
LINE
8
0
6
CONTINUOUS
10
-0.049711
20
0.078990
30
0.0
11
-0.049153
21
0.079683
31
0.0
0
LINE
8
0
6
CONTINUOUS
10
-0.050913
20
0.079958
30
0.0
11
-0.049711
21
0.078990
31
0.0
0
LINE
8
0
6
CONTINUOUS
10
-0.050173
20
0.080878
30
0.0
11
-0.050913
21
0.079958
31
0.0
0
LINE
8
0
6
CONTINUOUS
10
-0.054864
20
0.085251
30
0.0
11
-0.054441
21
0.085777
31
0.0
0
LINE
8
0
6
CONTINUOUS
10
-0.055851
20
0.086045
30
0.0
11
-0.054864
21
0.085251
31
0.0
0
LINE
8
0
6
CONTINUOUS
10
-0.055851
20
0.086045
30
0.0
11
-0.055284
21
0.086749
31
0.0
0
LINE
8
0
6
CONTINUOUS
10
-0.057053
20
0.087012
30
0.0
11
-0.055851
21
0.086045
31
0.0
0
LINE
8
0
6
CONTINUOUS
10
-0.057053
20
0.087012
30
0.0
11
-0.056312
21
0.087933
31
0.0
0
LINE
8
0
6
CONTINUOUS
10
-0.057269
20
0.087186
30
0.0
11
-0.057053
21
0.087012
31
0.0
0
LINE
8
0
6
CONTINUOUS
10
-0.056497
20
0.088146
30
0.0
11
-0.057269
21
0.087186
31
0.0
0
LINE
8
0
6
CONTINUOUS
10
0.007474
20
0.034947
30
0.0
11
0.008080
21
0.035700
31
0.0
0
LINE
8
0
6
CONTINUOUS
10
0.006647
20
0.035613
30
0.0
11
0.007474
21
0.034947
31
0.0
0
LINE
8
0
6
CONTINUOUS
10
0.007263
20
0.036379
30
0.0
11
0.006647
21
0.035613
31
0.0
0
LINE
8
0
6
CONTINUOUS
10
-0.009048
20
0.045245
30
0.0
11
-0.007786
21
0.044229
31
0.0
0
LINE
8
0
6
CONTINUOUS
10
-0.006959
20
0.043563
30
0.0
11
-0.006267
21
0.044423
31
0.0
0
LINE
8
0
6
CONTINUOUS
10
-0.007786
20
0.044229
30
0.0
11
-0.006959
21
0.043563
31
0.0
0
LINE
8
0
6
CONTINUOUS
10
-0.007135
20
0.045039
30
0.0
11
-0.007786
21
0.044229
31
0.0
0
LINE
8
0
6
CONTINUOUS
10
-0.009048
20
0.045245
30
0.0
11
-0.008515
21
0.045907
31
0.0
0
LINE
8
0
6
CONTINUOUS
10
-0.009483
20
0.045594
30
0.0
11
-0.009048
21
0.045245
31
0.0
0
LINE
8
0
6
CONTINUOUS
10
-0.008983
20
0.046216
30
0.0
11
-0.009483
21
0.045594
31
0.0
0
LINE
8
0
6
CONTINUOUS
10
-0.022666
20
0.054224
30
0.0
11
-0.022066
21
0.054970
31
0.0
0
LINE
8
0
6
CONTINUOUS
10
-0.023928
20
0.055240
30
0.0
11
-0.022666
21
0.054224
31
0.0
0
LINE
8
0
6
CONTINUOUS
10
-0.023928
20
0.055240
30
0.0
11
-0.023327
21
0.055987
31
0.0
0
LINE
8
0
6
CONTINUOUS
10
-0.024363
20
0.055590
30
0.0
11
-0.023928
21
0.055240
31
0.0
0
LINE
8
0
6
CONTINUOUS
10
-0.023762
20
0.056337
30
0.0
11
-0.024363
21
0.055590
31
0.0
0
LINE
8
0
6
CONTINUOUS
10
-0.042735
20
0.071861
30
0.0
11
-0.042227
21
0.072492
31
0.0
0
LINE
8
0
6
CONTINUOUS
10
-0.043817
20
0.072731
30
0.0
11
-0.042735
21
0.071861
31
0.0
0
LINE
8
0
6
CONTINUOUS
10
-0.043186
20
0.073515
30
0.0
11
-0.043817
21
0.072731
31
0.0
0
LINE
8
0
6
CONTINUOUS
10
-0.044954
20
0.073646
30
0.0
11
-0.044263
21
0.074505
31
0.0
0
LINE
8
0
6
CONTINUOUS
10
-0.045009
20
0.073691
30
0.0
11
-0.044954
21
0.073646
31
0.0
0
LINE
8
0
6
CONTINUOUS
10
-0.044313
20
0.074555
30
0.0
11
-0.045009
21
0.073691
31
0.0
0
LINE
8
0
6
CONTINUOUS
10
-0.060145
20
0.092027
30
0.0
11
-0.060425
21
0.092252
31
0.0
0
LINE
8
0
6
CONTINUOUS
10
-0.061649
20
0.093237
30
0.0
11
-0.062593
21
0.093996
31
0.0
0
LINE
8
0
6
CONTINUOUS
10
-0.060425
20
0.092252
30
0.0
11
-0.061649
21
0.093237
31
0.0
0
LINE
8
0
6
CONTINUOUS
10
-0.031282
20
0.069006
30
0.0
11
-0.031717
21
0.069356
31
0.0
0
LINE
8
0
6
CONTINUOUS
10
-0.032979
20
0.070372
30
0.0
11
-0.033807
21
0.071037
31
0.0
0
LINE
8
0
6
CONTINUOUS
10
-0.031717
20
0.069356
30
0.0
11
-0.032979
21
0.070372
31
0.0
0
LINE
8
0
6
CONTINUOUS
10
-0.032473
20
0.062492
30
0.0
11
-0.033175
21
0.063057
31
0.0
0
LINE
8
0
6
CONTINUOUS
10
-0.034456
20
0.064088
30
0.0
11
-0.035034
21
0.064553
31
0.0
0
LINE
8
0
6
CONTINUOUS
10
-0.033175
20
0.063057
30
0.0
11
-0.034456
21
0.064088
31
0.0
0
LINE
8
0
6
CONTINUOUS
10
-0.019305
20
0.054106
30
0.0
11
-0.019740
21
0.054456
31
0.0
0
LINE
8
0
6
CONTINUOUS
10
-0.018043
20
0.053091
30
0.0
11
-0.019305
21
0.054106
31
0.0
0
LINE
8
0
6
CONTINUOUS
10
-0.017216
20
0.052425
30
0.0
11
-0.018043
21
0.053091
31
0.0
0
LINE
8
0
6
CONTINUOUS
10
-0.001766
20
0.040946
30
0.0
11
-0.002593
21
0.041611
31
0.0
0
LINE
8
0
6
CONTINUOUS
10
-0.000504
20
0.039930
30
0.0
11
-0.001766
21
0.040946
31
0.0
0
LINE
8
0
6
CONTINUOUS
10
-0.000069
20
0.039580
30
0.0
11
-0.000504
21
0.039930
31
0.0
0
LINE
8
0
6
CONTINUOUS
10
-0.027675
20
0.061000
30
0.0
11
-0.028110
21
0.061350
31
0.0
0
LINE
8
0
6
CONTINUOUS
10
-0.029372
20
0.062365
30
0.0
11
-0.030199
21
0.063031
31
0.0
0
LINE
8
0
6
CONTINUOUS
10
-0.028110
20
0.061350
30
0.0
11
-0.029372
21
0.062365
31
0.0
0
LINE
8
0
6
CONTINUOUS
10
-0.032848
20
0.063684
30
0.0
11
-0.033426
21
0.064149
31
0.0
0
LINE
8
0
6
CONTINUOUS
10
-0.031567
20
0.062654
30
0.0
11
-0.032848
21
0.063684
31
0.0
0
LINE
8
0
6
CONTINUOUS
10
-0.030865
20
0.062089
30
0.0
11
-0.031567
21
0.062654
31
0.0
0
LINE
8
0
6
CONTINUOUS
10
-0.058492
20
0.090746
30
0.0
11
-0.059694
21
0.091714
31
0.0
0
LINE
8
0
6
CONTINUOUS
10
-0.058276
20
0.090573
30
0.0
11
-0.058492
21
0.090746
31
0.0
0
LINE
8
0
6
CONTINUOUS
10
-0.059694
20
0.091714
30
0.0
11
-0.060681
21
0.092508
31
0.0
0
LINE
8
0
6
CONTINUOUS
10
-0.054864
20
0.085251
30
0.0
11
-0.055851
21
0.086045
31
0.0
0
LINE
8
0
6
CONTINUOUS
10
-0.057053
20
0.087012
30
0.0
11
-0.057269
21
0.087186
31
0.0
0
LINE
8
0
6
CONTINUOUS
10
-0.055851
20
0.086045
30
0.0
11
-0.057053
21
0.087012
31
0.0
0
LINE
8
0
6
CONTINUOUS
10
-0.012802
20
0.051109
30
0.0
11
-0.013629
21
0.051775
31
0.0
0
LINE
8
0
6
CONTINUOUS
10
-0.014891
20
0.052790
30
0.0
11
-0.015326
21
0.053140
31
0.0
0
LINE
8
0
6
CONTINUOUS
10
-0.013629
20
0.051775
30
0.0
11
-0.014891
21
0.052790
31
0.0
0
LINE
8
0
6
CONTINUOUS
10
0.005385
20
0.036628
30
0.0
11
0.004950
21
0.036978
31
0.0
0
LINE
8
0
6
CONTINUOUS
10
0.006647
20
0.035613
30
0.0
11
0.005385
21
0.036628
31
0.0
0
LINE
8
0
6
CONTINUOUS
10
0.007474
20
0.034947
30
0.0
11
0.006647
21
0.035613
31
0.0
0
LINE
8
0
6
CONTINUOUS
10
-0.023236
20
0.055722
30
0.0
11
-0.024063
21
0.056388
31
0.0
0
LINE
8
0
6
CONTINUOUS
10
-0.021974
20
0.054706
30
0.0
11
-0.023236
21
0.055722
31
0.0
0
LINE
8
0
6
CONTINUOUS
10
-0.021539
20
0.054357
30
0.0
11
-0.021974
21
0.054706
31
0.0
0
LINE
8
0
6
CONTINUOUS
10
-0.044954
20
0.073646
30
0.0
11
-0.045009
21
0.073691
31
0.0
0
LINE
8
0
6
CONTINUOUS
10
-0.043817
20
0.072731
30
0.0
11
-0.044954
21
0.073646
31
0.0
0
LINE
8
0
6
CONTINUOUS
10
-0.042735
20
0.071861
30
0.0
11
-0.043817
21
0.072731
31
0.0
0
LINE
8
0
6
CONTINUOUS
10
-0.025307
20
0.056779
30
0.0
11
-0.025741
21
0.057128
31
0.0
0
LINE
8
0
6
CONTINUOUS
10
-0.027004
20
0.058144
30
0.0
11
-0.027831
21
0.058809
31
0.0
0
LINE
8
0
6
CONTINUOUS
10
-0.025741
20
0.057128
30
0.0
11
-0.027004
21
0.058144
31
0.0
0
LINE
8
0
6
CONTINUOUS
10
-0.015411
20
0.049486
30
0.0
11
-0.015846
21
0.049836
31
0.0
0
LINE
8
0
6
CONTINUOUS
10
-0.017108
20
0.050852
30
0.0
11
-0.017936
21
0.051517
31
0.0
0
LINE
8
0
6
CONTINUOUS
10
-0.015846
20
0.049836
30
0.0
11
-0.017108
21
0.050852
31
0.0
0
LINE
8
0
6
CONTINUOUS
10
-0.021839
20
0.053559
30
0.0
11
-0.022666
21
0.054224
31
0.0
0
LINE
8
0
6
CONTINUOUS
10
-0.023928
20
0.055240
30
0.0
11
-0.024363
21
0.055590
31
0.0
0
LINE
8
0
6
CONTINUOUS
10
-0.022666
20
0.054224
30
0.0
11
-0.023928
21
0.055240
31
0.0
0
LINE
8
0
6
CONTINUOUS
10
-0.040290
20
0.071471
30
0.0
11
-0.040868
21
0.071936
31
0.0
0
LINE
8
0
6
CONTINUOUS
10
-0.039010
20
0.070441
30
0.0
11
-0.040290
21
0.071471
31
0.0
0
LINE
8
0
6
CONTINUOUS
10
-0.038308
20
0.069876
30
0.0
11
-0.039010
21
0.070441
31
0.0
0
LINE
8
0
6
CONTINUOUS
10
-0.054615
20
0.084983
30
0.0
11
-0.054670
21
0.085028
31
0.0
0
LINE
8
0
6
CONTINUOUS
10
-0.053478
20
0.084069
30
0.0
11
-0.054615
21
0.084983
31
0.0
0
LINE
8
0
6
CONTINUOUS
10
-0.052396
20
0.083198
30
0.0
11
-0.053478
21
0.084069
31
0.0
0
LINE
8
0
6
CONTINUOUS
10
-0.052461
20
0.085731
30
0.0
11
-0.053373
21
0.086465
31
0.0
0
LINE
8
0
6
CONTINUOUS
10
-0.054610
20
0.087460
30
0.0
11
-0.054934
21
0.087720
31
0.0
0
LINE
8
0
6
CONTINUOUS
10
-0.053373
20
0.086465
30
0.0
11
-0.054610
21
0.087460
31
0.0
0
LINE
8
0
6
CONTINUOUS
10
0.126500
20
-0.108697
30
0.0
11
0.126500
21
-0.107750
31
0.0
0
LINE
8
0
6
CONTINUOUS
10
0.126500
20
-0.107750
30
0.0
11
0.125307
21
-0.107750
31
0.0
0
LINE
8
0
6
CONTINUOUS
10
0.125307
20
-0.107750
30
0.0
11
0.121811
21
-0.107750
31
0.0
0
LINE
8
0
6
CONTINUOUS
10
0.121811
20
-0.107750
30
0.0
11
0.116249
21
-0.107750
31
0.0
0
LINE
8
0
6
CONTINUOUS
10
0.066751
20
-0.107750
30
0.0
11
0.061189
21
-0.107750
31
0.0
0
LINE
8
0
6
CONTINUOUS
10
0.061189
20
-0.107750
30
0.0
11
0.057693
21
-0.107750
31
0.0
0
LINE
8
0
6
CONTINUOUS
10
0.056500
20
-0.107750
30
0.0
11
0.056500
21
-0.108697
31
0.0
0
LINE
8
0
6
CONTINUOUS
10
0.057693
20
-0.107750
30
0.0
11
0.056500
21
-0.107750
31
0.0
0
LINE
8
0
6
CONTINUOUS
10
0.067500
20
-0.071877
30
0.0
11
0.067500
21
-0.107750
31
0.0
0
LINE
8
0
6
CONTINUOUS
10
0.077000
20
-0.026263
30
0.0
11
0.077000
21
-0.038941
31
0.0
0
LINE
8
0
6
CONTINUOUS
10
0.076859
20
-0.020041
30
0.0
11
0.077036
21
-0.023139
31
0.0
0
LINE
8
0
6
CONTINUOUS
10
0.105616
20
-0.018803
30
0.0
11
0.104557
21
-0.011449
31
0.0
0
LINE
8
0
6
CONTINUOUS
10
0.074880
20
-0.014141
30
0.0
11
0.076125
21
-0.017005
31
0.0
0
LINE
8
0
6
CONTINUOUS
10
0.102266
20
-0.004339
30
0.0
11
0.098789
21
0.002272
31
0.0
0
LINE
8
0
6
CONTINUOUS
10
0.071243
20
-0.009092
30
0.0
11
0.073243
21
-0.011473
31
0.0
0
LINE
8
0
6
CONTINUOUS
10
0.094413
20
0.008346
30
0.0
11
0.089215
21
0.013668
31
0.0
0
LINE
8
0
6
CONTINUOUS
10
0.066272
20
-0.005347
30
0.0
11
0.068893
21
-0.007025
31
0.0
0
LINE
8
0
6
CONTINUOUS
10
0.083245
20
0.018181
30
0.0
11
0.076695
21
0.021716
31
0.0
0
LINE
8
0
6
CONTINUOUS
10
0.060415
20
-0.003242
30
0.0
11
0.063415
21
-0.004075
31
0.0
0
LINE
8
0
6
CONTINUOUS
10
0.069654
20
0.024175
30
0.0
11
0.062352
21
0.025693
31
0.0
0
LINE
8
0
6
CONTINUOUS
10
0.058196
20
-0.003123
30
0.0
11
0.060415
21
-0.003242
31
0.0
0
LINE
8
0
6
CONTINUOUS
10
0.062352
20
0.025693
30
0.0
11
0.053708
21
0.026086
31
0.0
0
LINE
8
0
6
CONTINUOUS
10
-0.125465
20
0.002278
30
0.0
11
-0.119591
21
0.002110
31
0.0
0
LINE
8
0
6
CONTINUOUS
10
-0.092531
20
0.001333
30
0.0
11
0.032428
21
-0.002256
31
0.0
0
LINE
8
0
6
CONTINUOUS
10
0.053708
20
0.026086
30
0.0
11
0.042620
21
0.026406
31
0.0
0
LINE
8
0
6
CONTINUOUS
10
0.016642
20
0.027157
30
0.0
11
-0.123786
21
0.031213
31
0.0
0
LINE
8
0
6
CONTINUOUS
10
-0.125031
20
0.027640
30
0.0
11
-0.124920
21
0.029546
31
0.0
0
LINE
8
0
6
CONTINUOUS
10
-0.126500
20
0.002315
30
0.0
11
-0.125465
21
0.002278
31
0.0
0
LINE
8
0
6
CONTINUOUS
10
-0.126459
20
0.003023
30
0.0
11
-0.126500
21
0.002315
31
0.0
0
LINE
8
0
6
CONTINUOUS
10
-0.126340
20
0.005078
30
0.0
11
-0.126459
21
0.003023
31
0.0
0
LINE
8
0
6
CONTINUOUS
10
-0.126154
20
0.008279
30
0.0
11
-0.126340
21
0.005078
31
0.0
0
LINE
8
0
6
CONTINUOUS
10
-0.125920
20
0.012312
30
0.0
11
-0.126154
21
0.008279
31
0.0
0
LINE
8
0
6
CONTINUOUS
10
-0.125661
20
0.016782
30
0.0
11
-0.125920
21
0.012312
31
0.0
0
LINE
8
0
6
CONTINUOUS
10
-0.125401
20
0.021253
30
0.0
11
-0.125661
21
0.016782
31
0.0
0
LINE
8
0
6
CONTINUOUS
10
-0.125167
20
0.025286
30
0.0
11
-0.125401
21
0.021253
31
0.0
0
LINE
8
0
6
CONTINUOUS
10
-0.124981
20
0.028487
30
0.0
11
-0.125167
21
0.025286
31
0.0
0
LINE
8
0
6
CONTINUOUS
10
-0.124862
20
0.030542
30
0.0
11
-0.124981
21
0.028487
31
0.0
0
LINE
8
0
6
CONTINUOUS
10
-0.123786
20
0.031213
30
0.0
11
-0.124821
21
0.031250
31
0.0
0
LINE
8
0
6
CONTINUOUS
10
-0.124821
20
0.031250
30
0.0
11
-0.124862
21
0.030542
31
0.0
0
LINE
8
0
6
CONTINUOUS
10
0.106000
20
-0.051349
30
0.0
11
0.106000
21
-0.026263
31
0.0
0
LINE
8
0
6
CONTINUOUS
10
-0.095377
20
-0.013639
30
0.0
11
-0.095219
21
-0.012697
31
0.0
0
LINE
8
0
6
CONTINUOUS
10
-0.096020
20
-0.013516
30
0.0
11
-0.095377
21
-0.013639
31
0.0
0
LINE
8
0
6
CONTINUOUS
10
-0.097884
20
-0.013159
30
0.0
11
-0.096020
21
-0.013516
31
0.0
0
LINE
8
0
6
CONTINUOUS
10
-0.100787
20
-0.012602
30
0.0
11
-0.097884
21
-0.013159
31
0.0
0
LINE
8
0
6
CONTINUOUS
10
-0.104445
20
-0.011901
30
0.0
11
-0.100787
21
-0.012602
31
0.0
0
LINE
8
0
6
CONTINUOUS
10
-0.108500
20
-0.011125
30
0.0
11
-0.104445
21
-0.011901
31
0.0
0
LINE
8
0
6
CONTINUOUS
10
-0.112555
20
-0.010348
30
0.0
11
-0.108500
21
-0.011125
31
0.0
0
LINE
8
0
6
CONTINUOUS
10
-0.116213
20
-0.009647
30
0.0
11
-0.112555
21
-0.010348
31
0.0
0
LINE
8
0
6
CONTINUOUS
10
-0.119116
20
-0.009090
30
0.0
11
-0.116213
21
-0.009647
31
0.0
0
LINE
8
0
6
CONTINUOUS
10
-0.120980
20
-0.008733
30
0.0
11
-0.119116
21
-0.009090
31
0.0
0
LINE
8
0
6
CONTINUOUS
10
-0.121464
20
-0.007669
30
0.0
11
-0.121623
21
-0.008610
31
0.0
0
LINE
8
0
6
CONTINUOUS
10
-0.121623
20
-0.008610
30
0.0
11
-0.120980
21
-0.008733
31
0.0
0
LINE
8
0
6
CONTINUOUS
10
-0.095219
20
-0.012697
30
0.0
11
-0.092531
21
0.001333
31
0.0
0
LINE
8
0
6
CONTINUOUS
10
-0.100493
20
0.008841
30
0.0
11
-0.104548
21
0.009618
31
0.0
0
LINE
8
0
6
CONTINUOUS
10
-0.119591
20
0.002110
30
0.0
11
-0.121464
21
-0.007669
31
0.0
0
LINE
8
0
6
CONTINUOUS
10
-0.104548
20
0.009618
30
0.0
11
-0.108603
21
0.010395
31
0.0
0
LINE
8
0
6
CONTINUOUS
10
0.115500
20
-0.107750
30
0.0
11
0.115500
21
-0.053254
31
0.0
0
LINE
8
0
6
CONTINUOUS
10
0.087019
20
-0.052254
30
0.0
11
0.083964
21
-0.052254
31
0.0
0
LINE
8
0
6
CONTINUOUS
10
0.091500
20
-0.052254
30
0.0
11
0.087019
21
-0.052254
31
0.0
0
LINE
8
0
6
CONTINUOUS
10
0.095981
20
-0.052254
30
0.0
11
0.091500
21
-0.052254
31
0.0
0
LINE
8
0
6
CONTINUOUS
10
0.100023
20
-0.052254
30
0.0
11
0.095981
21
-0.052254
31
0.0
0
LINE
8
0
6
CONTINUOUS
10
0.103231
20
-0.052254
30
0.0
11
0.100023
21
-0.052254
31
0.0
0
LINE
8
0
6
CONTINUOUS
10
0.105290
20
-0.052254
30
0.0
11
0.103231
21
-0.052254
31
0.0
0
LINE
8
0
6
CONTINUOUS
10
0.106000
20
-0.052254
30
0.0
11
0.106000
21
-0.051349
31
0.0
0
LINE
8
0
6
CONTINUOUS
10
0.106000
20
-0.052254
30
0.0
11
0.105290
21
-0.052254
31
0.0
0
LINE
8
0
6
CONTINUOUS
10
0.085288
20
-0.052254
30
0.0
11
0.083964
21
-0.052254
31
0.0
0
LINE
8
0
6
CONTINUOUS
10
0.091500
20
-0.052254
30
0.0
11
0.085288
21
-0.052254
31
0.0
0
LINE
8
0
6
CONTINUOUS
10
0.097712
20
-0.052254
30
0.0
11
0.091500
21
-0.052254
31
0.0
0
LINE
8
0
6
CONTINUOUS
10
0.103500
20
-0.052254
30
0.0
11
0.097712
21
-0.052254
31
0.0
0
LINE
8
0
6
CONTINUOUS
10
0.108471
20
-0.052254
30
0.0
11
0.103500
21
-0.052254
31
0.0
0
LINE
8
0
6
CONTINUOUS
10
0.112285
20
-0.052254
30
0.0
11
0.108471
21
-0.052254
31
0.0
0
LINE
8
0
6
CONTINUOUS
10
0.114682
20
-0.052254
30
0.0
11
0.112285
21
-0.052254
31
0.0
0
LINE
8
0
6
CONTINUOUS
10
0.115500
20
-0.052254
30
0.0
11
0.114682
21
-0.052254
31
0.0
0
LINE
8
0
6
CONTINUOUS
10
0.115500
20
-0.053254
30
0.0
11
0.115500
21
-0.052254
31
0.0
0
LINE
8
0
6
CONTINUOUS
10
-0.125031
20
0.027640
30
0.0
11
-0.124920
21
0.029546
31
0.0
0
LINE
8
0
6
CONTINUOUS
10
0.104557
20
-0.011449
30
0.0
11
0.102266
21
-0.004339
31
0.0
0
LINE
8
0
6
CONTINUOUS
10
0.076125
20
-0.017005
30
0.0
11
0.076859
21
-0.020041
31
0.0
0
LINE
8
0
6
CONTINUOUS
10
0.098789
20
0.002272
30
0.0
11
0.094413
21
0.008346
31
0.0
0
LINE
8
0
6
CONTINUOUS
10
0.073243
20
-0.011473
30
0.0
11
0.074880
21
-0.014141
31
0.0
0
LINE
8
0
6
CONTINUOUS
10
0.106000
20
-0.026263
30
0.0
11
0.105616
21
-0.018803
31
0.0
0
LINE
8
0
6
CONTINUOUS
10
0.077036
20
-0.023139
30
0.0
11
0.077000
21
-0.026263
31
0.0
0
LINE
8
0
6
CONTINUOUS
10
0.089215
20
0.013668
30
0.0
11
0.083245
21
0.018181
31
0.0
0
LINE
8
0
6
CONTINUOUS
10
0.068893
20
-0.007025
30
0.0
11
0.071243
21
-0.009092
31
0.0
0
LINE
8
0
6
CONTINUOUS
10
0.076695
20
0.021716
30
0.0
11
0.069654
21
0.024175
31
0.0
0
LINE
8
0
6
CONTINUOUS
10
0.063415
20
-0.004075
30
0.0
11
0.066272
21
-0.005347
31
0.0
0
LINE
8
0
6
CONTINUOUS
10
0.114000
20
-0.092749
30
0.0
11
0.114000
21
-0.077044
31
0.0
0
LINE
8
0
6
CONTINUOUS
10
0.064789
20
-0.067157
30
0.0
11
0.065429
21
-0.067771
31
0.0
0
LINE
8
0
6
CONTINUOUS
10
0.058128
20
-0.064128
30
0.0
11
0.024104
21
-0.055221
31
0.0
0
LINE
8
0
6
CONTINUOUS
10
0.023991
20
-0.055669
30
0.0
11
0.057930
21
-0.064551
31
0.0
0
LINE
8
0
6
CONTINUOUS
10
0.114000
20
-0.063928
30
0.0
11
0.114000
21
-0.060580
31
0.0
0
LINE
8
0
6
CONTINUOUS
10
0.114000
20
-0.067275
30
0.0
11
0.114000
21
-0.063928
31
0.0
0
LINE
8
0
6
CONTINUOUS
10
0.114000
20
-0.070623
30
0.0
11
0.114000
21
-0.067275
31
0.0
0
LINE
8
0
6
CONTINUOUS
10
0.114000
20
-0.077044
30
0.0
11
0.114000
21
-0.073970
31
0.0
0
LINE
8
0
6
CONTINUOUS
10
0.069000
20
-0.077044
30
0.0
11
0.069000
21
-0.092749
31
0.0
0
LINE
8
0
6
CONTINUOUS
10
0.114000
20
-0.073970
30
0.0
11
0.114000
21
-0.070623
31
0.0
0
LINE
8
0
6
CONTINUOUS
10
0.114000
20
-0.060580
30
0.0
11
0.114000
21
-0.058255
31
0.0
0
LINE
8
0
6
CONTINUOUS
10
0.060979
20
-0.065353
30
0.0
11
0.064789
21
-0.067157
31
0.0
0
LINE
8
0
6
CONTINUOUS
10
0.059633
20
-0.056305
30
0.0
11
0.059405
21
-0.056239
31
0.0
0
LINE
8
0
6
CONTINUOUS
10
0.057930
20
-0.064551
30
0.0
11
0.060979
21
-0.065353
31
0.0
0
LINE
8
0
6
CONTINUOUS
10
0.058128
20
-0.064128
30
0.0
11
0.061185
21
-0.064931
31
0.0
0
LINE
8
0
6
CONTINUOUS
10
0.069000
20
-0.074851
30
0.0
11
0.069000
21
-0.077044
31
0.0
0
LINE
8
0
6
CONTINUOUS
10
0.070470
20
-0.093261
30
0.0
11
0.070470
21
-0.107750
31
0.0
0
LINE
8
0
6
CONTINUOUS
10
0.112530
20
-0.107750
30
0.0
11
0.112530
21
-0.093261
31
0.0
0
LINE
8
0
6
CONTINUOUS
10
0.089514
20
-0.057232
30
0.0
11
0.086570
21
-0.057216
31
0.0
0
LINE
8
0
6
CONTINUOUS
10
0.086578
20
-0.057232
30
0.0
11
0.089514
21
-0.057232
31
0.0
0
LINE
8
0
6
CONTINUOUS
10
0.026368
20
-0.044198
30
0.0
11
0.026206
21
-0.044836
31
0.0
0
LINE
8
0
6
CONTINUOUS
10
0.026368
20
-0.044198
30
0.0
11
0.026859
21
-0.044342
31
0.0
0
LINE
8
0
6
CONTINUOUS
10
0.026481
20
-0.043750
30
0.0
11
0.026368
21
-0.044198
31
0.0
0
LINE
8
0
6
CONTINUOUS
10
0.026972
20
-0.043894
30
0.0
11
0.026481
21
-0.043750
31
0.0
0
LINE
8
0
6
CONTINUOUS
10
0.025561
20
-0.047385
30
0.0
11
0.025820
21
-0.046362
31
0.0
0
LINE
8
0
6
CONTINUOUS
10
0.024991
20
-0.049638
30
0.0
11
0.025561
21
-0.047385
31
0.0
0
LINE
8
0
6
CONTINUOUS
10
0.024991
20
-0.049638
30
0.0
11
0.024420
21
-0.051891
31
0.0
0
LINE
8
0
6
CONTINUOUS
10
0.024420
20
-0.051891
30
0.0
11
0.023937
21
-0.053801
31
0.0
0
LINE
8
0
6
CONTINUOUS
10
0.023613
20
-0.055077
30
0.0
11
0.023937
21
-0.053801
31
0.0
0
LINE
8
0
6
CONTINUOUS
10
0.023500
20
-0.055525
30
0.0
11
0.023991
21
-0.055669
31
0.0
0
LINE
8
0
6
CONTINUOUS
10
0.024104
20
-0.055221
30
0.0
11
0.023613
21
-0.055077
31
0.0
0
LINE
8
0
6
CONTINUOUS
10
0.023500
20
-0.055525
30
0.0
11
0.023613
21
-0.055077
31
0.0
0
LINE
8
0
6
CONTINUOUS
10
0.057412
20
-0.051913
30
0.0
11
0.026972
21
-0.043894
31
0.0
0
LINE
8
0
6
CONTINUOUS
10
0.026859
20
-0.044342
30
0.0
11
0.057681
21
-0.052444
31
0.0
0
LINE
8
0
6
CONTINUOUS
10
0.097260
20
-0.057232
30
0.0
11
0.091500
21
-0.057232
31
0.0
0
LINE
8
0
6
CONTINUOUS
10
0.091500
20
-0.057232
30
0.0
11
0.086578
21
-0.057232
31
0.0
0
LINE
8
0
6
CONTINUOUS
10
0.111030
20
-0.057232
30
0.0
11
0.107430
21
-0.057232
31
0.0
0
LINE
8
0
6
CONTINUOUS
10
0.113190
20
-0.057232
30
0.0
11
0.111030
21
-0.057232
31
0.0
0
LINE
8
0
6
CONTINUOUS
10
0.114000
20
-0.057232
30
0.0
11
0.113190
21
-0.057232
31
0.0
0
LINE
8
0
6
CONTINUOUS
10
0.114000
20
-0.058255
30
0.0
11
0.114000
21
-0.057232
31
0.0
0
LINE
8
0
6
CONTINUOUS
10
0.107430
20
-0.057232
30
0.0
11
0.102660
21
-0.057232
31
0.0
0
LINE
8
0
6
CONTINUOUS
10
0.102660
20
-0.057232
30
0.0
11
0.097260
21
-0.057232
31
0.0
0
LINE
8
0
6
CONTINUOUS
10
0.026045
20
-0.045474
30
0.0
11
0.025820
21
-0.046362
31
0.0
0
LINE
8
0
6
CONTINUOUS
10
0.026535
20
-0.045618
30
0.0
11
0.058477
21
-0.054019
31
0.0
0
LINE
8
0
6
CONTINUOUS
10
0.026045
20
-0.045474
30
0.0
11
0.026206
21
-0.044836
31
0.0
0
LINE
8
0
6
CONTINUOUS
10
0.104500
20
-0.093261
30
0.0
11
0.107409
21
-0.093261
31
0.0
0
LINE
8
0
6
CONTINUOUS
10
0.075570
20
-0.093261
30
0.0
11
0.077296
21
-0.093261
31
0.0
0
LINE
8
0
6
CONTINUOUS
10
0.107409
20
-0.093261
30
0.0
11
0.110964
21
-0.093261
31
0.0
0
LINE
8
0
6
CONTINUOUS
10
0.114000
20
-0.093261
30
0.0
11
0.114000
21
-0.092749
31
0.0
0
LINE
8
0
6
CONTINUOUS
10
0.113171
20
-0.093261
30
0.0
11
0.114000
21
-0.093261
31
0.0
0
LINE
8
0
6
CONTINUOUS
10
0.110964
20
-0.093261
30
0.0
11
0.113171
21
-0.093261
31
0.0
0
LINE
8
0
6
CONTINUOUS
10
0.071970
20
-0.093261
30
0.0
11
0.075570
21
-0.093261
31
0.0
0
LINE
8
0
6
CONTINUOUS
10
0.069810
20
-0.093261
30
0.0
11
0.071970
21
-0.093261
31
0.0
0
LINE
8
0
6
CONTINUOUS
10
0.069000
20
-0.093261
30
0.0
11
0.069810
21
-0.093261
31
0.0
0
LINE
8
0
6
CONTINUOUS
10
0.069000
20
-0.092749
30
0.0
11
0.069000
21
-0.093261
31
0.0
0
LINE
8
0
6
CONTINUOUS
10
0.125307
20
-0.114250
30
0.0
11
0.126500
21
-0.114250
31
0.0
0
LINE
8
0
6
CONTINUOUS
10
0.126500
20
-0.114250
30
0.0
11
0.126500
21
-0.113303
31
0.0
0
LINE
8
0
6
CONTINUOUS
10
0.121811
20
-0.114250
30
0.0
11
0.125307
21
-0.114250
31
0.0
0
LINE
8
0
6
CONTINUOUS
10
0.116249
20
-0.114250
30
0.0
11
0.121811
21
-0.114250
31
0.0
0
LINE
8
0
6
CONTINUOUS
10
0.109000
20
-0.114250
30
0.0
11
0.116249
21
-0.114250
31
0.0
0
LINE
8
0
6
CONTINUOUS
10
0.100559
20
-0.114250
30
0.0
11
0.109000
21
-0.114250
31
0.0
0
LINE
8
0
6
CONTINUOUS
10
0.091500
20
-0.114250
30
0.0
11
0.100559
21
-0.114250
31
0.0
0
LINE
8
0
6
CONTINUOUS
10
0.082441
20
-0.114250
30
0.0
11
0.091500
21
-0.114250
31
0.0
0
LINE
8
0
6
CONTINUOUS
10
0.074000
20
-0.114250
30
0.0
11
0.082441
21
-0.114250
31
0.0
0
LINE
8
0
6
CONTINUOUS
10
0.066751
20
-0.114250
30
0.0
11
0.074000
21
-0.114250
31
0.0
0
LINE
8
0
6
CONTINUOUS
10
0.061189
20
-0.114250
30
0.0
11
0.066751
21
-0.114250
31
0.0
0
LINE
8
0
6
CONTINUOUS
10
0.057693
20
-0.114250
30
0.0
11
0.061189
21
-0.114250
31
0.0
0
LINE
8
0
6
CONTINUOUS
10
0.056500
20
-0.114250
30
0.0
11
0.057693
21
-0.114250
31
0.0
0
LINE
8
0
6
CONTINUOUS
10
0.056500
20
-0.113303
30
0.0
11
0.056500
21
-0.114250
31
0.0
0
LINE
8
0
6
CONTINUOUS
10
0.126500
20
-0.113303
30
0.0
11
0.126500
21
-0.109197
31
0.0
0
LINE
8
0
6
CONTINUOUS
10
0.126500
20
-0.109197
30
0.0
11
0.126500
21
-0.108250
31
0.0
0
LINE
8
0
6
CONTINUOUS
10
0.126500
20
-0.108250
30
0.0
11
0.125307
21
-0.108250
31
0.0
0
LINE
8
0
6
CONTINUOUS
10
0.125307
20
-0.108250
30
0.0
11
0.121811
21
-0.108250
31
0.0
0
LINE
8
0
6
CONTINUOUS
10
0.121811
20
-0.108250
30
0.0
11
0.116249
21
-0.108250
31
0.0
0
LINE
8
0
6
CONTINUOUS
10
0.066751
20
-0.108250
30
0.0
11
0.061189
21
-0.108250
31
0.0
0
LINE
8
0
6
CONTINUOUS
10
0.061189
20
-0.108250
30
0.0
11
0.057693
21
-0.108250
31
0.0
0
LINE
8
0
6
CONTINUOUS
10
0.056500
20
-0.108250
30
0.0
11
0.056500
21
-0.109197
31
0.0
0
LINE
8
0
6
CONTINUOUS
10
0.057693
20
-0.108250
30
0.0
11
0.056500
21
-0.108250
31
0.0
0
LINE
8
0
6
CONTINUOUS
10
0.056500
20
-0.109197
30
0.0
11
0.056500
21
-0.113303
31
0.0
0
LINE
8
0
6
CONTINUOUS
10
-0.052630
20
0.087389
30
0.0
11
-0.053475
21
0.088338
31
0.0
0
LINE
8
0
6
CONTINUOUS
10
-0.053475
20
0.088338
30
0.0
11
-0.053690
21
0.088603
31
0.0
0
LINE
8
0
6
CONTINUOUS
10
-0.042554
20
0.078886
30
0.0
11
-0.042939
21
0.079845
31
0.0
0
LINE
8
0
6
CONTINUOUS
10
-0.047241
20
0.080484
30
0.0
11
-0.046859
21
0.080463
31
0.0
0
LINE
8
0
6
CONTINUOUS
10
-0.047335
20
0.080535
30
0.0
11
-0.047241
21
0.080484
31
0.0
0
LINE
8
0
6
CONTINUOUS
10
-0.038906
20
0.069897
30
0.0
11
-0.039725
21
0.070748
31
0.0
0
LINE
8
0
6
CONTINUOUS
10
-0.037239
20
0.072427
30
0.0
11
-0.036525
21
0.072131
31
0.0
0
LINE
8
0
6
CONTINUOUS
10
-0.041210
20
0.072097
30
0.0
11
-0.040876
21
0.071848
31
0.0
0
LINE
8
0
6
CONTINUOUS
10
-0.047696
20
0.078760
30
0.0
11
-0.047618
21
0.078745
31
0.0
0
LINE
8
0
6
CONTINUOUS
10
-0.045086
20
0.078266
30
0.0
11
-0.045717
21
0.079351
31
0.0
0
LINE
8
0
6
CONTINUOUS
10
-0.034725
20
0.070308
30
0.0
11
-0.035268
21
0.071072
31
0.0
0
LINE
8
0
6
CONTINUOUS
10
-0.045686
20
0.076602
30
0.0
11
-0.045930
21
0.076850
31
0.0
0
LINE
8
0
6
CONTINUOUS
10
-0.045930
20
0.076850
30
0.0
11
-0.045972
21
0.076899
31
0.0
0
LINE
8
0
6
CONTINUOUS
10
-0.000033
20
0.044507
30
0.0
11
0.001480
21
0.043803
31
0.0
0
LINE
8
0
6
CONTINUOUS
10
-0.006339
20
0.046161
30
0.0
11
-0.005828
21
0.046109
31
0.0
0
LINE
8
0
6
CONTINUOUS
10
0.007664
20
0.037618
30
0.0
11
0.007517
21
0.037771
31
0.0
0
LINE
8
0
6
CONTINUOUS
10
0.007517
20
0.037771
30
0.0
11
0.007262
21
0.038008
31
0.0
0
LINE
8
0
6
CONTINUOUS
10
0.004838
20
0.039274
30
0.0
11
0.004897
21
0.039251
31
0.0
0
LINE
8
0
6
CONTINUOUS
10
-0.014861
20
0.053717
30
0.0
11
-0.014214
21
0.053631
31
0.0
0
LINE
8
0
6
CONTINUOUS
10
-0.009628
20
0.052535
30
0.0
11
-0.008900
21
0.052549
31
0.0
0
LINE
8
0
6
CONTINUOUS
10
-0.024316
20
0.057412
30
0.0
11
-0.024070
21
0.057204
31
0.0
0
LINE
8
0
6
CONTINUOUS
10
-0.025495
20
0.058384
30
0.0
11
-0.024316
21
0.057412
31
0.0
0
LINE
8
0
6
CONTINUOUS
10
-0.053951
20
0.085911
30
0.0
11
-0.053786
21
0.086014
31
0.0
0
LINE
8
0
6
CONTINUOUS
10
-0.044306
20
0.081047
30
0.0
11
-0.044126
21
0.080991
31
0.0
0
LINE
8
0
6
CONTINUOUS
10
-0.044912
20
0.081197
30
0.0
11
-0.044306
21
0.081047
31
0.0
0
LINE
8
0
6
CONTINUOUS
10
-0.058050
20
0.091295
30
0.0
11
-0.058927
21
0.092667
31
0.0
0
LINE
8
0
6
CONTINUOUS
10
-0.051895
20
0.083821
30
0.0
11
-0.052748
21
0.084975
31
0.0
0
LINE
8
0
6
CONTINUOUS
10
-0.032839
20
0.064878
30
0.0
11
-0.032141
21
0.064562
31
0.0
0
LINE
8
0
6
CONTINUOUS
10
-0.052030
20
0.086267
30
0.0
11
-0.052630
21
0.087389
31
0.0
0
LINE
8
0
6
CONTINUOUS
10
-0.022753
20
0.060581
30
0.0
11
-0.023023
21
0.061136
31
0.0
0
LINE
8
0
6
CONTINUOUS
10
-0.051956
20
0.083365
30
0.0
11
-0.051817
21
0.083248
31
0.0
0
LINE
8
0
6
CONTINUOUS
10
-0.051817
20
0.083248
30
0.0
11
-0.050733
21
0.082199
31
0.0
0
LINE
8
0
6
CONTINUOUS
10
-0.050084
20
0.081536
30
0.0
11
-0.049300
21
0.081063
31
0.0
0
LINE
8
0
6
CONTINUOUS
10
-0.050733
20
0.082199
30
0.0
11
-0.050084
21
0.081536
31
0.0
0
LINE
8
0
6
CONTINUOUS
10
-0.049300
20
0.081063
30
0.0
11
-0.047813
21
0.079940
31
0.0
0
LINE
8
0
6
CONTINUOUS
10
-0.040898
20
0.073992
30
0.0
11
-0.040386
21
0.073677
31
0.0
0
LINE
8
0
6
CONTINUOUS
10
-0.017410
20
0.052170
30
0.0
11
-0.016490
21
0.051619
31
0.0
0
LINE
8
0
6
CONTINUOUS
10
-0.014723
20
0.050342
30
0.0
11
-0.015145
21
0.050708
31
0.0
0
LINE
8
0
6
CONTINUOUS
10
-0.042218
20
0.072503
30
0.0
11
-0.043186
21
0.073515
31
0.0
0
LINE
8
0
6
CONTINUOUS
10
-0.019652
20
0.053480
30
0.0
11
-0.019733
21
0.053568
31
0.0
0
LINE
8
0
6
CONTINUOUS
10
-0.019538
20
0.053348
30
0.0
11
-0.019652
21
0.053480
31
0.0
0
LINE
8
0
6
CONTINUOUS
10
-0.019563
20
0.053286
30
0.0
11
-0.019538
21
0.053348
31
0.0
0
LINE
8
0
6
CONTINUOUS
10
0.000040
20
0.041010
30
0.0
11
0.000263
21
0.040883
31
0.0
0
LINE
8
0
6
CONTINUOUS
10
-0.001146
20
0.041716
30
0.0
11
0.000040
21
0.041010
31
0.0
0
ENDSEC
0
EOF
