999
Erzeugt mit innoplus bad 
0
SECTION
2
HEADER
9
$ACADVER
1
AC1009
9
$DWGCODEPAGE
3
ISO8859-1
0
ENDSEC
0
SECTION
2
TABLES
0
TABLE
2
LAYER
70
1
0
LAYER
2
0
70
0
62
7
6
CONTINUOUS
0
ENDTAB
0
ENDSEC
0
SECTION
2
ENTITIES
0
LINE
8
0
6
CONTINUOUS
10
0.100564
20
0.132378
30
0.0
11
0.092775
21
0.131500
31
0.0
0
LINE
8
0
6
CONTINUOUS
10
0.092775
20
0.131500
30
0.0
11
0.085378
21
0.128912
31
0.0
0
LINE
8
0
6
CONTINUOUS
10
0.085378
20
0.128912
30
0.0
11
0.078742
21
0.124742
31
0.0
0
LINE
8
0
6
CONTINUOUS
10
0.078742
20
0.124742
30
0.0
11
0.073200
21
0.119200
31
0.0
0
LINE
8
0
6
CONTINUOUS
10
0.073200
20
0.119200
30
0.0
11
0.069030
21
0.112564
31
0.0
0
LINE
8
0
6
CONTINUOUS
10
0.069030
20
0.112564
30
0.0
11
0.066441
21
0.105166
31
0.0
0
LINE
8
0
6
CONTINUOUS
10
0.066441
20
0.105166
30
0.0
11
0.065564
21
0.097378
31
0.0
0
LINE
8
0
6
CONTINUOUS
10
0.065564
20
0.097378
30
0.0
11
0.066441
21
0.089590
31
0.0
0
LINE
8
0
6
CONTINUOUS
10
0.066441
20
0.089590
30
0.0
11
0.069030
21
0.082192
31
0.0
0
LINE
8
0
6
CONTINUOUS
10
0.069030
20
0.082192
30
0.0
11
0.073200
21
0.075556
31
0.0
0
LINE
8
0
6
CONTINUOUS
10
0.073200
20
0.075556
30
0.0
11
0.078741
21
0.070014
31
0.0
0
LINE
8
0
6
CONTINUOUS
10
0.078741
20
0.070014
30
0.0
11
0.084400
21
0.066458
31
0.0
0
LINE
8
0
6
CONTINUOUS
10
0.122386
20
0.070014
30
0.0
11
0.116727
21
0.066458
31
0.0
0
LINE
8
0
6
CONTINUOUS
10
0.122386
20
0.070014
30
0.0
11
0.127928
21
0.075556
31
0.0
0
LINE
8
0
6
CONTINUOUS
10
0.127928
20
0.075556
30
0.0
11
0.132098
21
0.082192
31
0.0
0
LINE
8
0
6
CONTINUOUS
10
0.132098
20
0.082192
30
0.0
11
0.134686
21
0.089590
31
0.0
0
LINE
8
0
6
CONTINUOUS
10
0.134686
20
0.089590
30
0.0
11
0.135564
21
0.097378
31
0.0
0
LINE
8
0
6
CONTINUOUS
10
0.135564
20
0.097378
30
0.0
11
0.134686
21
0.105166
31
0.0
0
LINE
8
0
6
CONTINUOUS
10
0.134686
20
0.105166
30
0.0
11
0.132098
21
0.112564
31
0.0
0
LINE
8
0
6
CONTINUOUS
10
0.132098
20
0.112564
30
0.0
11
0.127928
21
0.119200
31
0.0
0
LINE
8
0
6
CONTINUOUS
10
0.127928
20
0.119200
30
0.0
11
0.122386
21
0.124742
31
0.0
0
LINE
8
0
6
CONTINUOUS
10
0.122386
20
0.124742
30
0.0
11
0.115750
21
0.128912
31
0.0
0
LINE
8
0
6
CONTINUOUS
10
0.115750
20
0.128912
30
0.0
11
0.108352
21
0.131500
31
0.0
0
LINE
8
0
6
CONTINUOUS
10
0.108352
20
0.131500
30
0.0
11
0.100564
21
0.132378
31
0.0
0
LINE
8
0
6
CONTINUOUS
10
0.093544
20
0.077026
30
0.0
11
0.090484
21
0.075543
31
0.0
0
LINE
8
0
6
CONTINUOUS
10
0.090482
20
0.075772
30
0.0
11
0.093542
21
0.077256
31
0.0
0
LINE
8
0
6
CONTINUOUS
10
0.110644
20
0.075543
30
0.0
11
0.107584
21
0.077026
31
0.0
0
LINE
8
0
6
CONTINUOUS
10
0.107585
20
0.077256
30
0.0
11
0.110645
21
0.075772
31
0.0
0
LINE
8
0
6
CONTINUOUS
10
0.096961
20
0.077949
30
0.0
11
0.093544
21
0.077026
31
0.0
0
LINE
8
0
6
CONTINUOUS
10
0.093542
20
0.077256
30
0.0
11
0.096960
21
0.078179
31
0.0
0
LINE
8
0
6
CONTINUOUS
10
0.084408
20
0.065826
30
0.0
11
0.084409
21
0.065712
31
0.0
0
LINE
8
0
6
CONTINUOUS
10
0.084817
20
0.068592
30
0.0
11
0.084408
21
0.065826
31
0.0
0
LINE
8
0
6
CONTINUOUS
10
0.084405
20
0.066054
30
0.0
11
0.084815
21
0.068820
31
0.0
0
LINE
8
0
6
CONTINUOUS
10
0.113196
20
0.073574
30
0.0
11
0.110644
21
0.075543
31
0.0
0
LINE
8
0
6
CONTINUOUS
10
0.110645
20
0.075772
30
0.0
11
0.113198
21
0.073803
31
0.0
0
LINE
8
0
6
CONTINUOUS
10
0.116310
20
0.068592
30
0.0
11
0.115116
21
0.071218
31
0.0
0
LINE
8
0
6
CONTINUOUS
10
0.115119
20
0.071447
30
0.0
11
0.116313
21
0.068820
31
0.0
0
LINE
8
0
6
CONTINUOUS
10
0.090484
20
0.075543
30
0.0
11
0.087931
21
0.073574
31
0.0
0
LINE
8
0
6
CONTINUOUS
10
0.087929
20
0.073803
30
0.0
11
0.090482
21
0.075772
31
0.0
0
LINE
8
0
6
CONTINUOUS
10
0.100564
20
0.078262
30
0.0
11
0.096961
21
0.077949
31
0.0
0
LINE
8
0
6
CONTINUOUS
10
0.096960
20
0.078179
30
0.0
11
0.100564
21
0.078493
31
0.0
0
LINE
8
0
6
CONTINUOUS
10
0.086011
20
0.071218
30
0.0
11
0.084817
21
0.068592
31
0.0
0
LINE
8
0
6
CONTINUOUS
10
0.084815
20
0.068820
30
0.0
11
0.086009
21
0.071447
31
0.0
0
LINE
8
0
6
CONTINUOUS
10
0.116718
20
0.065712
30
0.0
11
0.116719
21
0.065826
31
0.0
0
LINE
8
0
6
CONTINUOUS
10
0.116719
20
0.065826
30
0.0
11
0.116310
21
0.068592
31
0.0
0
LINE
8
0
6
CONTINUOUS
10
0.116313
20
0.068820
30
0.0
11
0.116722
21
0.066054
31
0.0
0
LINE
8
0
6
CONTINUOUS
10
0.104166
20
0.077949
30
0.0
11
0.100564
21
0.078262
31
0.0
0
LINE
8
0
6
CONTINUOUS
10
0.100564
20
0.078493
30
0.0
11
0.104167
21
0.078179
31
0.0
0
LINE
8
0
6
CONTINUOUS
10
0.107584
20
0.077026
30
0.0
11
0.104166
21
0.077949
31
0.0
0
LINE
8
0
6
CONTINUOUS
10
0.104167
20
0.078179
30
0.0
11
0.107585
21
0.077256
31
0.0
0
LINE
8
0
6
CONTINUOUS
10
0.087931
20
0.073574
30
0.0
11
0.086011
21
0.071218
31
0.0
0
LINE
8
0
6
CONTINUOUS
10
0.086009
20
0.071447
30
0.0
11
0.087929
21
0.073803
31
0.0
0
LINE
8
0
6
CONTINUOUS
10
0.115116
20
0.071218
30
0.0
11
0.113196
21
0.073574
31
0.0
0
LINE
8
0
6
CONTINUOUS
10
0.113198
20
0.073803
30
0.0
11
0.115119
21
0.071447
31
0.0
0
LINE
8
0
6
CONTINUOUS
10
0.082787
20
0.091424
30
0.0
11
0.084038
21
0.086767
31
0.0
0
LINE
8
0
6
CONTINUOUS
10
0.083711
20
0.091070
30
0.0
11
0.084113
21
0.089574
31
0.0
0
LINE
8
0
6
CONTINUOUS
10
0.116977
20
0.086534
30
0.0
11
0.117089
21
0.086767
31
0.0
0
LINE
8
0
6
CONTINUOUS
10
0.083711
20
0.100641
30
0.0
11
0.084938
21
0.105208
31
0.0
0
LINE
8
0
6
CONTINUOUS
10
0.083297
20
0.095852
30
0.0
11
0.083711
21
0.100641
31
0.0
0
LINE
8
0
6
CONTINUOUS
10
0.084038
20
0.086767
30
0.0
11
0.084150
21
0.086535
31
0.0
0
LINE
8
0
6
CONTINUOUS
10
0.082365
20
0.096312
30
0.0
11
0.082787
21
0.091424
31
0.0
0
LINE
8
0
6
CONTINUOUS
10
0.083711
20
0.091070
30
0.0
11
0.083297
21
0.095852
31
0.0
0
LINE
8
0
6
CONTINUOUS
10
0.108253
20
0.115499
30
0.0
11
0.111519
21
0.112826
31
0.0
0
LINE
8
0
6
CONTINUOUS
10
0.086929
20
0.109336
30
0.0
11
0.089609
21
0.112826
31
0.0
0
LINE
8
0
6
CONTINUOUS
10
0.089609
20
0.112826
30
0.0
11
0.092874
21
0.115499
31
0.0
0
LINE
8
0
6
CONTINUOUS
10
0.111519
20
0.112826
30
0.0
11
0.114198
21
0.109336
31
0.0
0
LINE
8
0
6
CONTINUOUS
10
0.114198
20
0.109336
30
0.0
11
0.116190
21
0.105208
31
0.0
0
LINE
8
0
6
CONTINUOUS
10
0.118340
20
0.091424
30
0.0
11
0.118763
21
0.096312
31
0.0
0
LINE
8
0
6
CONTINUOUS
10
0.117830
20
0.095852
30
0.0
11
0.117417
21
0.091070
31
0.0
0
LINE
8
0
6
CONTINUOUS
10
0.116190
20
0.105208
30
0.0
11
0.117416
21
0.100641
31
0.0
0
LINE
8
0
6
CONTINUOUS
10
0.117416
20
0.100641
30
0.0
11
0.117830
21
0.095852
31
0.0
0
LINE
8
0
6
CONTINUOUS
10
0.117089
20
0.086767
30
0.0
11
0.118340
21
0.091424
31
0.0
0
LINE
8
0
6
CONTINUOUS
10
0.117417
20
0.091070
30
0.0
11
0.117015
21
0.089574
31
0.0
0
LINE
8
0
6
CONTINUOUS
10
0.084041
20
0.095313
30
0.0
11
0.084404
21
0.066167
31
0.0
0
LINE
8
0
6
CONTINUOUS
10
0.084409
20
0.065712
30
0.0
11
0.084563
21
0.053408
31
0.0
0
LINE
8
0
6
CONTINUOUS
10
0.116565
20
0.053408
30
0.0
11
0.116718
21
0.065712
31
0.0
0
LINE
8
0
6
CONTINUOUS
10
0.113569
20
0.050003
30
0.0
11
0.113903
21
0.052281
31
0.0
0
LINE
8
0
6
CONTINUOUS
10
0.087224
20
0.052281
30
0.0
11
0.087558
21
0.050003
31
0.0
0
LINE
8
0
6
CONTINUOUS
10
0.090134
20
0.058666
30
0.0
11
0.092246
21
0.060288
31
0.0
0
LINE
8
0
6
CONTINUOUS
10
0.092246
20
0.060632
30
0.0
11
0.090134
21
0.059011
31
0.0
0
LINE
8
0
6
CONTINUOUS
10
0.100564
20
0.062522
30
0.0
11
0.103532
21
0.062265
31
0.0
0
LINE
8
0
6
CONTINUOUS
10
0.103532
20
0.062610
30
0.0
11
0.100564
21
0.062866
31
0.0
0
LINE
8
0
6
CONTINUOUS
10
0.110993
20
0.058666
30
0.0
11
0.112582
21
0.056725
31
0.0
0
LINE
8
0
6
CONTINUOUS
10
0.112582
20
0.057069
30
0.0
11
0.110993
21
0.059011
31
0.0
0
LINE
8
0
6
CONTINUOUS
10
0.088545
20
0.056725
30
0.0
11
0.090134
21
0.058666
31
0.0
0
LINE
8
0
6
CONTINUOUS
10
0.090134
20
0.059011
30
0.0
11
0.088545
21
0.057069
31
0.0
0
LINE
8
0
6
CONTINUOUS
10
0.097595
20
0.062265
30
0.0
11
0.100564
21
0.062522
31
0.0
0
LINE
8
0
6
CONTINUOUS
10
0.100564
20
0.062866
30
0.0
11
0.097595
21
0.062610
31
0.0
0
LINE
8
0
6
CONTINUOUS
10
0.108881
20
0.060288
30
0.0
11
0.110993
21
0.058666
31
0.0
0
LINE
8
0
6
CONTINUOUS
10
0.110993
20
0.059011
30
0.0
11
0.108881
21
0.060632
31
0.0
0
LINE
8
0
6
CONTINUOUS
10
0.094776
20
0.061508
30
0.0
11
0.097595
21
0.062265
31
0.0
0
LINE
8
0
6
CONTINUOUS
10
0.097595
20
0.062610
30
0.0
11
0.094776
21
0.061852
31
0.0
0
LINE
8
0
6
CONTINUOUS
10
0.106352
20
0.061508
30
0.0
11
0.108881
21
0.060288
31
0.0
0
LINE
8
0
6
CONTINUOUS
10
0.108881
20
0.060632
30
0.0
11
0.106352
21
0.061852
31
0.0
0
LINE
8
0
6
CONTINUOUS
10
0.113903
20
0.052281
30
0.0
11
0.113903
21
0.052626
31
0.0
0
LINE
8
0
6
CONTINUOUS
10
0.113569
20
0.054560
30
0.0
11
0.113903
21
0.052281
31
0.0
0
LINE
8
0
6
CONTINUOUS
10
0.113903
20
0.052626
30
0.0
11
0.113569
21
0.054904
31
0.0
0
LINE
8
0
6
CONTINUOUS
10
0.087224
20
0.052281
30
0.0
11
0.087558
21
0.054560
31
0.0
0
LINE
8
0
6
CONTINUOUS
10
0.087224
20
0.052626
30
0.0
11
0.087224
21
0.052281
31
0.0
0
LINE
8
0
6
CONTINUOUS
10
0.087558
20
0.054904
30
0.0
11
0.087224
21
0.052626
31
0.0
0
LINE
8
0
6
CONTINUOUS
10
0.092246
20
0.060288
30
0.0
11
0.094776
21
0.061508
31
0.0
0
LINE
8
0
6
CONTINUOUS
10
0.094776
20
0.061852
30
0.0
11
0.092246
21
0.060632
31
0.0
0
LINE
8
0
6
CONTINUOUS
10
0.103532
20
0.062265
30
0.0
11
0.106352
21
0.061508
31
0.0
0
LINE
8
0
6
CONTINUOUS
10
0.106352
20
0.061852
30
0.0
11
0.103532
21
0.062610
31
0.0
0
LINE
8
0
6
CONTINUOUS
10
0.114059
20
0.046171
30
0.0
11
0.114980
21
0.047296
31
0.0
0
LINE
8
0
6
CONTINUOUS
10
0.114980
20
0.047296
30
0.0
11
0.116164
21
0.049892
31
0.0
0
LINE
8
0
6
CONTINUOUS
10
0.116164
20
0.049892
30
0.0
11
0.116565
21
0.052626
31
0.0
0
LINE
8
0
6
CONTINUOUS
10
0.116565
20
0.052626
30
0.0
11
0.116565
21
0.053408
31
0.0
0
LINE
8
0
6
CONTINUOUS
10
0.116164
20
0.055359
30
0.0
11
0.116565
21
0.052626
31
0.0
0
LINE
8
0
6
CONTINUOUS
10
0.114980
20
0.057955
30
0.0
11
0.116164
21
0.055359
31
0.0
0
LINE
8
0
6
CONTINUOUS
10
0.113074
20
0.060284
30
0.0
11
0.114980
21
0.057955
31
0.0
0
LINE
8
0
6
CONTINUOUS
10
0.110540
20
0.062229
30
0.0
11
0.113074
21
0.060284
31
0.0
0
LINE
8
0
6
CONTINUOUS
10
0.107506
20
0.063693
30
0.0
11
0.110540
21
0.062229
31
0.0
0
LINE
8
0
6
CONTINUOUS
10
0.104124
20
0.064601
30
0.0
11
0.107506
21
0.063693
31
0.0
0
LINE
8
0
6
CONTINUOUS
10
0.100564
20
0.064909
30
0.0
11
0.104124
21
0.064601
31
0.0
0
LINE
8
0
6
CONTINUOUS
10
0.097003
20
0.064601
30
0.0
11
0.100564
21
0.064909
31
0.0
0
LINE
8
0
6
CONTINUOUS
10
0.093621
20
0.063693
30
0.0
11
0.097003
21
0.064601
31
0.0
0
LINE
8
0
6
CONTINUOUS
10
0.090587
20
0.062229
30
0.0
11
0.093621
21
0.063693
31
0.0
0
LINE
8
0
6
CONTINUOUS
10
0.088053
20
0.060284
30
0.0
11
0.090587
21
0.062229
31
0.0
0
LINE
8
0
6
CONTINUOUS
10
0.086147
20
0.057955
30
0.0
11
0.088053
21
0.060284
31
0.0
0
LINE
8
0
6
CONTINUOUS
10
0.084964
20
0.055359
30
0.0
11
0.086147
21
0.057955
31
0.0
0
LINE
8
0
6
CONTINUOUS
10
0.084563
20
0.052626
30
0.0
11
0.084964
21
0.055359
31
0.0
0
LINE
8
0
6
CONTINUOUS
10
0.084563
20
0.053408
30
0.0
11
0.084563
21
0.052626
31
0.0
0
LINE
8
0
6
CONTINUOUS
10
0.084563
20
0.052626
30
0.0
11
0.084964
21
0.049892
31
0.0
0
LINE
8
0
6
CONTINUOUS
10
0.084964
20
0.049892
30
0.0
11
0.086147
21
0.047296
31
0.0
0
LINE
8
0
6
CONTINUOUS
10
0.086147
20
0.047296
30
0.0
11
0.087068
21
0.046171
31
0.0
0
LINE
8
0
6
CONTINUOUS
10
0.084938
20
0.105208
30
0.0
11
0.086929
21
0.109336
31
0.0
0
LINE
8
0
6
CONTINUOUS
10
0.116724
20
0.066167
30
0.0
11
0.117086
21
0.095313
31
0.0
0
LINE
8
0
6
CONTINUOUS
10
0.090553
20
0.058420
30
0.0
11
0.088148
21
0.056461
31
0.0
0
LINE
8
0
6
CONTINUOUS
10
0.100564
20
0.061102
30
0.0
11
0.096969
21
0.060792
31
0.0
0
LINE
8
0
6
CONTINUOUS
10
0.096969
20
0.060792
30
0.0
11
0.093529
21
0.059877
31
0.0
0
LINE
8
0
6
CONTINUOUS
10
0.087765
20
0.055588
30
0.0
11
0.087758
21
0.055496
31
0.0
0
LINE
8
0
6
CONTINUOUS
10
0.087824
20
0.056128
30
0.0
11
0.087765
21
0.055588
31
0.0
0
LINE
8
0
6
CONTINUOUS
10
0.051638
20
-0.103022
30
0.0
11
0.056647
21
-0.111222
31
0.0
0
LINE
8
0
6
CONTINUOUS
10
0.046774
20
-0.084585
30
0.0
11
0.046807
21
-0.084891
31
0.0
0
LINE
8
0
6
CONTINUOUS
10
0.057435
20
-0.048279
30
0.0
11
0.050325
21
-0.059286
31
0.0
0
LINE
8
0
6
CONTINUOUS
10
0.046807
20
-0.084891
30
0.0
11
0.047169
21
-0.088225
31
0.0
0
LINE
8
0
6
CONTINUOUS
10
0.082352
20
-0.016393
30
0.0
11
0.080158
21
-0.023215
31
0.0
0
LINE
8
0
6
CONTINUOUS
10
0.074607
20
-0.126228
30
0.0
11
0.087356
21
-0.130834
31
0.0
0
LINE
8
0
6
CONTINUOUS
10
0.068350
20
-0.038017
30
0.0
11
0.066641
21
-0.039652
31
0.0
0
LINE
8
0
6
CONTINUOUS
10
0.083325
20
-0.007183
30
0.0
11
0.084324
21
0.006855
31
0.0
0
LINE
8
0
6
CONTINUOUS
10
0.084161
20
0.006148
30
0.0
11
0.083149
21
-0.007997
31
0.0
0
LINE
8
0
6
CONTINUOUS
10
0.050325
20
-0.059286
30
0.0
11
0.046691
21
-0.071647
31
0.0
0
LINE
8
0
6
CONTINUOUS
10
0.070059
20
-0.036382
30
0.0
11
0.068350
21
-0.038017
31
0.0
0
LINE
8
0
6
CONTINUOUS
10
0.076218
20
-0.029804
30
0.0
11
0.071767
21
-0.034747
31
0.0
0
LINE
8
0
6
CONTINUOUS
10
0.076218
20
-0.029804
30
0.0
11
0.073320
21
-0.033730
31
0.0
0
LINE
8
0
6
CONTINUOUS
10
0.047662
20
-0.084237
30
0.0
11
0.047121
21
-0.071615
31
0.0
0
LINE
8
0
6
CONTINUOUS
10
0.055556
20
-0.105207
30
0.0
11
0.062412
21
-0.112678
31
0.0
0
LINE
8
0
6
CONTINUOUS
10
0.083149
20
-0.007997
30
0.0
11
0.082204
21
-0.016853
31
0.0
0
LINE
8
0
6
CONTINUOUS
10
0.082352
20
-0.016393
30
0.0
11
0.083325
21
-0.007183
31
0.0
0
LINE
8
0
6
CONTINUOUS
10
0.085559
20
0.024059
30
0.0
11
0.087103
21
0.046128
31
0.0
0
LINE
8
0
6
CONTINUOUS
10
0.087027
20
0.045616
30
0.0
11
0.085415
21
0.023483
31
0.0
0
LINE
8
0
6
CONTINUOUS
10
0.057467
20
-0.048626
30
0.0
11
0.050352
21
-0.059469
31
0.0
0
LINE
8
0
6
CONTINUOUS
10
0.085415
20
0.023483
30
0.0
11
0.084161
21
0.006148
31
0.0
0
LINE
8
0
6
CONTINUOUS
10
0.061803
20
-0.043853
30
0.0
11
0.057435
21
-0.048279
31
0.0
0
LINE
8
0
6
CONTINUOUS
10
0.086672
20
-0.125203
30
0.0
11
0.100564
21
-0.126834
31
0.0
0
LINE
8
0
6
CONTINUOUS
10
0.062412
20
-0.112678
30
0.0
11
0.073939
21
-0.120528
31
0.0
0
LINE
8
0
6
CONTINUOUS
10
0.087824
20
0.056128
30
0.0
11
0.087818
21
0.056036
31
0.0
0
LINE
8
0
6
CONTINUOUS
10
0.088148
20
0.056461
30
0.0
11
0.087824
21
0.056128
31
0.0
0
LINE
8
0
6
CONTINUOUS
10
0.093529
20
0.059877
30
0.0
11
0.090553
21
0.058420
31
0.0
0
LINE
8
0
6
CONTINUOUS
10
0.046774
20
-0.084585
30
0.0
11
0.050549
21
-0.096824
31
0.0
0
LINE
8
0
6
CONTINUOUS
10
0.061552
20
-0.044136
30
0.0
11
0.057467
21
-0.048626
31
0.0
0
LINE
8
0
6
CONTINUOUS
10
0.051466
20
-0.096147
30
0.0
11
0.056629
21
-0.104527
31
0.0
0
LINE
8
0
6
CONTINUOUS
10
0.075132
20
-0.119771
30
0.0
11
0.087501
21
-0.124016
31
0.0
0
LINE
8
0
6
CONTINUOUS
10
0.087501
20
-0.124016
30
0.0
11
0.100564
21
-0.125333
31
0.0
0
LINE
8
0
6
CONTINUOUS
10
0.056629
20
-0.104527
30
0.0
11
0.063900
21
-0.112347
31
0.0
0
LINE
8
0
6
CONTINUOUS
10
0.066641
20
-0.039652
30
0.0
11
0.061552
21
-0.044136
31
0.0
0
LINE
8
0
6
CONTINUOUS
10
0.047891
20
-0.090931
30
0.0
11
0.051638
21
-0.103022
31
0.0
0
LINE
8
0
6
CONTINUOUS
10
0.047865
20
-0.090835
30
0.0
11
0.047891
21
-0.090931
31
0.0
0
LINE
8
0
6
CONTINUOUS
10
0.087356
20
-0.130834
30
0.0
11
0.100564
21
-0.132378
31
0.0
0
LINE
8
0
6
CONTINUOUS
10
0.077195
20
-0.028846
30
0.0
11
0.073320
21
-0.033730
31
0.0
0
LINE
8
0
6
CONTINUOUS
10
0.056647
20
-0.111222
30
0.0
11
0.056877
21
-0.111497
31
0.0
0
LINE
8
0
6
CONTINUOUS
10
0.056877
20
-0.111497
30
0.0
11
0.063389
21
-0.118537
31
0.0
0
LINE
8
0
6
CONTINUOUS
10
0.047169
20
-0.088225
30
0.0
11
0.047865
21
-0.090835
31
0.0
0
LINE
8
0
6
CONTINUOUS
10
0.071767
20
-0.034747
30
0.0
11
0.070059
21
-0.036382
31
0.0
0
LINE
8
0
6
CONTINUOUS
10
0.066899
20
-0.039473
30
0.0
11
0.061803
21
-0.043853
31
0.0
0
LINE
8
0
6
CONTINUOUS
10
0.075132
20
-0.119771
30
0.0
11
0.063900
21
-0.112347
31
0.0
0
LINE
8
0
6
CONTINUOUS
10
0.050549
20
-0.096824
30
0.0
11
0.055556
21
-0.105207
31
0.0
0
LINE
8
0
6
CONTINUOUS
10
0.085559
20
0.024059
30
0.0
11
0.084324
21
0.006855
31
0.0
0
LINE
8
0
6
CONTINUOUS
10
0.080158
20
-0.023215
30
0.0
11
0.076218
21
-0.029804
31
0.0
0
LINE
8
0
6
CONTINUOUS
10
0.087103
20
0.046133
30
0.0
11
0.087818
21
0.056036
31
0.0
0
LINE
8
0
6
CONTINUOUS
10
0.087758
20
0.055496
30
0.0
11
0.087027
21
0.045616
31
0.0
0
LINE
8
0
6
CONTINUOUS
10
0.050352
20
-0.059469
30
0.0
11
0.047121
21
-0.071615
31
0.0
0
LINE
8
0
6
CONTINUOUS
10
0.051466
20
-0.096147
30
0.0
11
0.047662
21
-0.084237
31
0.0
0
LINE
8
0
6
CONTINUOUS
10
0.046691
20
-0.071647
30
0.0
11
0.046774
21
-0.084585
31
0.0
0
LINE
8
0
6
CONTINUOUS
10
0.063389
20
-0.118537
30
0.0
11
0.074607
21
-0.126228
31
0.0
0
LINE
8
0
6
CONTINUOUS
10
0.073939
20
-0.120528
30
0.0
11
0.086672
21
-0.125203
31
0.0
0
LINE
8
0
6
CONTINUOUS
10
0.112979
20
0.056461
30
0.0
11
0.110574
21
0.058420
31
0.0
0
LINE
8
0
6
CONTINUOUS
10
0.104159
20
0.060792
30
0.0
11
0.100564
21
0.061102
31
0.0
0
LINE
8
0
6
CONTINUOUS
10
0.107598
20
0.059877
30
0.0
11
0.104159
21
0.060792
31
0.0
0
LINE
8
0
6
CONTINUOUS
10
0.113363
20
0.055588
30
0.0
11
0.113303
21
0.056128
31
0.0
0
LINE
8
0
6
CONTINUOUS
10
0.113369
20
0.055496
30
0.0
11
0.113363
21
0.055588
31
0.0
0
LINE
8
0
6
CONTINUOUS
10
0.144480
20
-0.111222
30
0.0
11
0.149490
21
-0.103022
31
0.0
0
LINE
8
0
6
CONTINUOUS
10
0.154320
20
-0.084891
30
0.0
11
0.154353
21
-0.084585
31
0.0
0
LINE
8
0
6
CONTINUOUS
10
0.150802
20
-0.059286
30
0.0
11
0.143692
21
-0.048279
31
0.0
0
LINE
8
0
6
CONTINUOUS
10
0.153958
20
-0.088225
30
0.0
11
0.154320
21
-0.084891
31
0.0
0
LINE
8
0
6
CONTINUOUS
10
0.120969
20
-0.023215
30
0.0
11
0.118775
21
-0.016393
31
0.0
0
LINE
8
0
6
CONTINUOUS
10
0.113771
20
-0.130834
30
0.0
11
0.126521
21
-0.126228
31
0.0
0
LINE
8
0
6
CONTINUOUS
10
0.134486
20
-0.039652
30
0.0
11
0.132777
21
-0.038017
31
0.0
0
LINE
8
0
6
CONTINUOUS
10
0.117978
20
-0.007997
30
0.0
11
0.116966
21
0.006148
31
0.0
0
LINE
8
0
6
CONTINUOUS
10
0.116803
20
0.006855
30
0.0
11
0.117802
21
-0.007183
31
0.0
0
LINE
8
0
6
CONTINUOUS
10
0.154436
20
-0.071647
30
0.0
11
0.150802
21
-0.059286
31
0.0
0
LINE
8
0
6
CONTINUOUS
10
0.132777
20
-0.038017
30
0.0
11
0.131069
21
-0.036382
31
0.0
0
LINE
8
0
6
CONTINUOUS
10
0.124909
20
-0.029804
30
0.0
11
0.127807
21
-0.033730
31
0.0
0
LINE
8
0
6
CONTINUOUS
10
0.129360
20
-0.034747
30
0.0
11
0.124909
21
-0.029804
31
0.0
0
LINE
8
0
6
CONTINUOUS
10
0.154007
20
-0.071615
30
0.0
11
0.153466
21
-0.084237
31
0.0
0
LINE
8
0
6
CONTINUOUS
10
0.138715
20
-0.112678
30
0.0
11
0.145571
21
-0.105207
31
0.0
0
LINE
8
0
6
CONTINUOUS
10
0.117802
20
-0.007183
30
0.0
11
0.118775
21
-0.016393
31
0.0
0
LINE
8
0
6
CONTINUOUS
10
0.118923
20
-0.016853
30
0.0
11
0.117978
21
-0.007997
31
0.0
0
LINE
8
0
6
CONTINUOUS
10
0.115712
20
0.023483
30
0.0
11
0.114100
21
0.045616
31
0.0
0
LINE
8
0
6
CONTINUOUS
10
0.114024
20
0.046133
30
0.0
11
0.115568
21
0.024059
31
0.0
0
LINE
8
0
6
CONTINUOUS
10
0.150775
20
-0.059469
30
0.0
11
0.143661
21
-0.048626
31
0.0
0
LINE
8
0
6
CONTINUOUS
10
0.116966
20
0.006148
30
0.0
11
0.115712
21
0.023483
31
0.0
0
LINE
8
0
6
CONTINUOUS
10
0.143692
20
-0.048279
30
0.0
11
0.139324
21
-0.043853
31
0.0
0
LINE
8
0
6
CONTINUOUS
10
0.100564
20
-0.126834
30
0.0
11
0.114455
21
-0.125203
31
0.0
0
LINE
8
0
6
CONTINUOUS
10
0.127188
20
-0.120528
30
0.0
11
0.138715
21
-0.112678
31
0.0
0
LINE
8
0
6
CONTINUOUS
10
0.113303
20
0.056128
30
0.0
11
0.112979
21
0.056461
31
0.0
0
LINE
8
0
6
CONTINUOUS
10
0.113309
20
0.056036
30
0.0
11
0.113303
21
0.056128
31
0.0
0
LINE
8
0
6
CONTINUOUS
10
0.110574
20
0.058420
30
0.0
11
0.107598
21
0.059877
31
0.0
0
LINE
8
0
6
CONTINUOUS
10
0.150578
20
-0.096824
30
0.0
11
0.154353
21
-0.084585
31
0.0
0
LINE
8
0
6
CONTINUOUS
10
0.143661
20
-0.048626
30
0.0
11
0.139576
21
-0.044136
31
0.0
0
LINE
8
0
6
CONTINUOUS
10
0.144498
20
-0.104527
30
0.0
11
0.149661
21
-0.096147
31
0.0
0
LINE
8
0
6
CONTINUOUS
10
0.113626
20
-0.124016
30
0.0
11
0.125995
21
-0.119771
31
0.0
0
LINE
8
0
6
CONTINUOUS
10
0.100564
20
-0.125333
30
0.0
11
0.113626
21
-0.124016
31
0.0
0
LINE
8
0
6
CONTINUOUS
10
0.137227
20
-0.112347
30
0.0
11
0.144498
21
-0.104527
31
0.0
0
LINE
8
0
6
CONTINUOUS
10
0.139576
20
-0.044136
30
0.0
11
0.134486
21
-0.039652
31
0.0
0
LINE
8
0
6
CONTINUOUS
10
0.153236
20
-0.090931
30
0.0
11
0.153262
21
-0.090835
31
0.0
0
LINE
8
0
6
CONTINUOUS
10
0.149490
20
-0.103022
30
0.0
11
0.153236
21
-0.090931
31
0.0
0
LINE
8
0
6
CONTINUOUS
10
0.100564
20
-0.132378
30
0.0
11
0.113771
21
-0.130834
31
0.0
0
LINE
8
0
6
CONTINUOUS
10
0.127807
20
-0.033730
30
0.0
11
0.123932
21
-0.028846
31
0.0
0
LINE
8
0
6
CONTINUOUS
10
0.137739
20
-0.118537
30
0.0
11
0.144250
21
-0.111497
31
0.0
0
LINE
8
0
6
CONTINUOUS
10
0.144250
20
-0.111497
30
0.0
11
0.144480
21
-0.111222
31
0.0
0
LINE
8
0
6
CONTINUOUS
10
0.153262
20
-0.090835
30
0.0
11
0.153958
21
-0.088225
31
0.0
0
LINE
8
0
6
CONTINUOUS
10
0.131069
20
-0.036382
30
0.0
11
0.129360
21
-0.034747
31
0.0
0
LINE
8
0
6
CONTINUOUS
10
0.139324
20
-0.043853
30
0.0
11
0.134228
21
-0.039473
31
0.0
0
LINE
8
0
6
CONTINUOUS
10
0.137227
20
-0.112347
30
0.0
11
0.125995
21
-0.119771
31
0.0
0
LINE
8
0
6
CONTINUOUS
10
0.145571
20
-0.105207
30
0.0
11
0.150578
21
-0.096824
31
0.0
0
LINE
8
0
6
CONTINUOUS
10
0.116803
20
0.006855
30
0.0
11
0.115568
21
0.024059
31
0.0
0
LINE
8
0
6
CONTINUOUS
10
0.124909
20
-0.029804
30
0.0
11
0.120969
21
-0.023215
31
0.0
0
LINE
8
0
6
CONTINUOUS
10
0.114100
20
0.045616
30
0.0
11
0.113369
21
0.055496
31
0.0
0
LINE
8
0
6
CONTINUOUS
10
0.113309
20
0.056036
30
0.0
11
0.114024
21
0.046133
31
0.0
0
LINE
8
0
6
CONTINUOUS
10
0.154007
20
-0.071615
30
0.0
11
0.150775
21
-0.059469
31
0.0
0
LINE
8
0
6
CONTINUOUS
10
0.153466
20
-0.084237
30
0.0
11
0.149661
21
-0.096147
31
0.0
0
LINE
8
0
6
CONTINUOUS
10
0.154353
20
-0.084585
30
0.0
11
0.154436
21
-0.071647
31
0.0
0
LINE
8
0
6
CONTINUOUS
10
0.126521
20
-0.126228
30
0.0
11
0.137739
21
-0.118537
31
0.0
0
LINE
8
0
6
CONTINUOUS
10
0.114455
20
-0.125203
30
0.0
11
0.127188
21
-0.120528
31
0.0
0
LINE
8
0
6
CONTINUOUS
10
-0.110378
20
0.131185
30
0.0
11
-0.119436
21
0.132378
31
0.0
0
LINE
8
0
6
CONTINUOUS
10
-0.101936
20
0.127689
30
0.0
11
-0.110378
21
0.131185
31
0.0
0
LINE
8
0
6
CONTINUOUS
10
-0.094688
20
0.122127
30
0.0
11
-0.101936
21
0.127689
31
0.0
0
LINE
8
0
6
CONTINUOUS
10
-0.089125
20
0.114878
30
0.0
11
-0.094688
21
0.122127
31
0.0
0
LINE
8
0
6
CONTINUOUS
10
-0.085629
20
0.106437
30
0.0
11
-0.089125
21
0.114878
31
0.0
0
LINE
8
0
6
CONTINUOUS
10
-0.084436
20
0.097378
30
0.0
11
-0.085629
21
0.106437
31
0.0
0
LINE
8
0
6
CONTINUOUS
10
-0.085629
20
0.088319
30
0.0
11
-0.084436
21
0.097378
31
0.0
0
LINE
8
0
6
CONTINUOUS
10
-0.089126
20
0.079878
30
0.0
11
-0.085629
21
0.088319
31
0.0
0
LINE
8
0
6
CONTINUOUS
10
-0.094688
20
0.072629
30
0.0
11
-0.089126
21
0.079878
31
0.0
0
LINE
8
0
6
CONTINUOUS
10
-0.104936
20
0.065824
30
0.0
11
-0.101936
21
0.067067
31
0.0
0
LINE
8
0
6
CONTINUOUS
10
-0.136936
20
0.067067
30
0.0
11
-0.133936
21
0.065824
31
0.0
0
LINE
8
0
6
CONTINUOUS
10
-0.144185
20
0.072629
30
0.0
11
-0.136936
21
0.067067
31
0.0
0
LINE
8
0
6
CONTINUOUS
10
-0.149747
20
0.079878
30
0.0
11
-0.144185
21
0.072629
31
0.0
0
LINE
8
0
6
CONTINUOUS
10
-0.153244
20
0.088319
30
0.0
11
-0.149747
21
0.079878
31
0.0
0
LINE
8
0
6
CONTINUOUS
10
-0.154436
20
0.097378
30
0.0
11
-0.153244
21
0.088319
31
0.0
0
LINE
8
0
6
CONTINUOUS
10
-0.153244
20
0.106437
30
0.0
11
-0.154436
21
0.097378
31
0.0
0
LINE
8
0
6
CONTINUOUS
10
-0.149747
20
0.114878
30
0.0
11
-0.153244
21
0.106437
31
0.0
0
LINE
8
0
6
CONTINUOUS
10
-0.144185
20
0.122127
30
0.0
11
-0.149747
21
0.114878
31
0.0
0
LINE
8
0
6
CONTINUOUS
10
-0.136936
20
0.127689
30
0.0
11
-0.144185
21
0.122127
31
0.0
0
LINE
8
0
6
CONTINUOUS
10
-0.128495
20
0.131185
30
0.0
11
-0.136936
21
0.127689
31
0.0
0
LINE
8
0
6
CONTINUOUS
10
-0.119436
20
0.132378
30
0.0
11
-0.128495
21
0.131185
31
0.0
0
LINE
8
0
6
CONTINUOUS
10
-0.101936
20
0.067067
30
0.0
11
-0.094688
21
0.072629
31
0.0
0
LINE
8
0
6
CONTINUOUS
10
-0.133933
20
0.096982
30
0.0
11
-0.133936
21
0.096586
31
0.0
0
LINE
8
0
6
CONTINUOUS
10
-0.104940
20
0.096982
30
0.0
11
-0.105573
21
0.101386
31
0.0
0
LINE
8
0
6
CONTINUOUS
10
-0.104936
20
0.096586
30
0.0
11
-0.104940
21
0.096982
31
0.0
0
LINE
8
0
6
CONTINUOUS
10
-0.133943
20
0.094649
30
0.0
11
-0.133936
21
0.092713
31
0.0
0
LINE
8
0
6
CONTINUOUS
10
-0.104936
20
0.092713
30
0.0
11
-0.104929
21
0.094649
31
0.0
0
LINE
8
0
6
CONTINUOUS
10
-0.133937
20
0.089410
30
0.0
11
-0.133936
21
0.086107
31
0.0
0
LINE
8
0
6
CONTINUOUS
10
-0.104936
20
0.086107
30
0.0
11
-0.104936
21
0.089410
31
0.0
0
LINE
8
0
6
CONTINUOUS
10
-0.133938
20
0.081734
30
0.0
11
-0.133936
21
0.077361
31
0.0
0
LINE
8
0
6
CONTINUOUS
10
-0.104936
20
0.077361
30
0.0
11
-0.104934
21
0.081734
31
0.0
0
LINE
8
0
6
CONTINUOUS
10
-0.133936
20
0.072312
30
0.0
11
-0.133936
21
0.067262
31
0.0
0
LINE
8
0
6
CONTINUOUS
10
-0.104936
20
0.067262
30
0.0
11
-0.104937
21
0.072312
31
0.0
0
LINE
8
0
6
CONTINUOUS
10
-0.104936
20
0.059288
30
0.0
11
-0.104936
21
0.067262
31
0.0
0
LINE
8
0
6
CONTINUOUS
10
-0.133936
20
0.067262
30
0.0
11
-0.133936
21
0.059288
31
0.0
0
LINE
8
0
6
CONTINUOUS
10
-0.104936
20
-0.118747
30
0.0
11
-0.104936
21
0.059288
31
0.0
0
LINE
8
0
6
CONTINUOUS
10
-0.133936
20
0.059288
30
0.0
11
-0.133936
21
-0.118748
31
0.0
0
LINE
8
0
6
CONTINUOUS
10
-0.127959
20
-0.119103
30
0.0
11
-0.123917
21
-0.118984
31
0.0
0
LINE
8
0
6
CONTINUOUS
10
-0.131167
20
-0.119289
30
0.0
11
-0.127959
21
-0.119103
31
0.0
0
LINE
8
0
6
CONTINUOUS
10
-0.133227
20
-0.119523
30
0.0
11
-0.131167
21
-0.119289
31
0.0
0
LINE
8
0
6
CONTINUOUS
10
-0.133936
20
-0.118748
30
0.0
11
-0.133936
21
-0.119783
31
0.0
0
LINE
8
0
6
CONTINUOUS
10
-0.133936
20
-0.119783
30
0.0
11
-0.133227
21
-0.119523
31
0.0
0
LINE
8
0
6
CONTINUOUS
10
-0.133936
20
-0.119783
30
0.0
11
-0.133227
21
-0.120042
31
0.0
0
LINE
8
0
6
CONTINUOUS
10
-0.133227
20
-0.120042
30
0.0
11
-0.131167
21
-0.120276
31
0.0
0
LINE
8
0
6
CONTINUOUS
10
-0.131167
20
-0.120276
30
0.0
11
-0.127959
21
-0.120462
31
0.0
0
LINE
8
0
6
CONTINUOUS
10
-0.127959
20
-0.120462
30
0.0
11
-0.123917
21
-0.120581
31
0.0
0
LINE
8
0
6
CONTINUOUS
10
-0.123917
20
-0.120581
30
0.0
11
-0.119436
21
-0.120622
31
0.0
0
LINE
8
0
6
CONTINUOUS
10
-0.119436
20
-0.120622
30
0.0
11
-0.114956
21
-0.120581
31
0.0
0
LINE
8
0
6
CONTINUOUS
10
-0.114956
20
-0.120581
30
0.0
11
-0.110914
21
-0.120462
31
0.0
0
LINE
8
0
6
CONTINUOUS
10
-0.110914
20
-0.120462
30
0.0
11
-0.107706
21
-0.120276
31
0.0
0
LINE
8
0
6
CONTINUOUS
10
-0.107706
20
-0.120276
30
0.0
11
-0.105646
21
-0.120042
31
0.0
0
LINE
8
0
6
CONTINUOUS
10
-0.105646
20
-0.120042
30
0.0
11
-0.104936
21
-0.119783
31
0.0
0
LINE
8
0
6
CONTINUOUS
10
-0.104936
20
-0.119783
30
0.0
11
-0.104936
21
-0.118747
31
0.0
0
LINE
8
0
6
CONTINUOUS
10
-0.105646
20
-0.119523
30
0.0
11
-0.104936
21
-0.119783
31
0.0
0
LINE
8
0
6
CONTINUOUS
10
-0.107706
20
-0.119289
30
0.0
11
-0.105646
21
-0.119523
31
0.0
0
LINE
8
0
6
CONTINUOUS
10
-0.110914
20
-0.119103
30
0.0
11
-0.107706
21
-0.119289
31
0.0
0
LINE
8
0
6
CONTINUOUS
10
-0.114956
20
-0.118984
30
0.0
11
-0.110914
21
-0.119103
31
0.0
0
LINE
8
0
6
CONTINUOUS
10
-0.119436
20
-0.118943
30
0.0
11
-0.114956
21
-0.118984
31
0.0
0
LINE
8
0
6
CONTINUOUS
10
-0.123917
20
-0.118984
30
0.0
11
-0.119436
21
-0.118943
31
0.0
0
LINE
8
0
6
CONTINUOUS
10
-0.119436
20
0.121378
30
0.0
11
-0.125648
21
0.120560
31
0.0
0
LINE
8
0
6
CONTINUOUS
10
-0.125648
20
0.120560
30
0.0
11
-0.131436
21
0.118163
31
0.0
0
LINE
8
0
6
CONTINUOUS
10
-0.131436
20
0.118163
30
0.0
11
-0.136407
21
0.114348
31
0.0
0
LINE
8
0
6
CONTINUOUS
10
-0.136407
20
0.114348
30
0.0
11
-0.140221
21
0.109378
31
0.0
0
LINE
8
0
6
CONTINUOUS
10
-0.140221
20
0.109378
30
0.0
11
-0.142619
21
0.103590
31
0.0
0
LINE
8
0
6
CONTINUOUS
10
-0.142619
20
0.103590
30
0.0
11
-0.143436
21
0.097378
31
0.0
0
LINE
8
0
6
CONTINUOUS
10
-0.143436
20
0.097378
30
0.0
11
-0.142619
21
0.091166
31
0.0
0
LINE
8
0
6
CONTINUOUS
10
-0.142619
20
0.091166
30
0.0
11
-0.140221
21
0.085378
31
0.0
0
LINE
8
0
6
CONTINUOUS
10
-0.140221
20
0.085378
30
0.0
11
-0.136407
21
0.080407
31
0.0
0
LINE
8
0
6
CONTINUOUS
10
-0.136407
20
0.080407
30
0.0
11
-0.133937
21
0.078512
31
0.0
0
LINE
8
0
6
CONTINUOUS
10
-0.104936
20
0.078512
30
0.0
11
-0.102466
21
0.080407
31
0.0
0
LINE
8
0
6
CONTINUOUS
10
-0.102466
20
0.080407
30
0.0
11
-0.098652
21
0.085378
31
0.0
0
LINE
8
0
6
CONTINUOUS
10
-0.098652
20
0.085378
30
0.0
11
-0.096254
21
0.091166
31
0.0
0
LINE
8
0
6
CONTINUOUS
10
-0.096254
20
0.091166
30
0.0
11
-0.095436
21
0.097378
31
0.0
0
LINE
8
0
6
CONTINUOUS
10
-0.095436
20
0.097378
30
0.0
11
-0.096254
21
0.103590
31
0.0
0
LINE
8
0
6
CONTINUOUS
10
-0.096254
20
0.103590
30
0.0
11
-0.098652
21
0.109378
31
0.0
0
LINE
8
0
6
CONTINUOUS
10
-0.098652
20
0.109378
30
0.0
11
-0.102466
21
0.114348
31
0.0
0
LINE
8
0
6
CONTINUOUS
10
-0.102466
20
0.114348
30
0.0
11
-0.107436
21
0.118163
31
0.0
0
LINE
8
0
6
CONTINUOUS
10
-0.107436
20
0.118163
30
0.0
11
-0.113225
21
0.120560
31
0.0
0
LINE
8
0
6
CONTINUOUS
10
-0.113225
20
0.120560
30
0.0
11
-0.119436
21
0.121378
31
0.0
0
LINE
8
0
6
CONTINUOUS
10
-0.104929
20
0.094649
30
0.0
11
-0.104936
21
0.096586
31
0.0
0
LINE
8
0
6
CONTINUOUS
10
-0.133936
20
0.096586
30
0.0
11
-0.133943
21
0.094649
31
0.0
0
LINE
8
0
6
CONTINUOUS
10
-0.104936
20
0.089410
30
0.0
11
-0.104936
21
0.092713
31
0.0
0
LINE
8
0
6
CONTINUOUS
10
-0.133936
20
0.092713
30
0.0
11
-0.133937
21
0.089410
31
0.0
0
LINE
8
0
6
CONTINUOUS
10
-0.123917
20
0.111168
30
0.0
11
-0.127959
21
0.109109
31
0.0
0
LINE
8
0
6
CONTINUOUS
10
-0.119436
20
0.111878
30
0.0
11
-0.123917
21
0.111168
31
0.0
0
LINE
8
0
6
CONTINUOUS
10
-0.114956
20
0.111168
30
0.0
11
-0.119436
21
0.111878
31
0.0
0
LINE
8
0
6
CONTINUOUS
10
-0.110914
20
0.109109
30
0.0
11
-0.114956
21
0.111168
31
0.0
0
LINE
8
0
6
CONTINUOUS
10
-0.107706
20
0.105901
30
0.0
11
-0.110914
21
0.109109
31
0.0
0
LINE
8
0
6
CONTINUOUS
10
-0.105646
20
0.101859
30
0.0
11
-0.107706
21
0.105901
31
0.0
0
LINE
8
0
6
CONTINUOUS
10
-0.105573
20
0.101386
30
0.0
11
-0.105646
21
0.101859
31
0.0
0
LINE
8
0
6
CONTINUOUS
10
-0.104936
20
0.097378
30
0.0
11
-0.105646
21
0.101859
31
0.0
0
LINE
8
0
6
CONTINUOUS
10
-0.104940
20
0.096982
30
0.0
11
-0.104936
21
0.097378
31
0.0
0
LINE
8
0
6
CONTINUOUS
10
-0.133227
20
0.101859
30
0.0
11
-0.133936
21
0.097378
31
0.0
0
LINE
8
0
6
CONTINUOUS
10
-0.133936
20
0.097378
30
0.0
11
-0.133933
21
0.096982
31
0.0
0
LINE
8
0
6
CONTINUOUS
10
-0.131167
20
0.105901
30
0.0
11
-0.133227
21
0.101859
31
0.0
0
LINE
8
0
6
CONTINUOUS
10
-0.127959
20
0.109109
30
0.0
11
-0.131167
21
0.105901
31
0.0
0
LINE
8
0
6
CONTINUOUS
10
-0.104934
20
0.081734
30
0.0
11
-0.104936
21
0.086107
31
0.0
0
LINE
8
0
6
CONTINUOUS
10
-0.133936
20
0.086107
30
0.0
11
-0.133938
21
0.081734
31
0.0
0
LINE
8
0
6
CONTINUOUS
10
-0.104937
20
0.072312
30
0.0
11
-0.104936
21
0.077361
31
0.0
0
LINE
8
0
6
CONTINUOUS
10
-0.133936
20
0.077361
30
0.0
11
-0.133936
21
0.072312
31
0.0
0
LINE
8
0
6
CONTINUOUS
10
-0.015109
20
0.064992
30
0.0
11
-0.015109
21
0.031359
31
0.0
0
LINE
8
0
6
CONTINUOUS
10
-0.017218
20
0.075753
30
0.0
11
-0.016348
21
0.074246
31
0.0
0
LINE
8
0
6
CONTINUOUS
10
-0.020596
20
0.077848
30
0.0
11
-0.018043
21
0.076417
31
0.0
0
LINE
8
0
6
CONTINUOUS
10
-0.015430
20
0.071733
30
0.0
11
-0.015026
21
0.068718
31
0.0
0
LINE
8
0
6
CONTINUOUS
10
-0.014617
20
0.069040
30
0.0
11
-0.015128
21
0.071836
31
0.0
0
LINE
8
0
6
CONTINUOUS
10
-0.011607
20
0.071134
30
0.0
11
-0.011607
21
0.067969
31
0.0
0
LINE
8
0
6
CONTINUOUS
10
-0.015026
20
0.068718
30
0.0
11
-0.015109
21
0.064992
31
0.0
0
LINE
8
0
6
CONTINUOUS
10
-0.014677
20
0.065283
30
0.0
11
-0.014617
21
0.069040
31
0.0
0
LINE
8
0
6
CONTINUOUS
10
-0.018043
20
0.076417
30
0.0
11
-0.017218
21
0.075753
31
0.0
0
LINE
8
0
6
CONTINUOUS
10
-0.015649
20
0.072512
30
0.0
11
-0.015430
21
0.071733
31
0.0
0
LINE
8
0
6
CONTINUOUS
10
-0.016348
20
0.074246
30
0.0
11
-0.015649
21
0.072512
31
0.0
0
LINE
8
0
6
CONTINUOUS
10
-0.011607
20
0.032736
30
0.0
11
-0.011607
21
0.032246
31
0.0
0
LINE
8
0
6
CONTINUOUS
10
-0.009436
20
0.032359
30
0.0
11
-0.011607
21
0.032246
31
0.0
0
LINE
8
0
6
CONTINUOUS
10
-0.014019
20
0.031698
30
0.0
11
-0.014677
21
0.031439
31
0.0
0
LINE
8
0
6
CONTINUOUS
10
-0.011607
20
0.032246
30
0.0
11
-0.012527
21
0.032084
31
0.0
0
LINE
8
0
6
CONTINUOUS
10
-0.015109
20
0.031359
30
0.0
11
-0.015109
21
0.030869
31
0.0
0
LINE
8
0
6
CONTINUOUS
10
-0.014677
20
0.031439
30
0.0
11
-0.015109
21
0.030869
31
0.0
0
LINE
8
0
6
CONTINUOUS
10
-0.015109
20
0.030869
30
0.0
11
-0.014677
21
0.030298
31
0.0
0
LINE
8
0
6
CONTINUOUS
10
-0.014677
20
0.030298
30
0.0
11
-0.013447
21
0.029815
31
0.0
0
LINE
8
0
6
CONTINUOUS
10
-0.013447
20
0.029815
30
0.0
11
-0.011607
21
0.029491
31
0.0
0
LINE
8
0
6
CONTINUOUS
10
-0.011607
20
0.029491
30
0.0
11
-0.009436
21
0.029378
31
0.0
0
LINE
8
0
6
CONTINUOUS
10
-0.011607
20
0.067969
30
0.0
11
-0.011607
21
0.032736
31
0.0
0
LINE
8
0
6
CONTINUOUS
10
-0.031126
20
0.103138
30
0.0
11
-0.031936
21
0.097378
31
0.0
0
LINE
8
0
6
CONTINUOUS
10
-0.031936
20
0.097378
30
0.0
11
-0.031126
21
0.091618
31
0.0
0
LINE
8
0
6
CONTINUOUS
10
-0.020596
20
0.116908
30
0.0
11
-0.025366
21
0.113308
31
0.0
0
LINE
8
0
6
CONTINUOUS
10
-0.015196
20
0.119068
30
0.0
11
-0.020596
21
0.116908
31
0.0
0
LINE
8
0
6
CONTINUOUS
10
-0.009436
20
0.119878
30
0.0
11
-0.015196
21
0.119068
31
0.0
0
LINE
8
0
6
CONTINUOUS
10
-0.025366
20
0.113308
30
0.0
11
-0.028966
21
0.108538
31
0.0
0
LINE
8
0
6
CONTINUOUS
10
-0.028966
20
0.086218
30
0.0
11
-0.025366
21
0.081448
31
0.0
0
LINE
8
0
6
CONTINUOUS
10
-0.031126
20
0.091618
30
0.0
11
-0.028966
21
0.086218
31
0.0
0
LINE
8
0
6
CONTINUOUS
10
-0.025366
20
0.081448
30
0.0
11
-0.020596
21
0.077848
31
0.0
0
LINE
8
0
6
CONTINUOUS
10
-0.028966
20
0.108538
30
0.0
11
-0.031126
21
0.103138
31
0.0
0
LINE
8
0
6
CONTINUOUS
10
-0.013471
20
0.069422
30
0.0
11
-0.013489
21
0.065482
31
0.0
0
LINE
8
0
6
CONTINUOUS
10
-0.014079
20
0.071897
30
0.0
11
-0.013471
21
0.069422
31
0.0
0
LINE
8
0
6
CONTINUOUS
10
-0.016553
20
0.075646
30
0.0
11
-0.017562
21
0.076359
31
0.0
0
LINE
8
0
6
CONTINUOUS
10
-0.020596
20
0.077848
30
0.0
11
-0.017562
21
0.076359
31
0.0
0
LINE
8
0
6
CONTINUOUS
10
-0.020596
20
0.077848
30
0.0
11
-0.017707
21
0.076377
31
0.0
0
LINE
8
0
6
CONTINUOUS
10
-0.015324
20
0.074150
30
0.0
11
-0.016553
21
0.075646
31
0.0
0
LINE
8
0
6
CONTINUOUS
10
-0.014404
20
0.072633
30
0.0
11
-0.015324
21
0.074150
31
0.0
0
LINE
8
0
6
CONTINUOUS
10
-0.016769
20
0.075681
30
0.0
11
-0.017218
21
0.075753
31
0.0
0
LINE
8
0
6
CONTINUOUS
10
-0.014404
20
0.072633
30
0.0
11
-0.014079
21
0.071897
31
0.0
0
LINE
8
0
6
CONTINUOUS
10
-0.013489
20
0.065482
30
0.0
11
-0.013447
21
0.032413
31
0.0
0
LINE
8
0
6
CONTINUOUS
10
-0.013447
20
0.031923
30
0.0
11
-0.014019
21
0.031698
31
0.0
0
LINE
8
0
6
CONTINUOUS
10
-0.012527
20
0.032084
30
0.0
11
-0.013447
21
0.031923
31
0.0
0
LINE
8
0
6
CONTINUOUS
10
-0.003764
20
0.031359
30
0.0
11
-0.003764
21
0.064992
31
0.0
0
LINE
8
0
6
CONTINUOUS
10
-0.002525
20
0.074246
30
0.0
11
-0.001655
21
0.075753
31
0.0
0
LINE
8
0
6
CONTINUOUS
10
-0.009436
20
0.080823
30
0.0
11
-0.009436
21
0.076365
31
0.0
0
LINE
8
0
6
CONTINUOUS
10
-0.000830
20
0.076417
30
0.0
11
0.001724
21
0.077848
31
0.0
0
LINE
8
0
6
CONTINUOUS
10
-0.003745
20
0.071836
30
0.0
11
-0.004255
21
0.069040
31
0.0
0
LINE
8
0
6
CONTINUOUS
10
-0.003847
20
0.068718
30
0.0
11
-0.003443
21
0.071733
31
0.0
0
LINE
8
0
6
CONTINUOUS
10
-0.009436
20
0.076365
30
0.0
11
-0.009436
21
0.071985
31
0.0
0
LINE
8
0
6
CONTINUOUS
10
-0.009436
20
0.071985
30
0.0
11
-0.009436
21
0.068759
31
0.0
0
LINE
8
0
6
CONTINUOUS
10
-0.007266
20
0.067969
30
0.0
11
-0.007266
21
0.071134
31
0.0
0
LINE
8
0
6
CONTINUOUS
10
-0.004255
20
0.069040
30
0.0
11
-0.004196
21
0.065283
31
0.0
0
LINE
8
0
6
CONTINUOUS
10
-0.003764
20
0.064992
30
0.0
11
-0.003847
21
0.068718
31
0.0
0
LINE
8
0
6
CONTINUOUS
10
-0.001655
20
0.075753
30
0.0
11
-0.000830
21
0.076417
31
0.0
0
LINE
8
0
6
CONTINUOUS
10
-0.003443
20
0.071733
30
0.0
11
-0.003224
21
0.072512
31
0.0
0
LINE
8
0
6
CONTINUOUS
10
-0.009436
20
0.085947
30
0.0
11
-0.009436
21
0.080823
31
0.0
0
LINE
8
0
6
CONTINUOUS
10
-0.003224
20
0.072512
30
0.0
11
-0.002525
21
0.074246
31
0.0
0
LINE
8
0
6
CONTINUOUS
10
-0.007266
20
0.032246
30
0.0
11
-0.007266
21
0.032736
31
0.0
0
LINE
8
0
6
CONTINUOUS
10
-0.009436
20
0.032850
30
0.0
11
-0.009436
21
0.032359
31
0.0
0
LINE
8
0
6
CONTINUOUS
10
-0.007266
20
0.032246
30
0.0
11
-0.009436
21
0.032359
31
0.0
0
LINE
8
0
6
CONTINUOUS
10
-0.004196
20
0.031439
30
0.0
11
-0.004854
21
0.031698
31
0.0
0
LINE
8
0
6
CONTINUOUS
10
-0.006346
20
0.032084
30
0.0
11
-0.007266
21
0.032246
31
0.0
0
LINE
8
0
6
CONTINUOUS
10
-0.003764
20
0.030869
30
0.0
11
-0.003764
21
0.031359
31
0.0
0
LINE
8
0
6
CONTINUOUS
10
-0.003764
20
0.030869
30
0.0
11
-0.004196
21
0.031439
31
0.0
0
LINE
8
0
6
CONTINUOUS
10
-0.004196
20
0.030298
30
0.0
11
-0.003764
21
0.030869
31
0.0
0
LINE
8
0
6
CONTINUOUS
10
-0.005425
20
0.029815
30
0.0
11
-0.004196
21
0.030298
31
0.0
0
LINE
8
0
6
CONTINUOUS
10
-0.007266
20
0.029491
30
0.0
11
-0.005425
21
0.029815
31
0.0
0
LINE
8
0
6
CONTINUOUS
10
-0.009436
20
0.029378
30
0.0
11
-0.007266
21
0.029491
31
0.0
0
LINE
8
0
6
CONTINUOUS
10
-0.009436
20
0.068759
30
0.0
11
-0.009436
21
0.032850
31
0.0
0
LINE
8
0
6
CONTINUOUS
10
-0.007266
20
0.032736
30
0.0
11
-0.007266
21
0.067969
31
0.0
0
LINE
8
0
6
CONTINUOUS
10
0.013064
20
0.097378
30
0.0
11
0.012254
21
0.103138
31
0.0
0
LINE
8
0
6
CONTINUOUS
10
0.012254
20
0.091618
30
0.0
11
0.013064
21
0.097378
31
0.0
0
LINE
8
0
6
CONTINUOUS
10
0.006494
20
0.113308
30
0.0
11
0.001724
21
0.116908
31
0.0
0
LINE
8
0
6
CONTINUOUS
10
0.001724
20
0.116908
30
0.0
11
-0.003676
21
0.119068
31
0.0
0
LINE
8
0
6
CONTINUOUS
10
-0.003676
20
0.119068
30
0.0
11
-0.009436
21
0.119878
31
0.0
0
LINE
8
0
6
CONTINUOUS
10
0.010094
20
0.108538
30
0.0
11
0.006494
21
0.113308
31
0.0
0
LINE
8
0
6
CONTINUOUS
10
0.006494
20
0.081448
30
0.0
11
0.010094
21
0.086218
31
0.0
0
LINE
8
0
6
CONTINUOUS
10
0.010094
20
0.086218
30
0.0
11
0.012254
21
0.091618
31
0.0
0
LINE
8
0
6
CONTINUOUS
10
0.001724
20
0.077848
30
0.0
11
0.006494
21
0.081448
31
0.0
0
LINE
8
0
6
CONTINUOUS
10
0.012254
20
0.103138
30
0.0
11
0.010094
21
0.108538
31
0.0
0
LINE
8
0
6
CONTINUOUS
10
-0.005384
20
0.065482
30
0.0
11
-0.005402
21
0.069422
31
0.0
0
LINE
8
0
6
CONTINUOUS
10
-0.005402
20
0.069422
30
0.0
11
-0.004793
21
0.071897
31
0.0
0
LINE
8
0
6
CONTINUOUS
10
-0.001311
20
0.076359
30
0.0
11
-0.002320
21
0.075646
31
0.0
0
LINE
8
0
6
CONTINUOUS
10
-0.001311
20
0.076359
30
0.0
11
0.001724
21
0.077848
31
0.0
0
LINE
8
0
6
CONTINUOUS
10
-0.001165
20
0.076377
30
0.0
11
0.001724
21
0.077848
31
0.0
0
LINE
8
0
6
CONTINUOUS
10
-0.002320
20
0.075646
30
0.0
11
-0.003549
21
0.074150
31
0.0
0
LINE
8
0
6
CONTINUOUS
10
-0.003549
20
0.074150
30
0.0
11
-0.004469
21
0.072633
31
0.0
0
LINE
8
0
6
CONTINUOUS
10
-0.001655
20
0.075753
30
0.0
11
-0.002103
21
0.075681
31
0.0
0
LINE
8
0
6
CONTINUOUS
10
-0.004793
20
0.071897
30
0.0
11
-0.004469
21
0.072633
31
0.0
0
LINE
8
0
6
CONTINUOUS
10
-0.005425
20
0.032413
30
0.0
11
-0.005384
21
0.065482
31
0.0
0
LINE
8
0
6
CONTINUOUS
10
-0.004854
20
0.031698
30
0.0
11
-0.005425
21
0.031923
31
0.0
0
LINE
8
0
6
CONTINUOUS
10
-0.005425
20
0.031923
30
0.0
11
-0.006346
21
0.032084
31
0.0
0
LINE
8
0
6
CONTINUOUS
10
-0.009436
20
0.092019
30
0.0
11
-0.009436
21
0.085947
31
0.0
0
LINE
8
0
6
CONTINUOUS
10
-0.000378
20
0.131185
30
0.0
11
-0.009436
21
0.132378
31
0.0
0
LINE
8
0
6
CONTINUOUS
10
0.008064
20
0.127689
30
0.0
11
-0.000378
21
0.131185
31
0.0
0
LINE
8
0
6
CONTINUOUS
10
0.015312
20
0.122127
30
0.0
11
0.008064
21
0.127689
31
0.0
0
LINE
8
0
6
CONTINUOUS
10
0.020874
20
0.114878
30
0.0
11
0.015312
21
0.122127
31
0.0
0
LINE
8
0
6
CONTINUOUS
10
0.024371
20
0.106437
30
0.0
11
0.020874
21
0.114878
31
0.0
0
LINE
8
0
6
CONTINUOUS
10
0.025564
20
0.097378
30
0.0
11
0.024371
21
0.106437
31
0.0
0
LINE
8
0
6
CONTINUOUS
10
0.024371
20
0.088319
30
0.0
11
0.025564
21
0.097378
31
0.0
0
LINE
8
0
6
CONTINUOUS
10
0.020874
20
0.079878
30
0.0
11
0.024371
21
0.088319
31
0.0
0
LINE
8
0
6
CONTINUOUS
10
0.015312
20
0.072629
30
0.0
11
0.020874
21
0.079878
31
0.0
0
LINE
8
0
6
CONTINUOUS
10
-0.000378
20
0.063571
30
0.0
11
0.008064
21
0.067067
31
0.0
0
LINE
8
0
6
CONTINUOUS
10
-0.003764
20
0.063125
30
0.0
11
-0.000378
21
0.063571
31
0.0
0
LINE
8
0
6
CONTINUOUS
10
-0.018495
20
0.063571
30
0.0
11
-0.015109
21
0.063125
31
0.0
0
LINE
8
0
6
CONTINUOUS
10
-0.026936
20
0.067067
30
0.0
11
-0.018495
21
0.063571
31
0.0
0
LINE
8
0
6
CONTINUOUS
10
-0.034185
20
0.072629
30
0.0
11
-0.026936
21
0.067067
31
0.0
0
LINE
8
0
6
CONTINUOUS
10
-0.039747
20
0.079878
30
0.0
11
-0.034185
21
0.072629
31
0.0
0
LINE
8
0
6
CONTINUOUS
10
-0.043244
20
0.088319
30
0.0
11
-0.039747
21
0.079878
31
0.0
0
LINE
8
0
6
CONTINUOUS
10
-0.044436
20
0.097378
30
0.0
11
-0.043244
21
0.088319
31
0.0
0
LINE
8
0
6
CONTINUOUS
10
-0.043244
20
0.106437
30
0.0
11
-0.044436
21
0.097378
31
0.0
0
LINE
8
0
6
CONTINUOUS
10
-0.039747
20
0.114878
30
0.0
11
-0.043244
21
0.106437
31
0.0
0
LINE
8
0
6
CONTINUOUS
10
-0.034185
20
0.122127
30
0.0
11
-0.039747
21
0.114878
31
0.0
0
LINE
8
0
6
CONTINUOUS
10
-0.026936
20
0.127689
30
0.0
11
-0.034185
21
0.122127
31
0.0
0
LINE
8
0
6
CONTINUOUS
10
-0.018495
20
0.131185
30
0.0
11
-0.026936
21
0.127689
31
0.0
0
LINE
8
0
6
CONTINUOUS
10
-0.009436
20
0.132378
30
0.0
11
-0.018495
21
0.131185
31
0.0
0
LINE
8
0
6
CONTINUOUS
10
0.008064
20
0.067067
30
0.0
11
0.015312
21
0.072629
31
0.0
0
ENDSEC
0
EOF
