999
Erzeugt mit innoplus bad 
0
SECTION
2
HEADER
9
$ACADVER
1
AC1009
9
$DWGCODEPAGE
3
ISO8859-1
0
ENDSEC
0
SECTION
2
TABLES
0
TABLE
2
LAYER
70
1
0
LAYER
2
0
70
0
62
7
6
CONTINUOUS
0
ENDTAB
0
ENDSEC
0
SECTION
2
ENTITIES
0
LINE
8
0
6
CONTINUOUS
10
-0.021915
20
0.027932
30
0.0
11
-0.028799
21
0.036173
31
0.0
0
LINE
8
0
6
CONTINUOUS
10
-0.022067
20
0.026444
30
0.0
11
-0.021915
21
0.027932
31
0.0
0
LINE
8
0
6
CONTINUOUS
10
-0.065283
20
0.051694
30
0.0
11
-0.064515
21
0.051417
31
0.0
0
LINE
8
0
6
CONTINUOUS
10
-0.076762
20
0.055909
30
0.0
11
-0.074524
21
0.055083
31
0.0
0
LINE
8
0
6
CONTINUOUS
10
-0.071473
20
0.053958
30
0.0
11
-0.068342
21
0.052803
31
0.0
0
LINE
8
0
6
CONTINUOUS
10
-0.045141
20
0.045049
30
0.0
11
-0.035508
21
0.039102
31
0.0
0
LINE
8
0
6
CONTINUOUS
10
-0.044494
20
0.048671
30
0.0
11
-0.048352
21
0.050996
31
0.0
0
LINE
8
0
6
CONTINUOUS
10
-0.123303
20
0.082845
30
0.0
11
-0.120690
21
0.080985
31
0.0
0
LINE
8
0
6
CONTINUOUS
10
-0.118352
20
0.079321
30
0.0
11
-0.118063
21
0.079115
31
0.0
0
LINE
8
0
6
CONTINUOUS
10
-0.110849
20
0.073979
30
0.0
11
-0.110312
21
0.073597
31
0.0
0
LINE
8
0
6
CONTINUOUS
10
-0.056805
20
0.055268
30
0.0
11
-0.067453
21
0.060307
31
0.0
0
LINE
8
0
6
CONTINUOUS
10
-0.035508
20
0.039102
30
0.0
11
-0.029740
21
0.033704
31
0.0
0
LINE
8
0
6
CONTINUOUS
10
-0.125860
20
0.087786
30
0.0
11
-0.130443
21
0.089884
31
0.0
0
LINE
8
0
6
CONTINUOUS
10
-0.052149
20
0.053099
30
0.0
11
-0.056805
21
0.055268
31
0.0
0
LINE
8
0
6
CONTINUOUS
10
-0.131970
20
0.090568
30
0.0
11
-0.127557
21
0.086636
31
0.0
0
LINE
8
0
6
CONTINUOUS
10
-0.130443
20
0.089884
30
0.0
11
-0.131970
21
0.090568
31
0.0
0
LINE
8
0
6
CONTINUOUS
10
-0.035540
20
0.042341
30
0.0
11
-0.039019
21
0.044629
31
0.0
0
LINE
8
0
6
CONTINUOUS
10
-0.039019
20
0.044629
30
0.0
11
-0.040680
21
0.046093
31
0.0
0
LINE
8
0
6
CONTINUOUS
10
-0.022170
20
0.025433
30
0.0
11
-0.022067
21
0.026444
31
0.0
0
LINE
8
0
6
CONTINUOUS
10
-0.054191
20
0.048023
30
0.0
11
-0.051027
21
0.047143
31
0.0
0
LINE
8
0
6
CONTINUOUS
10
-0.067453
20
0.060307
30
0.0
11
-0.079610
21
0.065948
31
0.0
0
LINE
8
0
6
CONTINUOUS
10
-0.118231
20
0.084097
30
0.0
11
-0.125860
21
0.087786
31
0.0
0
LINE
8
0
6
CONTINUOUS
10
-0.028799
20
0.036173
30
0.0
11
-0.035540
21
0.042341
31
0.0
0
LINE
8
0
6
CONTINUOUS
10
-0.029740
20
0.033704
30
0.0
11
-0.022338
21
0.025190
31
0.0
0
LINE
8
0
6
CONTINUOUS
10
-0.022338
20
0.025190
30
0.0
11
-0.022170
21
0.025433
31
0.0
0
LINE
8
0
6
CONTINUOUS
10
-0.107846
20
0.071982
30
0.0
11
-0.105777
21
0.070734
31
0.0
0
LINE
8
0
6
CONTINUOUS
10
-0.103308
20
0.069246
30
0.0
11
-0.102412
21
0.068706
31
0.0
0
LINE
8
0
6
CONTINUOUS
10
-0.092025
20
0.071691
30
0.0
11
-0.103994
21
0.077506
31
0.0
0
LINE
8
0
6
CONTINUOUS
10
-0.045943
20
0.045398
30
0.0
11
-0.045141
21
0.045049
31
0.0
0
LINE
8
0
6
CONTINUOUS
10
-0.079610
20
0.065948
30
0.0
11
-0.092025
21
0.071691
31
0.0
0
LINE
8
0
6
CONTINUOUS
10
-0.048368
20
0.051006
30
0.0
11
-0.052149
21
0.053099
31
0.0
0
LINE
8
0
6
CONTINUOUS
10
-0.040680
20
0.046093
30
0.0
11
-0.044494
21
0.048671
31
0.0
0
LINE
8
0
6
CONTINUOUS
10
-0.111579
20
0.081027
30
0.0
11
-0.118231
21
0.084097
31
0.0
0
LINE
8
0
6
CONTINUOUS
10
-0.103994
20
0.077506
30
0.0
11
-0.111579
21
0.081027
31
0.0
0
LINE
8
0
6
CONTINUOUS
10
-0.116102
20
0.077719
30
0.0
11
-0.115762
21
0.076865
31
0.0
0
LINE
8
0
6
CONTINUOUS
10
-0.115762
20
0.076865
30
0.0
11
-0.115504
21
0.076738
31
0.0
0
LINE
8
0
6
CONTINUOUS
10
-0.115504
20
0.076738
30
0.0
11
-0.114752
21
0.076369
31
0.0
0
LINE
8
0
6
CONTINUOUS
10
-0.114752
20
0.076369
30
0.0
11
-0.113539
21
0.075773
31
0.0
0
LINE
8
0
6
CONTINUOUS
10
-0.113539
20
0.075773
30
0.0
11
-0.111901
21
0.074968
31
0.0
0
LINE
8
0
6
CONTINUOUS
10
-0.111901
20
0.074968
30
0.0
11
-0.109869
21
0.073970
31
0.0
0
LINE
8
0
6
CONTINUOUS
10
-0.109869
20
0.073970
30
0.0
11
-0.107478
21
0.072796
31
0.0
0
LINE
8
0
6
CONTINUOUS
10
-0.107478
20
0.072796
30
0.0
11
-0.104763
21
0.071461
31
0.0
0
LINE
8
0
6
CONTINUOUS
10
-0.104763
20
0.071461
30
0.0
11
-0.101755
21
0.069984
31
0.0
0
LINE
8
0
6
CONTINUOUS
10
-0.101755
20
0.069984
30
0.0
11
-0.098520
21
0.068395
31
0.0
0
LINE
8
0
6
CONTINUOUS
10
-0.094811
20
0.067725
30
0.0
11
-0.095818
21
0.068219
31
0.0
0
LINE
8
0
6
CONTINUOUS
10
-0.098490
20
0.068380
30
0.0
11
-0.095001
21
0.066666
31
0.0
0
LINE
8
0
6
CONTINUOUS
10
-0.090996
20
0.065851
30
0.0
11
-0.094811
21
0.067725
31
0.0
0
LINE
8
0
6
CONTINUOUS
10
-0.095001
20
0.066666
30
0.0
11
-0.091322
21
0.064858
31
0.0
0
LINE
8
0
6
CONTINUOUS
10
-0.087021
20
0.063898
30
0.0
11
-0.090996
21
0.065851
31
0.0
0
LINE
8
0
6
CONTINUOUS
10
-0.091322
20
0.064858
30
0.0
11
-0.087486
21
0.062974
31
0.0
0
LINE
8
0
6
CONTINUOUS
10
-0.084879
20
0.062845
30
0.0
11
-0.087021
21
0.063898
31
0.0
0
LINE
8
0
6
CONTINUOUS
10
-0.087486
20
0.062974
30
0.0
11
-0.083650
21
0.061089
31
0.0
0
LINE
8
0
6
CONTINUOUS
10
-0.079232
20
0.060071
30
0.0
11
-0.081971
21
0.061417
31
0.0
0
LINE
8
0
6
CONTINUOUS
10
-0.083650
20
0.061089
30
0.0
11
-0.079970
21
0.059282
31
0.0
0
LINE
8
0
6
CONTINUOUS
10
-0.075614
20
0.058294
30
0.0
11
-0.079232
21
0.060071
31
0.0
0
LINE
8
0
6
CONTINUOUS
10
-0.079970
20
0.059282
30
0.0
11
-0.076481
21
0.057568
31
0.0
0
LINE
8
0
6
CONTINUOUS
10
-0.072589
20
0.056808
30
0.0
11
-0.075614
21
0.058294
31
0.0
0
LINE
8
0
6
CONTINUOUS
10
-0.076481
20
0.057568
30
0.0
11
-0.073216
21
0.055964
31
0.0
0
LINE
8
0
6
CONTINUOUS
10
-0.073216
20
0.055964
30
0.0
11
-0.070209
21
0.054487
31
0.0
0
LINE
8
0
6
CONTINUOUS
10
-0.066297
20
0.053717
30
0.0
11
-0.069111
21
0.055099
31
0.0
0
LINE
8
0
6
CONTINUOUS
10
-0.070209
20
0.054487
30
0.0
11
-0.067493
21
0.053152
31
0.0
0
LINE
8
0
6
CONTINUOUS
10
-0.063819
20
0.052500
30
0.0
11
-0.066297
21
0.053717
31
0.0
0
LINE
8
0
6
CONTINUOUS
10
-0.067493
20
0.053152
30
0.0
11
-0.065102
21
0.051978
31
0.0
0
LINE
8
0
6
CONTINUOUS
10
-0.062490
20
0.051847
30
0.0
11
-0.063819
21
0.052500
31
0.0
0
LINE
8
0
6
CONTINUOUS
10
-0.065102
20
0.051978
30
0.0
11
-0.063071
21
0.050980
31
0.0
0
LINE
8
0
6
CONTINUOUS
10
-0.063071
20
0.050980
30
0.0
11
-0.061432
21
0.050175
31
0.0
0
LINE
8
0
6
CONTINUOUS
10
-0.061432
20
0.050175
30
0.0
11
-0.060220
21
0.049579
31
0.0
0
LINE
8
0
6
CONTINUOUS
10
-0.060220
20
0.049579
30
0.0
11
-0.059467
21
0.049210
31
0.0
0
LINE
8
0
6
CONTINUOUS
10
-0.059209
20
0.049083
30
0.0
11
-0.057710
21
0.049498
31
0.0
0
LINE
8
0
6
CONTINUOUS
10
-0.059467
20
0.049210
30
0.0
11
-0.059209
21
0.049083
31
0.0
0
LINE
8
0
6
CONTINUOUS
10
-0.080152
20
0.063033
30
0.0
11
-0.078686
21
0.062343
31
0.0
0
LINE
8
0
6
CONTINUOUS
10
-0.056562
20
0.048100
30
0.0
11
-0.055097
21
0.047410
31
0.0
0
LINE
8
0
6
CONTINUOUS
10
-0.083166
20
0.057952
30
0.0
11
-0.082900
21
0.058519
31
0.0
0
LINE
8
0
6
CONTINUOUS
10
-0.083671
20
0.058190
30
0.0
11
-0.083166
21
0.057952
31
0.0
0
LINE
8
0
6
CONTINUOUS
10
-0.077209
20
0.057004
30
0.0
11
-0.076705
21
0.056767
31
0.0
0
LINE
8
0
6
CONTINUOUS
10
-0.076867
20
0.057731
30
0.0
11
-0.077209
21
0.057004
31
0.0
0
LINE
8
0
6
CONTINUOUS
10
-0.076705
20
0.056767
30
0.0
11
-0.075239
21
0.056076
31
0.0
0
LINE
8
0
6
CONTINUOUS
10
-0.076260
20
0.057710
30
0.0
11
-0.076705
21
0.056767
31
0.0
0
LINE
8
0
6
CONTINUOUS
10
-0.074278
20
0.055624
30
0.0
11
-0.073949
21
0.056324
31
0.0
0
LINE
8
0
6
CONTINUOUS
10
-0.075239
20
0.056076
30
0.0
11
-0.074278
21
0.055624
31
0.0
0
LINE
8
0
6
CONTINUOUS
10
-0.074720
20
0.057178
30
0.0
11
-0.075239
21
0.056076
31
0.0
0
LINE
8
0
6
CONTINUOUS
10
-0.065467
20
0.051303
30
0.0
11
-0.065012
21
0.052269
31
0.0
0
LINE
8
0
6
CONTINUOUS
10
-0.065972
20
0.051541
30
0.0
11
-0.065467
21
0.051303
31
0.0
0
LINE
8
0
6
CONTINUOUS
10
-0.081999
20
0.061357
30
0.0
11
-0.081578
21
0.062249
31
0.0
0
LINE
8
0
6
CONTINUOUS
10
-0.082503
20
0.061595
30
0.0
11
-0.081999
21
0.061357
31
0.0
0
LINE
8
0
6
CONTINUOUS
10
-0.082503
20
0.061595
30
0.0
11
-0.081971
21
0.062725
31
0.0
0
LINE
8
0
6
CONTINUOUS
10
-0.083969
20
0.062285
30
0.0
11
-0.082503
21
0.061595
31
0.0
0
LINE
8
0
6
CONTINUOUS
10
-0.088431
20
0.062426
30
0.0
11
-0.086966
21
0.061736
31
0.0
0
LINE
8
0
6
CONTINUOUS
10
-0.115709
20
0.077260
30
0.0
11
-0.115369
21
0.077983
31
0.0
0
LINE
8
0
6
CONTINUOUS
10
-0.116965
20
0.077852
30
0.0
11
-0.115709
21
0.077260
31
0.0
0
LINE
8
0
6
CONTINUOUS
10
-0.102322
20
0.067921
30
0.0
11
-0.100886
21
0.067245
31
0.0
0
LINE
8
0
6
CONTINUOUS
10
-0.092791
20
0.063207
30
0.0
11
-0.092120
21
0.062891
31
0.0
0
LINE
8
0
6
CONTINUOUS
10
-0.092392
20
0.064053
30
0.0
11
-0.092791
21
0.063207
31
0.0
0
LINE
8
0
6
CONTINUOUS
10
-0.094781
20
0.069812
30
0.0
11
-0.093820
21
0.069360
31
0.0
0
LINE
8
0
6
CONTINUOUS
10
-0.093527
20
0.072476
30
0.0
11
-0.093548
21
0.072431
31
0.0
0
LINE
8
0
6
CONTINUOUS
10
-0.094332
20
0.070766
30
0.0
11
-0.094781
21
0.069812
31
0.0
0
LINE
8
0
6
CONTINUOUS
10
-0.124805
20
0.083821
30
0.0
11
-0.123409
21
0.083163
31
0.0
0
LINE
8
0
6
CONTINUOUS
10
-0.124805
20
0.083821
30
0.0
11
-0.124284
21
0.084928
31
0.0
0
LINE
8
0
6
CONTINUOUS
10
-0.123480
20
0.086635
30
0.0
11
-0.123458
21
0.086680
31
0.0
0
LINE
8
0
6
CONTINUOUS
10
-0.125951
20
0.084360
30
0.0
11
-0.124805
21
0.083821
31
0.0
0
LINE
8
0
6
CONTINUOUS
10
-0.124599
20
0.087232
30
0.0
11
-0.124620
21
0.087187
31
0.0
0
LINE
8
0
6
CONTINUOUS
10
-0.125326
20
0.085688
30
0.0
11
-0.125951
21
0.084360
31
0.0
0
LINE
8
0
6
CONTINUOUS
10
-0.116368
20
0.079707
30
0.0
11
-0.116075
21
0.080329
31
0.0
0
LINE
8
0
6
CONTINUOUS
10
-0.115002
20
0.082606
30
0.0
11
-0.114982
21
0.082650
31
0.0
0
LINE
8
0
6
CONTINUOUS
10
-0.117427
20
0.080206
30
0.0
11
-0.116368
21
0.079707
31
0.0
0
LINE
8
0
6
CONTINUOUS
10
-0.127063
20
0.084841
30
0.0
11
-0.125642
21
0.084172
31
0.0
0
LINE
8
0
6
CONTINUOUS
10
-0.098688
20
0.065159
30
0.0
11
-0.097628
21
0.064660
31
0.0
0
LINE
8
0
6
CONTINUOUS
10
-0.113756
20
0.074577
30
0.0
11
-0.113506
21
0.074459
31
0.0
0
LINE
8
0
6
CONTINUOUS
10
-0.113237
20
0.075679
30
0.0
11
-0.113756
21
0.074577
31
0.0
0
LINE
8
0
6
CONTINUOUS
10
-0.082230
20
0.067160
30
0.0
11
-0.082210
21
0.067203
31
0.0
0
LINE
8
0
6
CONTINUOUS
10
-0.082716
20
0.067437
30
0.0
11
-0.082737
21
0.067394
31
0.0
0
LINE
8
0
6
CONTINUOUS
10
-0.048597
20
0.045585
30
0.0
11
-0.047131
21
0.044895
31
0.0
0
LINE
8
0
6
CONTINUOUS
10
-0.049101
20
0.045823
30
0.0
11
-0.048597
21
0.045585
31
0.0
0
LINE
8
0
6
CONTINUOUS
10
-0.079038
20
0.055639
30
0.0
11
-0.078593
21
0.056584
31
0.0
0
LINE
8
0
6
CONTINUOUS
10
-0.079999
20
0.056091
30
0.0
11
-0.079038
21
0.055639
31
0.0
0
LINE
8
0
6
CONTINUOUS
10
-0.106229
20
0.069727
30
0.0
11
-0.104909
21
0.069105
31
0.0
0
LINE
8
0
6
CONTINUOUS
10
-0.100425
20
0.067392
30
0.0
11
-0.099913
21
0.066334
31
0.0
0
LINE
8
0
6
CONTINUOUS
10
-0.099913
20
0.066334
30
0.0
11
-0.099811
21
0.066286
31
0.0
0
LINE
8
0
6
CONTINUOUS
10
-0.099811
20
0.066286
30
0.0
11
-0.099513
21
0.066144
31
0.0
0
LINE
8
0
6
CONTINUOUS
10
-0.099513
20
0.066144
30
0.0
11
-0.099033
21
0.065917
31
0.0
0
LINE
8
0
6
CONTINUOUS
10
-0.098783
20
0.066613
30
0.0
11
-0.099480
21
0.066944
31
0.0
0
LINE
8
0
6
CONTINUOUS
10
-0.099033
20
0.065917
30
0.0
11
-0.098384
21
0.065609
31
0.0
0
LINE
8
0
6
CONTINUOUS
10
-0.097920
20
0.066203
30
0.0
11
-0.098783
21
0.066613
31
0.0
0
LINE
8
0
6
CONTINUOUS
10
-0.098384
20
0.065609
30
0.0
11
-0.097580
21
0.065227
31
0.0
0
LINE
8
0
6
CONTINUOUS
10
-0.096903
20
0.065721
30
0.0
11
-0.097920
21
0.066203
31
0.0
0
LINE
8
0
6
CONTINUOUS
10
-0.097580
20
0.065227
30
0.0
11
-0.096634
21
0.064778
31
0.0
0
LINE
8
0
6
CONTINUOUS
10
-0.095749
20
0.065173
30
0.0
11
-0.096903
21
0.065721
31
0.0
0
LINE
8
0
6
CONTINUOUS
10
-0.096634
20
0.064778
30
0.0
11
-0.095559
21
0.064268
31
0.0
0
LINE
8
0
6
CONTINUOUS
10
-0.095559
20
0.064268
30
0.0
11
-0.094369
21
0.063704
31
0.0
0
LINE
8
0
6
CONTINUOUS
10
-0.094369
20
0.063704
30
0.0
11
-0.093076
21
0.063090
31
0.0
0
LINE
8
0
6
CONTINUOUS
10
-0.093076
20
0.063090
30
0.0
11
-0.091695
21
0.062435
31
0.0
0
LINE
8
0
6
CONTINUOUS
10
-0.091695
20
0.062435
30
0.0
11
-0.090239
21
0.061744
31
0.0
0
LINE
8
0
6
CONTINUOUS
10
-0.088405
20
0.061689
30
0.0
11
-0.090035
21
0.062462
31
0.0
0
LINE
8
0
6
CONTINUOUS
10
-0.090239
20
0.061744
30
0.0
11
-0.088720
21
0.061023
31
0.0
0
LINE
8
0
6
CONTINUOUS
10
-0.086775
20
0.060915
30
0.0
11
-0.088405
21
0.061689
31
0.0
0
LINE
8
0
6
CONTINUOUS
10
-0.088720
20
0.061023
30
0.0
11
-0.087202
21
0.060303
31
0.0
0
LINE
8
0
6
CONTINUOUS
10
-0.085210
20
0.060173
30
0.0
11
-0.086775
21
0.060915
31
0.0
0
LINE
8
0
6
CONTINUOUS
10
-0.087202
20
0.060303
30
0.0
11
-0.085745
21
0.059612
31
0.0
0
LINE
8
0
6
CONTINUOUS
10
-0.083727
20
0.059469
30
0.0
11
-0.085210
21
0.060173
31
0.0
0
LINE
8
0
6
CONTINUOUS
10
-0.085745
20
0.059612
30
0.0
11
-0.084364
21
0.058957
31
0.0
0
LINE
8
0
6
CONTINUOUS
10
-0.084364
20
0.058957
30
0.0
11
-0.083072
21
0.058343
31
0.0
0
LINE
8
0
6
CONTINUOUS
10
-0.083072
20
0.058343
30
0.0
11
-0.081882
21
0.057779
31
0.0
0
LINE
8
0
6
CONTINUOUS
10
-0.081882
20
0.057779
30
0.0
11
-0.080807
21
0.057269
31
0.0
0
LINE
8
0
6
CONTINUOUS
10
-0.080807
20
0.057269
30
0.0
11
-0.079860
21
0.056820
31
0.0
0
LINE
8
0
6
CONTINUOUS
10
-0.079860
20
0.056820
30
0.0
11
-0.079056
21
0.056438
31
0.0
0
LINE
8
0
6
CONTINUOUS
10
-0.079056
20
0.056438
30
0.0
11
-0.078408
21
0.056130
31
0.0
0
LINE
8
0
6
CONTINUOUS
10
-0.078408
20
0.056130
30
0.0
11
-0.077928
21
0.055902
31
0.0
0
LINE
8
0
6
CONTINUOUS
10
-0.077928
20
0.055902
30
0.0
11
-0.077630
21
0.055761
31
0.0
0
LINE
8
0
6
CONTINUOUS
10
-0.077528
20
0.055713
30
0.0
11
-0.076384
21
0.055985
31
0.0
0
LINE
8
0
6
CONTINUOUS
10
-0.077630
20
0.055761
30
0.0
11
-0.077528
21
0.055713
31
0.0
0
LINE
8
0
6
CONTINUOUS
10
-0.078928
20
0.065631
30
0.0
11
-0.078908
21
0.065675
31
0.0
0
LINE
8
0
6
CONTINUOUS
10
-0.080656
20
0.063270
30
0.0
11
-0.080152
21
0.063033
31
0.0
0
LINE
8
0
6
CONTINUOUS
10
-0.079414
20
0.065909
30
0.0
11
-0.079434
21
0.065866
31
0.0
0
LINE
8
0
6
CONTINUOUS
10
-0.080317
20
0.063990
30
0.0
11
-0.080656
21
0.063270
31
0.0
0
LINE
8
0
6
CONTINUOUS
10
-0.076495
20
0.064502
30
0.0
11
-0.076475
21
0.064546
31
0.0
0
LINE
8
0
6
CONTINUOUS
10
-0.078686
20
0.062343
30
0.0
11
-0.077725
21
0.061890
31
0.0
0
LINE
8
0
6
CONTINUOUS
10
-0.077438
20
0.064993
30
0.0
11
-0.077459
21
0.064949
31
0.0
0
LINE
8
0
6
CONTINUOUS
10
-0.078083
20
0.063624
30
0.0
11
-0.078686
21
0.062343
31
0.0
0
LINE
8
0
6
CONTINUOUS
10
-0.071834
20
0.053192
30
0.0
11
-0.071366
21
0.054186
31
0.0
0
LINE
8
0
6
CONTINUOUS
10
-0.072338
20
0.053430
30
0.0
11
-0.071834
21
0.053192
31
0.0
0
LINE
8
0
6
CONTINUOUS
10
-0.072338
20
0.053430
30
0.0
11
-0.071861
21
0.054442
31
0.0
0
LINE
8
0
6
CONTINUOUS
10
-0.073804
20
0.054120
30
0.0
11
-0.072338
21
0.053430
31
0.0
0
LINE
8
0
6
CONTINUOUS
10
-0.073804
20
0.054120
30
0.0
11
-0.073384
21
0.055012
31
0.0
0
LINE
8
0
6
CONTINUOUS
10
-0.074765
20
0.054573
30
0.0
11
-0.073804
21
0.054120
31
0.0
0
LINE
8
0
6
CONTINUOUS
10
-0.074408
20
0.055331
30
0.0
11
-0.074765
21
0.054573
31
0.0
0
LINE
8
0
6
CONTINUOUS
10
-0.054592
20
0.047172
30
0.0
11
-0.054060
21
0.048300
31
0.0
0
LINE
8
0
6
CONTINUOUS
10
-0.055097
20
0.047410
30
0.0
11
-0.054592
21
0.047172
31
0.0
0
LINE
8
0
6
CONTINUOUS
10
-0.054575
20
0.048516
30
0.0
11
-0.055097
21
0.047410
31
0.0
0
LINE
8
0
6
CONTINUOUS
10
-0.056562
20
0.048100
30
0.0
11
-0.056141
21
0.048994
31
0.0
0
LINE
8
0
6
CONTINUOUS
10
-0.057523
20
0.048552
30
0.0
11
-0.056562
21
0.048100
31
0.0
0
LINE
8
0
6
CONTINUOUS
10
-0.057194
20
0.049250
30
0.0
11
-0.057523
21
0.048552
31
0.0
0
LINE
8
0
6
CONTINUOUS
10
-0.083671
20
0.058190
30
0.0
11
-0.083404
21
0.058757
31
0.0
0
LINE
8
0
6
CONTINUOUS
10
-0.085137
20
0.058880
30
0.0
11
-0.083671
21
0.058190
31
0.0
0
LINE
8
0
6
CONTINUOUS
10
-0.085137
20
0.058880
30
0.0
11
-0.084869
21
0.059449
31
0.0
0
LINE
8
0
6
CONTINUOUS
10
-0.086097
20
0.059333
30
0.0
11
-0.085137
21
0.058880
31
0.0
0
LINE
8
0
6
CONTINUOUS
10
-0.085829
20
0.059902
30
0.0
11
-0.086097
21
0.059333
31
0.0
0
LINE
8
0
6
CONTINUOUS
10
-0.067218
20
0.056903
30
0.0
11
-0.066713
21
0.056665
31
0.0
0
LINE
8
0
6
CONTINUOUS
10
-0.065929
20
0.059640
30
0.0
11
-0.065950
21
0.059596
31
0.0
0
LINE
8
0
6
CONTINUOUS
10
-0.066929
20
0.057515
30
0.0
11
-0.067218
21
0.056903
31
0.0
0
LINE
8
0
6
CONTINUOUS
10
-0.066713
20
0.056665
30
0.0
11
-0.065247
21
0.055975
31
0.0
0
LINE
8
0
6
CONTINUOUS
10
-0.065425
20
0.059401
30
0.0
11
-0.065445
21
0.059357
31
0.0
0
LINE
8
0
6
CONTINUOUS
10
-0.066226
20
0.057700
30
0.0
11
-0.066713
21
0.056665
31
0.0
0
LINE
8
0
6
CONTINUOUS
10
-0.063021
20
0.058210
30
0.0
11
-0.063000
21
0.058254
31
0.0
0
LINE
8
0
6
CONTINUOUS
10
-0.065247
20
0.055975
30
0.0
11
-0.064287
21
0.055523
31
0.0
0
LINE
8
0
6
CONTINUOUS
10
-0.063960
20
0.058708
30
0.0
11
-0.063981
21
0.058664
31
0.0
0
LINE
8
0
6
CONTINUOUS
10
-0.064634
20
0.057277
30
0.0
11
-0.065247
21
0.055975
31
0.0
0
LINE
8
0
6
CONTINUOUS
10
-0.056742
20
0.051099
30
0.0
11
-0.056237
21
0.050861
31
0.0
0
LINE
8
0
6
CONTINUOUS
10
-0.055122
20
0.054537
30
0.0
11
-0.055143
21
0.054494
31
0.0
0
LINE
8
0
6
CONTINUOUS
10
-0.056425
20
0.051772
30
0.0
11
-0.056742
21
0.051099
31
0.0
0
LINE
8
0
6
CONTINUOUS
10
-0.056237
20
0.050861
30
0.0
11
-0.054772
21
0.050171
31
0.0
0
LINE
8
0
6
CONTINUOUS
10
-0.054617
20
0.054302
30
0.0
11
-0.054637
21
0.054258
31
0.0
0
LINE
8
0
6
CONTINUOUS
10
-0.055715
20
0.051969
30
0.0
11
-0.056237
21
0.050861
31
0.0
0
LINE
8
0
6
CONTINUOUS
10
-0.052206
20
0.053126
30
0.0
11
-0.052186
21
0.053169
31
0.0
0
LINE
8
0
6
CONTINUOUS
10
-0.054772
20
0.050171
30
0.0
11
-0.053811
21
0.049718
31
0.0
0
LINE
8
0
6
CONTINUOUS
10
-0.053148
20
0.053618
30
0.0
11
-0.053169
21
0.053574
31
0.0
0
LINE
8
0
6
CONTINUOUS
10
-0.054080
20
0.051641
30
0.0
11
-0.054772
21
0.050171
31
0.0
0
LINE
8
0
6
CONTINUOUS
10
-0.062584
20
0.051649
30
0.0
11
-0.062079
21
0.051411
31
0.0
0
LINE
8
0
6
CONTINUOUS
10
-0.062369
20
0.052105
30
0.0
11
-0.062584
21
0.051649
31
0.0
0
LINE
8
0
6
CONTINUOUS
10
-0.062079
20
0.051411
30
0.0
11
-0.060613
21
0.050721
31
0.0
0
LINE
8
0
6
CONTINUOUS
10
-0.061724
20
0.052164
30
0.0
11
-0.062079
21
0.051411
31
0.0
0
LINE
8
0
6
CONTINUOUS
10
-0.060613
20
0.050721
30
0.0
11
-0.059653
21
0.050268
31
0.0
0
LINE
8
0
6
CONTINUOUS
10
-0.060151
20
0.051703
30
0.0
11
-0.060613
21
0.050721
31
0.0
0
LINE
8
0
6
CONTINUOUS
10
-0.072610
20
0.056763
30
0.0
11
-0.072105
21
0.056526
31
0.0
0
LINE
8
0
6
CONTINUOUS
10
-0.072294
20
0.057434
30
0.0
11
-0.072610
21
0.056763
31
0.0
0
LINE
8
0
6
CONTINUOUS
10
-0.072105
20
0.056526
30
0.0
11
-0.070639
21
0.055835
31
0.0
0
LINE
8
0
6
CONTINUOUS
10
-0.071645
20
0.057502
30
0.0
11
-0.072105
21
0.056526
31
0.0
0
LINE
8
0
6
CONTINUOUS
10
-0.070639
20
0.055835
30
0.0
11
-0.069679
21
0.055383
31
0.0
0
LINE
8
0
6
CONTINUOUS
10
-0.070091
20
0.057001
30
0.0
11
-0.070639
21
0.055835
31
0.0
0
LINE
8
0
6
CONTINUOUS
10
-0.065972
20
0.051541
30
0.0
11
-0.065473
21
0.052600
31
0.0
0
LINE
8
0
6
CONTINUOUS
10
-0.067437
20
0.052231
30
0.0
11
-0.065972
21
0.051541
31
0.0
0
LINE
8
0
6
CONTINUOUS
10
-0.067437
20
0.052231
30
0.0
11
-0.066988
21
0.053185
31
0.0
0
LINE
8
0
6
CONTINUOUS
10
-0.068398
20
0.052683
30
0.0
11
-0.067437
21
0.052231
31
0.0
0
LINE
8
0
6
CONTINUOUS
10
-0.068048
20
0.053426
30
0.0
11
-0.068398
21
0.052683
31
0.0
0
LINE
8
0
6
CONTINUOUS
10
-0.047377
20
0.045464
30
0.0
11
-0.046614
21
0.047083
31
0.0
0
LINE
8
0
6
CONTINUOUS
10
-0.047881
20
0.045701
30
0.0
11
-0.047377
21
0.045464
31
0.0
0
LINE
8
0
6
CONTINUOUS
10
-0.047881
20
0.045701
30
0.0
11
-0.047096
21
0.047368
31
0.0
0
LINE
8
0
6
CONTINUOUS
10
-0.049347
20
0.046392
30
0.0
11
-0.047881
21
0.045701
31
0.0
0
LINE
8
0
6
CONTINUOUS
10
-0.049347
20
0.046392
30
0.0
11
-0.048657
21
0.047855
31
0.0
0
LINE
8
0
6
CONTINUOUS
10
-0.050308
20
0.046844
30
0.0
11
-0.049347
21
0.046392
31
0.0
0
LINE
8
0
6
CONTINUOUS
10
-0.048328
20
0.051047
30
0.0
11
-0.048352
21
0.050996
31
0.0
0
LINE
8
0
6
CONTINUOUS
10
-0.049750
20
0.048028
30
0.0
11
-0.050308
21
0.046844
31
0.0
0
LINE
8
0
6
CONTINUOUS
10
-0.083969
20
0.062285
30
0.0
11
-0.083438
21
0.063411
31
0.0
0
LINE
8
0
6
CONTINUOUS
10
-0.084930
20
0.062738
30
0.0
11
-0.083969
21
0.062285
31
0.0
0
LINE
8
0
6
CONTINUOUS
10
-0.084513
20
0.063622
30
0.0
11
-0.084930
21
0.062738
31
0.0
0
LINE
8
0
6
CONTINUOUS
10
-0.086461
20
0.061499
30
0.0
11
-0.086046
21
0.062380
31
0.0
0
LINE
8
0
6
CONTINUOUS
10
-0.086966
20
0.061736
30
0.0
11
-0.086461
21
0.061499
31
0.0
0
LINE
8
0
6
CONTINUOUS
10
-0.086439
20
0.062855
30
0.0
11
-0.086966
21
0.061736
31
0.0
0
LINE
8
0
6
CONTINUOUS
10
-0.088431
20
0.062426
30
0.0
11
-0.087897
21
0.063560
31
0.0
0
LINE
8
0
6
CONTINUOUS
10
-0.089392
20
0.062879
30
0.0
11
-0.088431
21
0.062426
31
0.0
0
LINE
8
0
6
CONTINUOUS
10
-0.088969
20
0.063777
30
0.0
11
-0.089392
21
0.062879
31
0.0
0
LINE
8
0
6
CONTINUOUS
10
-0.078935
20
0.056485
30
0.0
11
-0.078535
21
0.057335
31
0.0
0
LINE
8
0
6
CONTINUOUS
10
-0.079440
20
0.056722
30
0.0
11
-0.078935
21
0.056485
31
0.0
0
LINE
8
0
6
CONTINUOUS
10
-0.079440
20
0.056722
30
0.0
11
-0.078958
21
0.057746
31
0.0
0
LINE
8
0
6
CONTINUOUS
10
-0.080905
20
0.057412
30
0.0
11
-0.079440
21
0.056722
31
0.0
0
LINE
8
0
6
CONTINUOUS
10
-0.080905
20
0.057412
30
0.0
11
-0.080412
21
0.058459
31
0.0
0
LINE
8
0
6
CONTINUOUS
10
-0.081866
20
0.057865
30
0.0
11
-0.080905
21
0.057412
31
0.0
0
LINE
8
0
6
CONTINUOUS
10
-0.081449
20
0.058750
30
0.0
11
-0.081866
21
0.057865
31
0.0
0
LINE
8
0
6
CONTINUOUS
10
-0.116965
20
0.077852
30
0.0
11
-0.116470
21
0.078905
31
0.0
0
LINE
8
0
6
CONTINUOUS
10
-0.118286
20
0.078474
30
0.0
11
-0.116965
21
0.077852
31
0.0
0
LINE
8
0
6
CONTINUOUS
10
-0.118286
20
0.078474
30
0.0
11
-0.117722
21
0.079670
31
0.0
0
LINE
8
0
6
CONTINUOUS
10
-0.118350
20
0.078504
30
0.0
11
-0.118286
21
0.078474
31
0.0
0
LINE
8
0
6
CONTINUOUS
10
-0.117867
20
0.079531
30
0.0
11
-0.118350
21
0.078504
31
0.0
0
LINE
8
0
6
CONTINUOUS
10
-0.107967
20
0.071724
30
0.0
11
-0.107636
21
0.072427
31
0.0
0
LINE
8
0
6
CONTINUOUS
10
-0.109223
20
0.072315
30
0.0
11
-0.107967
21
0.071724
31
0.0
0
LINE
8
0
6
CONTINUOUS
10
-0.109223
20
0.072315
30
0.0
11
-0.108763
21
0.073294
31
0.0
0
LINE
8
0
6
CONTINUOUS
10
-0.110544
20
0.072937
30
0.0
11
-0.109223
21
0.072315
31
0.0
0
LINE
8
0
6
CONTINUOUS
10
-0.110544
20
0.072937
30
0.0
11
-0.110015
21
0.074059
31
0.0
0
LINE
8
0
6
CONTINUOUS
10
-0.110608
20
0.072967
30
0.0
11
-0.110544
21
0.072937
31
0.0
0
LINE
8
0
6
CONTINUOUS
10
-0.110097
20
0.074052
30
0.0
11
-0.110608
21
0.072967
31
0.0
0
LINE
8
0
6
CONTINUOUS
10
-0.107784
20
0.073465
30
0.0
11
-0.107445
21
0.074186
31
0.0
0
LINE
8
0
6
CONTINUOUS
10
-0.108844
20
0.073964
30
0.0
11
-0.107784
21
0.073465
31
0.0
0
LINE
8
0
6
CONTINUOUS
10
-0.108844
20
0.073964
30
0.0
11
-0.108312
21
0.075092
31
0.0
0
LINE
8
0
6
CONTINUOUS
10
-0.110279
20
0.074640
30
0.0
11
-0.108844
21
0.073964
31
0.0
0
LINE
8
0
6
CONTINUOUS
10
-0.110279
20
0.074640
30
0.0
11
-0.109684
21
0.075904
31
0.0
0
LINE
8
0
6
CONTINUOUS
10
-0.110656
20
0.074817
30
0.0
11
-0.110279
21
0.074640
31
0.0
0
LINE
8
0
6
CONTINUOUS
10
-0.110163
20
0.075862
30
0.0
11
-0.110656
21
0.074817
31
0.0
0
LINE
8
0
6
CONTINUOUS
10
-0.099827
20
0.066746
30
0.0
11
-0.099470
21
0.067504
31
0.0
0
LINE
8
0
6
CONTINUOUS
10
-0.100886
20
0.067245
30
0.0
11
-0.099827
21
0.066746
31
0.0
0
LINE
8
0
6
CONTINUOUS
10
-0.100465
20
0.068140
30
0.0
11
-0.100886
21
0.067245
31
0.0
0
LINE
8
0
6
CONTINUOUS
10
-0.102322
20
0.067921
30
0.0
11
-0.101843
21
0.068938
31
0.0
0
LINE
8
0
6
CONTINUOUS
10
-0.102698
20
0.068098
30
0.0
11
-0.102322
21
0.067921
31
0.0
0
LINE
8
0
6
CONTINUOUS
10
-0.102226
20
0.069101
30
0.0
11
-0.102698
21
0.068098
31
0.0
0
LINE
8
0
6
CONTINUOUS
10
-0.095907
20
0.068029
30
0.0
11
-0.095503
21
0.068888
31
0.0
0
LINE
8
0
6
CONTINUOUS
10
-0.093781
20
0.072544
30
0.0
11
-0.093760
21
0.072589
31
0.0
0
LINE
8
0
6
CONTINUOUS
10
-0.096723
20
0.068413
30
0.0
11
-0.095907
21
0.068029
31
0.0
0
LINE
8
0
6
CONTINUOUS
10
-0.096723
20
0.068413
30
0.0
11
-0.096210
21
0.069502
31
0.0
0
LINE
8
0
6
CONTINUOUS
10
-0.094592
20
0.072938
30
0.0
11
-0.094570
21
0.072983
31
0.0
0
LINE
8
0
6
CONTINUOUS
10
-0.098209
20
0.069114
30
0.0
11
-0.096723
21
0.068413
31
0.0
0
LINE
8
0
6
CONTINUOUS
10
-0.098209
20
0.069114
30
0.0
11
-0.097680
21
0.070236
31
0.0
0
LINE
8
0
6
CONTINUOUS
10
-0.096070
20
0.073656
30
0.0
11
-0.096049
21
0.073701
31
0.0
0
LINE
8
0
6
CONTINUOUS
10
-0.098880
20
0.069430
30
0.0
11
-0.098209
21
0.069114
31
0.0
0
LINE
8
0
6
CONTINUOUS
10
-0.096716
20
0.074025
30
0.0
11
-0.096737
21
0.073980
31
0.0
0
LINE
8
0
6
CONTINUOUS
10
-0.098444
20
0.070356
30
0.0
11
-0.098880
21
0.069430
31
0.0
0
LINE
8
0
6
CONTINUOUS
10
-0.098883
20
0.067625
30
0.0
11
-0.098505
21
0.068426
31
0.0
0
LINE
8
0
6
CONTINUOUS
10
-0.099698
20
0.068009
30
0.0
11
-0.098883
21
0.067625
31
0.0
0
LINE
8
0
6
CONTINUOUS
10
-0.099698
20
0.068009
30
0.0
11
-0.099238
21
0.068987
31
0.0
0
LINE
8
0
6
CONTINUOUS
10
-0.101185
20
0.068710
30
0.0
11
-0.099698
21
0.068009
31
0.0
0
LINE
8
0
6
CONTINUOUS
10
-0.101185
20
0.068710
30
0.0
11
-0.100684
21
0.069773
31
0.0
0
LINE
8
0
6
CONTINUOUS
10
-0.101856
20
0.069026
30
0.0
11
-0.101185
21
0.068710
31
0.0
0
LINE
8
0
6
CONTINUOUS
10
-0.101397
20
0.069999
30
0.0
11
-0.101856
21
0.069026
31
0.0
0
LINE
8
0
6
CONTINUOUS
10
-0.089818
20
0.061807
30
0.0
11
-0.089386
21
0.062722
31
0.0
0
LINE
8
0
6
CONTINUOUS
10
-0.090633
20
0.062191
30
0.0
11
-0.089818
21
0.061807
31
0.0
0
LINE
8
0
6
CONTINUOUS
10
-0.090633
20
0.062191
30
0.0
11
-0.090137
21
0.063245
31
0.0
0
LINE
8
0
6
CONTINUOUS
10
-0.092120
20
0.062891
30
0.0
11
-0.090633
21
0.062191
31
0.0
0
LINE
8
0
6
CONTINUOUS
10
-0.091639
20
0.063911
30
0.0
11
-0.092120
21
0.062891
31
0.0
0
LINE
8
0
6
CONTINUOUS
10
-0.091475
20
0.061821
30
0.0
11
-0.091187
21
0.062432
31
0.0
0
LINE
8
0
6
CONTINUOUS
10
-0.092291
20
0.062205
30
0.0
11
-0.091475
21
0.061821
31
0.0
0
LINE
8
0
6
CONTINUOUS
10
-0.092291
20
0.062205
30
0.0
11
-0.092002
21
0.062817
31
0.0
0
LINE
8
0
6
CONTINUOUS
10
-0.093777
20
0.062905
30
0.0
11
-0.092291
21
0.062205
31
0.0
0
LINE
8
0
6
CONTINUOUS
10
-0.093777
20
0.062905
30
0.0
11
-0.093488
21
0.063519
31
0.0
0
LINE
8
0
6
CONTINUOUS
10
-0.094449
20
0.063221
30
0.0
11
-0.093777
21
0.062905
31
0.0
0
LINE
8
0
6
CONTINUOUS
10
-0.094159
20
0.063835
30
0.0
11
-0.094449
21
0.063221
31
0.0
0
LINE
8
0
6
CONTINUOUS
10
-0.091850
20
0.068432
30
0.0
11
-0.091459
21
0.069263
31
0.0
0
LINE
8
0
6
CONTINUOUS
10
-0.090621
20
0.071042
30
0.0
11
-0.090601
21
0.071085
31
0.0
0
LINE
8
0
6
CONTINUOUS
10
-0.092355
20
0.068670
30
0.0
11
-0.091850
21
0.068432
31
0.0
0
LINE
8
0
6
CONTINUOUS
10
-0.092355
20
0.068670
30
0.0
11
-0.091803
21
0.069842
31
0.0
0
LINE
8
0
6
CONTINUOUS
10
-0.091127
20
0.071276
30
0.0
11
-0.091107
21
0.071319
31
0.0
0
LINE
8
0
6
CONTINUOUS
10
-0.093820
20
0.069360
30
0.0
11
-0.092355
21
0.068670
31
0.0
0
LINE
8
0
6
CONTINUOUS
10
-0.092571
20
0.072012
30
0.0
11
-0.092592
21
0.071967
31
0.0
0
LINE
8
0
6
CONTINUOUS
10
-0.093239
20
0.070594
30
0.0
11
-0.093820
21
0.069360
31
0.0
0
LINE
8
0
6
CONTINUOUS
10
-0.123159
20
0.083045
30
0.0
11
-0.122976
21
0.083433
31
0.0
0
LINE
8
0
6
CONTINUOUS
10
-0.121841
20
0.085843
30
0.0
11
-0.121820
21
0.085888
31
0.0
0
LINE
8
0
6
CONTINUOUS
10
-0.123409
20
0.083163
30
0.0
11
-0.123159
21
0.083045
31
0.0
0
LINE
8
0
6
CONTINUOUS
10
-0.122069
20
0.086008
30
0.0
11
-0.122090
21
0.085963
31
0.0
0
LINE
8
0
6
CONTINUOUS
10
-0.123109
20
0.083800
30
0.0
11
-0.123409
21
0.083163
31
0.0
0
LINE
8
0
6
CONTINUOUS
10
-0.117427
20
0.080206
30
0.0
11
-0.116922
21
0.081278
31
0.0
0
LINE
8
0
6
CONTINUOUS
10
-0.116066
20
0.083097
30
0.0
11
-0.116045
21
0.083140
31
0.0
0
LINE
8
0
6
CONTINUOUS
10
-0.118863
20
0.080882
30
0.0
11
-0.117427
21
0.080206
31
0.0
0
LINE
8
0
6
CONTINUOUS
10
-0.118863
20
0.080882
30
0.0
11
-0.118238
21
0.082210
31
0.0
0
LINE
8
0
6
CONTINUOUS
10
-0.117507
20
0.083762
30
0.0
11
-0.117486
21
0.083806
31
0.0
0
LINE
8
0
6
CONTINUOUS
10
-0.119239
20
0.081059
30
0.0
11
-0.118863
21
0.080882
31
0.0
0
LINE
8
0
6
CONTINUOUS
10
-0.117864
20
0.083980
30
0.0
11
-0.117884
21
0.083936
31
0.0
0
LINE
8
0
6
CONTINUOUS
10
-0.118700
20
0.082205
30
0.0
11
-0.119239
21
0.081059
31
0.0
0
LINE
8
0
6
CONTINUOUS
10
-0.105468
20
0.074662
30
0.0
11
-0.105129
21
0.075384
31
0.0
0
LINE
8
0
6
CONTINUOUS
10
-0.104105
20
0.077557
30
0.0
11
-0.104085
21
0.077601
31
0.0
0
LINE
8
0
6
CONTINUOUS
10
-0.106284
20
0.075046
30
0.0
11
-0.105468
21
0.074662
31
0.0
0
LINE
8
0
6
CONTINUOUS
10
-0.106284
20
0.075046
30
0.0
11
-0.105729
21
0.076225
31
0.0
0
LINE
8
0
6
CONTINUOUS
10
-0.104923
20
0.077937
30
0.0
11
-0.104902
21
0.077980
31
0.0
0
LINE
8
0
6
CONTINUOUS
10
-0.107771
20
0.075746
30
0.0
11
-0.106284
21
0.075046
31
0.0
0
LINE
8
0
6
CONTINUOUS
10
-0.107771
20
0.075746
30
0.0
11
-0.107152
21
0.077061
31
0.0
0
LINE
8
0
6
CONTINUOUS
10
-0.106413
20
0.078629
30
0.0
11
-0.106393
21
0.078672
31
0.0
0
LINE
8
0
6
CONTINUOUS
10
-0.108442
20
0.076062
30
0.0
11
-0.107771
21
0.075746
31
0.0
0
LINE
8
0
6
CONTINUOUS
10
-0.107066
20
0.078984
30
0.0
11
-0.107086
21
0.078941
31
0.0
0
LINE
8
0
6
CONTINUOUS
10
-0.107965
20
0.077076
30
0.0
11
-0.108442
21
0.076062
31
0.0
0
LINE
8
0
6
CONTINUOUS
10
-0.125642
20
0.084172
30
0.0
11
-0.125317
21
0.084019
31
0.0
0
LINE
8
0
6
CONTINUOUS
10
-0.127063
20
0.084841
30
0.0
11
-0.126614
21
0.085796
31
0.0
0
LINE
8
0
6
CONTINUOUS
10
-0.125710
20
0.087714
30
0.0
11
-0.125689
21
0.087759
31
0.0
0
LINE
8
0
6
CONTINUOUS
10
-0.128159
20
0.085358
30
0.0
11
-0.127063
21
0.084841
31
0.0
0
LINE
8
0
6
CONTINUOUS
10
-0.126790
20
0.088265
30
0.0
11
-0.126810
21
0.088222
31
0.0
0
LINE
8
0
6
CONTINUOUS
10
-0.127556
20
0.086639
30
0.0
11
-0.128159
21
0.085358
31
0.0
0
LINE
8
0
6
CONTINUOUS
10
-0.097628
20
0.064660
30
0.0
11
-0.096193
21
0.063984
31
0.0
0
LINE
8
0
6
CONTINUOUS
10
-0.097202
20
0.065564
30
0.0
11
-0.097628
21
0.064660
31
0.0
0
LINE
8
0
6
CONTINUOUS
10
-0.095816
20
0.063806
30
0.0
11
-0.095478
21
0.064525
31
0.0
0
LINE
8
0
6
CONTINUOUS
10
-0.096193
20
0.063984
30
0.0
11
-0.095816
21
0.063806
31
0.0
0
LINE
8
0
6
CONTINUOUS
10
-0.095820
20
0.064775
30
0.0
11
-0.096193
21
0.063984
31
0.0
0
LINE
8
0
6
CONTINUOUS
10
-0.107359
20
0.079068
30
0.0
11
-0.107341
21
0.079107
31
0.0
0
LINE
8
0
6
CONTINUOUS
10
-0.108400
20
0.079606
30
0.0
11
-0.108422
21
0.079561
31
0.0
0
LINE
8
0
6
CONTINUOUS
10
-0.114868
20
0.082639
30
0.0
11
-0.114905
21
0.082561
31
0.0
0
LINE
8
0
6
CONTINUOUS
10
-0.113515
20
0.081920
30
0.0
11
-0.113494
21
0.081963
31
0.0
0
LINE
8
0
6
CONTINUOUS
10
-0.113548
20
0.082017
30
0.0
11
-0.113579
21
0.081950
31
0.0
0
LINE
8
0
6
CONTINUOUS
10
-0.110964
20
0.073262
30
0.0
11
-0.110682
21
0.073860
31
0.0
0
LINE
8
0
6
CONTINUOUS
10
-0.112110
20
0.073802
30
0.0
11
-0.110964
21
0.073262
31
0.0
0
LINE
8
0
6
CONTINUOUS
10
-0.112110
20
0.073802
30
0.0
11
-0.111731
21
0.074607
31
0.0
0
LINE
8
0
6
CONTINUOUS
10
-0.113506
20
0.074459
30
0.0
11
-0.112110
21
0.073802
31
0.0
0
LINE
8
0
6
CONTINUOUS
10
-0.113003
20
0.075528
30
0.0
11
-0.113506
21
0.074459
31
0.0
0
LINE
8
0
6
CONTINUOUS
10
-0.118591
20
0.078675
30
0.0
11
-0.118303
21
0.079286
31
0.0
0
LINE
8
0
6
CONTINUOUS
10
-0.119736
20
0.079215
30
0.0
11
-0.118591
21
0.078675
31
0.0
0
LINE
8
0
6
CONTINUOUS
10
-0.119736
20
0.079215
30
0.0
11
-0.119351
21
0.080032
31
0.0
0
LINE
8
0
6
CONTINUOUS
10
-0.121133
20
0.079872
30
0.0
11
-0.119736
21
0.079215
31
0.0
0
LINE
8
0
6
CONTINUOUS
10
-0.121133
20
0.079872
30
0.0
11
-0.120629
21
0.080942
31
0.0
0
LINE
8
0
6
CONTINUOUS
10
-0.118974
20
0.084456
30
0.0
11
-0.118953
21
0.084501
31
0.0
0
LINE
8
0
6
CONTINUOUS
10
-0.121383
20
0.079990
30
0.0
11
-0.121133
21
0.079872
31
0.0
0
LINE
8
0
6
CONTINUOUS
10
-0.119196
20
0.084634
30
0.0
11
-0.119223
21
0.084576
31
0.0
0
LINE
8
0
6
CONTINUOUS
10
-0.120858
20
0.081105
30
0.0
11
-0.121383
21
0.079990
31
0.0
0
LINE
8
0
6
CONTINUOUS
10
-0.079796
20
0.066034
30
0.0
11
-0.079776
21
0.066077
31
0.0
0
LINE
8
0
6
CONTINUOUS
10
-0.080740
20
0.066523
30
0.0
11
-0.080760
21
0.066480
31
0.0
0
LINE
8
0
6
CONTINUOUS
10
-0.046170
20
0.044443
30
0.0
11
-0.045758
21
0.045317
31
0.0
0
LINE
8
0
6
CONTINUOUS
10
-0.044255
20
0.048509
30
0.0
11
-0.044228
21
0.048568
31
0.0
0
LINE
8
0
6
CONTINUOUS
10
-0.047131
20
0.044895
30
0.0
11
-0.046170
21
0.044443
31
0.0
0
LINE
8
0
6
CONTINUOUS
10
-0.046712
20
0.045785
30
0.0
11
-0.047131
21
0.044895
31
0.0
0
LINE
8
0
6
CONTINUOUS
10
-0.064651
20
0.050566
30
0.0
11
-0.063186
21
0.049876
31
0.0
0
LINE
8
0
6
CONTINUOUS
10
-0.062225
20
0.049423
30
0.0
11
-0.061755
21
0.050421
31
0.0
0
LINE
8
0
6
CONTINUOUS
10
-0.063186
20
0.049876
30
0.0
11
-0.062225
21
0.049423
31
0.0
0
LINE
8
0
6
CONTINUOUS
10
-0.062743
20
0.050816
30
0.0
11
-0.063186
21
0.049876
31
0.0
0
LINE
8
0
6
CONTINUOUS
10
-0.064651
20
0.050566
30
0.0
11
-0.064289
21
0.051335
31
0.0
0
LINE
8
0
6
CONTINUOUS
10
-0.065156
20
0.050803
30
0.0
11
-0.064651
21
0.050566
31
0.0
0
LINE
8
0
6
CONTINUOUS
10
-0.064816
20
0.051525
30
0.0
11
-0.065156
21
0.050803
31
0.0
0
LINE
8
0
6
CONTINUOUS
10
-0.079999
20
0.056091
30
0.0
11
-0.079591
21
0.056957
31
0.0
0
LINE
8
0
6
CONTINUOUS
10
-0.081465
20
0.056781
30
0.0
11
-0.079999
21
0.056091
31
0.0
0
LINE
8
0
6
CONTINUOUS
10
-0.081465
20
0.056781
30
0.0
11
-0.081056
21
0.057648
31
0.0
0
LINE
8
0
6
CONTINUOUS
10
-0.081969
20
0.057019
30
0.0
11
-0.081465
21
0.056781
31
0.0
0
LINE
8
0
6
CONTINUOUS
10
-0.081561
20
0.057887
30
0.0
11
-0.081969
21
0.057019
31
0.0
0
LINE
8
0
6
CONTINUOUS
10
-0.103653
20
0.068513
30
0.0
11
-0.103308
21
0.069246
31
0.0
0
LINE
8
0
6
CONTINUOUS
10
-0.104909
20
0.069105
30
0.0
11
-0.103653
21
0.068513
31
0.0
0
LINE
8
0
6
CONTINUOUS
10
-0.104480
20
0.070015
30
0.0
11
-0.104909
21
0.069105
31
0.0
0
LINE
8
0
6
CONTINUOUS
10
-0.106229
20
0.069727
30
0.0
11
-0.105759
21
0.070724
31
0.0
0
LINE
8
0
6
CONTINUOUS
10
-0.106294
20
0.069757
30
0.0
11
-0.106229
21
0.069727
31
0.0
0
LINE
8
0
6
CONTINUOUS
10
-0.105821
20
0.070761
30
0.0
11
-0.106294
21
0.069757
31
0.0
0
LINE
8
0
6
CONTINUOUS
10
-0.091850
20
0.068432
30
0.0
11
-0.092355
21
0.068670
31
0.0
0
LINE
8
0
6
CONTINUOUS
10
-0.093820
20
0.069360
30
0.0
11
-0.094781
21
0.069812
31
0.0
0
LINE
8
0
6
CONTINUOUS
10
-0.092355
20
0.068670
30
0.0
11
-0.093820
21
0.069360
31
0.0
0
LINE
8
0
6
CONTINUOUS
10
-0.091475
20
0.061821
30
0.0
11
-0.092291
21
0.062205
31
0.0
0
LINE
8
0
6
CONTINUOUS
10
-0.093777
20
0.062905
30
0.0
11
-0.094449
21
0.063221
31
0.0
0
LINE
8
0
6
CONTINUOUS
10
-0.092291
20
0.062205
30
0.0
11
-0.093777
21
0.062905
31
0.0
0
LINE
8
0
6
CONTINUOUS
10
-0.076705
20
0.056767
30
0.0
11
-0.077209
21
0.057004
31
0.0
0
LINE
8
0
6
CONTINUOUS
10
-0.075239
20
0.056076
30
0.0
11
-0.076705
21
0.056767
31
0.0
0
LINE
8
0
6
CONTINUOUS
10
-0.074278
20
0.055624
30
0.0
11
-0.075239
21
0.056076
31
0.0
0
LINE
8
0
6
CONTINUOUS
10
-0.056562
20
0.048100
30
0.0
11
-0.057523
21
0.048552
31
0.0
0
LINE
8
0
6
CONTINUOUS
10
-0.055097
20
0.047410
30
0.0
11
-0.056562
21
0.048100
31
0.0
0
LINE
8
0
6
CONTINUOUS
10
-0.054592
20
0.047172
30
0.0
11
-0.055097
21
0.047410
31
0.0
0
LINE
8
0
6
CONTINUOUS
10
-0.086461
20
0.061499
30
0.0
11
-0.086966
21
0.061736
31
0.0
0
LINE
8
0
6
CONTINUOUS
10
-0.088431
20
0.062426
30
0.0
11
-0.089392
21
0.062879
31
0.0
0
LINE
8
0
6
CONTINUOUS
10
-0.086966
20
0.061736
30
0.0
11
-0.088431
21
0.062426
31
0.0
0
LINE
8
0
6
CONTINUOUS
10
-0.092120
20
0.062891
30
0.0
11
-0.092791
21
0.063207
31
0.0
0
LINE
8
0
6
CONTINUOUS
10
-0.090633
20
0.062191
30
0.0
11
-0.092120
21
0.062891
31
0.0
0
LINE
8
0
6
CONTINUOUS
10
-0.089818
20
0.061807
30
0.0
11
-0.090633
21
0.062191
31
0.0
0
LINE
8
0
6
CONTINUOUS
10
-0.113506
20
0.074459
30
0.0
11
-0.113756
21
0.074577
31
0.0
0
LINE
8
0
6
CONTINUOUS
10
-0.112110
20
0.073802
30
0.0
11
-0.113506
21
0.074459
31
0.0
0
LINE
8
0
6
CONTINUOUS
10
-0.110964
20
0.073262
30
0.0
11
-0.112110
21
0.073802
31
0.0
0
LINE
8
0
6
CONTINUOUS
10
-0.123409
20
0.083163
30
0.0
11
-0.124805
21
0.083821
31
0.0
0
LINE
8
0
6
CONTINUOUS
10
-0.123159
20
0.083045
30
0.0
11
-0.123409
21
0.083163
31
0.0
0
LINE
8
0
6
CONTINUOUS
10
-0.124805
20
0.083821
30
0.0
11
-0.125951
21
0.084360
31
0.0
0
LINE
8
0
6
CONTINUOUS
10
-0.118591
20
0.078675
30
0.0
11
-0.119736
21
0.079215
31
0.0
0
LINE
8
0
6
CONTINUOUS
10
-0.121133
20
0.079872
30
0.0
11
-0.121383
21
0.079990
31
0.0
0
LINE
8
0
6
CONTINUOUS
10
-0.119736
20
0.079215
30
0.0
11
-0.121133
21
0.079872
31
0.0
0
LINE
8
0
6
CONTINUOUS
10
-0.069679
20
0.055383
30
0.0
11
-0.070639
21
0.055835
31
0.0
0
LINE
8
0
6
CONTINUOUS
10
-0.072105
20
0.056526
30
0.0
11
-0.072610
21
0.056763
31
0.0
0
LINE
8
0
6
CONTINUOUS
10
-0.070639
20
0.055835
30
0.0
11
-0.072105
21
0.056526
31
0.0
0
LINE
8
0
6
CONTINUOUS
10
-0.048597
20
0.045585
30
0.0
11
-0.049101
21
0.045823
31
0.0
0
LINE
8
0
6
CONTINUOUS
10
-0.047131
20
0.044895
30
0.0
11
-0.048597
21
0.045585
31
0.0
0
LINE
8
0
6
CONTINUOUS
10
-0.046170
20
0.044443
30
0.0
11
-0.047131
21
0.044895
31
0.0
0
LINE
8
0
6
CONTINUOUS
10
-0.064651
20
0.050566
30
0.0
11
-0.065156
21
0.050803
31
0.0
0
LINE
8
0
6
CONTINUOUS
10
-0.063186
20
0.049876
30
0.0
11
-0.064651
21
0.050566
31
0.0
0
LINE
8
0
6
CONTINUOUS
10
-0.062225
20
0.049423
30
0.0
11
-0.063186
21
0.049876
31
0.0
0
LINE
8
0
6
CONTINUOUS
10
-0.106229
20
0.069727
30
0.0
11
-0.106294
21
0.069757
31
0.0
0
LINE
8
0
6
CONTINUOUS
10
-0.104909
20
0.069105
30
0.0
11
-0.106229
21
0.069727
31
0.0
0
LINE
8
0
6
CONTINUOUS
10
-0.103653
20
0.068513
30
0.0
11
-0.104909
21
0.069105
31
0.0
0
LINE
8
0
6
CONTINUOUS
10
-0.083166
20
0.057952
30
0.0
11
-0.083671
21
0.058190
31
0.0
0
LINE
8
0
6
CONTINUOUS
10
-0.085137
20
0.058880
30
0.0
11
-0.086097
21
0.059333
31
0.0
0
LINE
8
0
6
CONTINUOUS
10
-0.083671
20
0.058190
30
0.0
11
-0.085137
21
0.058880
31
0.0
0
LINE
8
0
6
CONTINUOUS
10
-0.071834
20
0.053192
30
0.0
11
-0.072338
21
0.053430
31
0.0
0
LINE
8
0
6
CONTINUOUS
10
-0.073804
20
0.054120
30
0.0
11
-0.074765
21
0.054573
31
0.0
0
LINE
8
0
6
CONTINUOUS
10
-0.072338
20
0.053430
30
0.0
11
-0.073804
21
0.054120
31
0.0
0
LINE
8
0
6
CONTINUOUS
10
-0.079038
20
0.055639
30
0.0
11
-0.079999
21
0.056091
31
0.0
0
LINE
8
0
6
CONTINUOUS
10
-0.081465
20
0.056781
30
0.0
11
-0.081969
21
0.057019
31
0.0
0
LINE
8
0
6
CONTINUOUS
10
-0.079999
20
0.056091
30
0.0
11
-0.081465
21
0.056781
31
0.0
0
LINE
8
0
6
CONTINUOUS
10
-0.101185
20
0.068710
30
0.0
11
-0.101856
21
0.069026
31
0.0
0
LINE
8
0
6
CONTINUOUS
10
-0.099698
20
0.068009
30
0.0
11
-0.101185
21
0.068710
31
0.0
0
LINE
8
0
6
CONTINUOUS
10
-0.098883
20
0.067625
30
0.0
11
-0.099698
21
0.068009
31
0.0
0
LINE
8
0
6
CONTINUOUS
10
-0.118286
20
0.078474
30
0.0
11
-0.118350
21
0.078504
31
0.0
0
LINE
8
0
6
CONTINUOUS
10
-0.116965
20
0.077852
30
0.0
11
-0.118286
21
0.078474
31
0.0
0
LINE
8
0
6
CONTINUOUS
10
-0.115709
20
0.077260
30
0.0
11
-0.116965
21
0.077852
31
0.0
0
LINE
8
0
6
CONTINUOUS
10
-0.116368
20
0.079707
30
0.0
11
-0.117427
21
0.080206
31
0.0
0
LINE
8
0
6
CONTINUOUS
10
-0.118863
20
0.080882
30
0.0
11
-0.119239
21
0.081059
31
0.0
0
LINE
8
0
6
CONTINUOUS
10
-0.117427
20
0.080206
30
0.0
11
-0.118863
21
0.080882
31
0.0
0
LINE
8
0
6
CONTINUOUS
10
0.062378
20
-0.100852
30
0.0
11
0.062378
21
-0.101852
31
0.0
0
LINE
8
0
6
CONTINUOUS
10
0.063255
20
-0.100852
30
0.0
11
0.062378
21
-0.100852
31
0.0
0
LINE
8
0
6
CONTINUOUS
10
0.062378
20
-0.106852
30
0.0
11
0.063255
21
-0.106852
31
0.0
0
LINE
8
0
6
CONTINUOUS
10
0.062378
20
-0.105852
30
0.0
11
0.062378
21
-0.106852
31
0.0
0
LINE
8
0
6
CONTINUOUS
10
0.065844
20
-0.100852
30
0.0
11
0.063255
21
-0.100852
31
0.0
0
LINE
8
0
6
CONTINUOUS
10
0.063255
20
-0.106852
30
0.0
11
0.065844
21
-0.106852
31
0.0
0
LINE
8
0
6
CONTINUOUS
10
0.070014
20
-0.100852
30
0.0
11
0.065844
21
-0.100852
31
0.0
0
LINE
8
0
6
CONTINUOUS
10
0.065844
20
-0.106852
30
0.0
11
0.070014
21
-0.106852
31
0.0
0
LINE
8
0
6
CONTINUOUS
10
0.075556
20
-0.100852
30
0.0
11
0.070014
21
-0.100852
31
0.0
0
LINE
8
0
6
CONTINUOUS
10
0.070014
20
-0.106852
30
0.0
11
0.075556
21
-0.106852
31
0.0
0
LINE
8
0
6
CONTINUOUS
10
0.082192
20
-0.100852
30
0.0
11
0.075556
21
-0.100852
31
0.0
0
LINE
8
0
6
CONTINUOUS
10
0.075556
20
-0.106852
30
0.0
11
0.082192
21
-0.106852
31
0.0
0
LINE
8
0
6
CONTINUOUS
10
0.089590
20
-0.100852
30
0.0
11
0.082192
21
-0.100852
31
0.0
0
LINE
8
0
6
CONTINUOUS
10
0.082192
20
-0.106852
30
0.0
11
0.089590
21
-0.106852
31
0.0
0
LINE
8
0
6
CONTINUOUS
10
0.097378
20
-0.100852
30
0.0
11
0.089590
21
-0.100852
31
0.0
0
LINE
8
0
6
CONTINUOUS
10
0.089590
20
-0.106852
30
0.0
11
0.097378
21
-0.106852
31
0.0
0
LINE
8
0
6
CONTINUOUS
10
0.105166
20
-0.100852
30
0.0
11
0.097378
21
-0.100852
31
0.0
0
LINE
8
0
6
CONTINUOUS
10
0.097378
20
-0.106852
30
0.0
11
0.105166
21
-0.106852
31
0.0
0
LINE
8
0
6
CONTINUOUS
10
0.112564
20
-0.100852
30
0.0
11
0.105166
21
-0.100852
31
0.0
0
LINE
8
0
6
CONTINUOUS
10
0.105166
20
-0.106852
30
0.0
11
0.112564
21
-0.106852
31
0.0
0
LINE
8
0
6
CONTINUOUS
10
0.119200
20
-0.100852
30
0.0
11
0.112564
21
-0.100852
31
0.0
0
LINE
8
0
6
CONTINUOUS
10
0.112564
20
-0.106852
30
0.0
11
0.119200
21
-0.106852
31
0.0
0
LINE
8
0
6
CONTINUOUS
10
0.124742
20
-0.100852
30
0.0
11
0.119200
21
-0.100852
31
0.0
0
LINE
8
0
6
CONTINUOUS
10
0.119200
20
-0.106852
30
0.0
11
0.124742
21
-0.106852
31
0.0
0
LINE
8
0
6
CONTINUOUS
10
0.128912
20
-0.100852
30
0.0
11
0.124742
21
-0.100852
31
0.0
0
LINE
8
0
6
CONTINUOUS
10
0.124742
20
-0.106852
30
0.0
11
0.128912
21
-0.106852
31
0.0
0
LINE
8
0
6
CONTINUOUS
10
0.131500
20
-0.100852
30
0.0
11
0.128912
21
-0.100852
31
0.0
0
LINE
8
0
6
CONTINUOUS
10
0.128912
20
-0.106852
30
0.0
11
0.131500
21
-0.106852
31
0.0
0
LINE
8
0
6
CONTINUOUS
10
0.132378
20
-0.100852
30
0.0
11
0.131500
21
-0.100852
31
0.0
0
LINE
8
0
6
CONTINUOUS
10
0.132378
20
-0.101852
30
0.0
11
0.132378
21
-0.100852
31
0.0
0
LINE
8
0
6
CONTINUOUS
10
0.132378
20
-0.106852
30
0.0
11
0.132378
21
-0.105852
31
0.0
0
LINE
8
0
6
CONTINUOUS
10
0.131500
20
-0.106852
30
0.0
11
0.132378
21
-0.106852
31
0.0
0
LINE
8
0
6
CONTINUOUS
10
0.132378
20
-0.105852
30
0.0
11
0.132378
21
-0.101852
31
0.0
0
LINE
8
0
6
CONTINUOUS
10
0.062378
20
-0.101852
30
0.0
11
0.062378
21
-0.105852
31
0.0
0
LINE
8
0
6
CONTINUOUS
10
0.077026
20
-0.052031
30
0.0
11
0.075543
21
-0.053269
31
0.0
0
LINE
8
0
6
CONTINUOUS
10
0.076789
20
-0.052457
30
0.0
11
0.075353
21
-0.053657
31
0.0
0
LINE
8
0
6
CONTINUOUS
10
0.077256
20
-0.052320
30
0.0
11
0.075772
21
-0.053558
31
0.0
0
LINE
8
0
6
CONTINUOUS
10
0.065826
20
-0.061374
30
0.0
11
0.063058
21
-0.063683
31
0.0
0
LINE
8
0
6
CONTINUOUS
10
0.065942
20
-0.061523
30
0.0
11
0.063260
21
-0.063765
31
0.0
0
LINE
8
0
6
CONTINUOUS
10
0.066054
20
-0.061665
30
0.0
11
0.063285
21
-0.063975
31
0.0
0
LINE
8
0
6
CONTINUOUS
10
0.053209
20
-0.071652
30
0.0
11
0.053321
21
-0.071800
31
0.0
0
LINE
8
0
6
CONTINUOUS
10
0.053321
20
-0.071800
30
0.0
11
0.053830
21
-0.071645
31
0.0
0
LINE
8
0
6
CONTINUOUS
10
0.053640
20
-0.071534
30
0.0
11
0.053321
21
-0.071800
31
0.0
0
LINE
8
0
6
CONTINUOUS
10
0.053830
20
-0.071645
30
0.0
11
0.053544
21
-0.072094
31
0.0
0
LINE
8
0
6
CONTINUOUS
10
0.054139
20
-0.071387
30
0.0
11
0.053830
21
-0.071645
31
0.0
0
LINE
8
0
6
CONTINUOUS
10
0.053544
20
-0.072094
30
0.0
11
0.053656
21
-0.072241
31
0.0
0
LINE
8
0
6
CONTINUOUS
10
0.053863
20
-0.071828
30
0.0
11
0.053544
21
-0.072094
31
0.0
0
LINE
8
0
6
CONTINUOUS
10
0.054575
20
-0.070754
30
0.0
11
0.053640
21
-0.071534
31
0.0
0
LINE
8
0
6
CONTINUOUS
10
0.055046
20
-0.070630
30
0.0
11
0.054139
21
-0.071387
31
0.0
0
LINE
8
0
6
CONTINUOUS
10
0.054800
20
-0.071048
30
0.0
11
0.053863
21
-0.071828
31
0.0
0
LINE
8
0
6
CONTINUOUS
10
0.075543
20
-0.053269
30
0.0
11
0.073574
21
-0.054911
31
0.0
0
LINE
8
0
6
CONTINUOUS
10
0.075353
20
-0.053657
30
0.0
11
0.073446
21
-0.055251
31
0.0
0
LINE
8
0
6
CONTINUOUS
10
0.075772
20
-0.053558
30
0.0
11
0.073803
21
-0.055201
31
0.0
0
LINE
8
0
6
CONTINUOUS
10
0.056074
20
-0.069506
30
0.0
11
0.054575
21
-0.070754
31
0.0
0
LINE
8
0
6
CONTINUOUS
10
0.056497
20
-0.069418
30
0.0
11
0.055046
21
-0.070630
31
0.0
0
LINE
8
0
6
CONTINUOUS
10
0.056299
20
-0.069799
30
0.0
11
0.054800
21
-0.071048
31
0.0
0
LINE
8
0
6
CONTINUOUS
10
0.071218
20
-0.056876
30
0.0
11
0.068592
21
-0.059067
31
0.0
0
LINE
8
0
6
CONTINUOUS
10
0.071164
20
-0.057158
30
0.0
11
0.068621
21
-0.059284
31
0.0
0
LINE
8
0
6
CONTINUOUS
10
0.071447
20
-0.057167
30
0.0
11
0.068820
21
-0.059358
31
0.0
0
LINE
8
0
6
CONTINUOUS
10
0.060424
20
-0.065879
30
0.0
11
0.058057
21
-0.067853
31
0.0
0
LINE
8
0
6
CONTINUOUS
10
0.060709
20
-0.065897
30
0.0
11
0.058417
21
-0.067813
31
0.0
0
LINE
8
0
6
CONTINUOUS
10
0.060650
20
-0.066171
30
0.0
11
0.058282
21
-0.068146
31
0.0
0
LINE
8
0
6
CONTINUOUS
10
0.058057
20
-0.067853
30
0.0
11
0.056074
21
-0.069506
31
0.0
0
LINE
8
0
6
CONTINUOUS
10
0.058417
20
-0.067813
30
0.0
11
0.056497
21
-0.069418
31
0.0
0
LINE
8
0
6
CONTINUOUS
10
0.058282
20
-0.068146
30
0.0
11
0.056299
21
-0.069799
31
0.0
0
LINE
8
0
6
CONTINUOUS
10
0.068592
20
-0.059067
30
0.0
11
0.065826
21
-0.061374
31
0.0
0
LINE
8
0
6
CONTINUOUS
10
0.068621
20
-0.059284
30
0.0
11
0.065942
21
-0.061523
31
0.0
0
LINE
8
0
6
CONTINUOUS
10
0.068820
20
-0.059358
30
0.0
11
0.066054
21
-0.061665
31
0.0
0
LINE
8
0
6
CONTINUOUS
10
0.063058
20
-0.063683
30
0.0
11
0.060424
21
-0.065879
31
0.0
0
LINE
8
0
6
CONTINUOUS
10
0.063260
20
-0.063765
30
0.0
11
0.060709
21
-0.065897
31
0.0
0
LINE
8
0
6
CONTINUOUS
10
0.063285
20
-0.063975
30
0.0
11
0.060650
21
-0.066171
31
0.0
0
LINE
8
0
6
CONTINUOUS
10
0.078262
20
-0.051000
30
0.0
11
0.078147
21
-0.050856
31
0.0
0
LINE
8
0
6
CONTINUOUS
10
0.078262
20
-0.051000
30
0.0
11
0.077949
21
-0.051262
31
0.0
0
LINE
8
0
6
CONTINUOUS
10
0.077986
20
-0.051456
30
0.0
11
0.078262
21
-0.051000
31
0.0
0
LINE
8
0
6
CONTINUOUS
10
0.077986
20
-0.051456
30
0.0
11
0.077683
21
-0.051710
31
0.0
0
LINE
8
0
6
CONTINUOUS
10
0.078493
20
-0.051289
30
0.0
11
0.077986
21
-0.051456
31
0.0
0
LINE
8
0
6
CONTINUOUS
10
0.078493
20
-0.051289
30
0.0
11
0.078179
21
-0.051551
31
0.0
0
LINE
8
0
6
CONTINUOUS
10
0.078608
20
-0.051434
30
0.0
11
0.078493
21
-0.051289
31
0.0
0
LINE
8
0
6
CONTINUOUS
10
0.077949
20
-0.051262
30
0.0
11
0.077026
21
-0.052031
31
0.0
0
LINE
8
0
6
CONTINUOUS
10
0.077683
20
-0.051710
30
0.0
11
0.076789
21
-0.052457
31
0.0
0
LINE
8
0
6
CONTINUOUS
10
0.078179
20
-0.051551
30
0.0
11
0.077256
21
-0.052320
31
0.0
0
LINE
8
0
6
CONTINUOUS
10
0.073574
20
-0.054911
30
0.0
11
0.071218
21
-0.056876
31
0.0
0
LINE
8
0
6
CONTINUOUS
10
0.073446
20
-0.055251
30
0.0
11
0.071164
21
-0.057158
31
0.0
0
LINE
8
0
6
CONTINUOUS
10
0.073803
20
-0.055201
30
0.0
11
0.071447
21
-0.057167
31
0.0
0
LINE
8
0
6
CONTINUOUS
10
0.053656
20
-0.072241
30
0.0
11
0.074059
21
-0.099127
31
0.0
0
LINE
8
0
6
CONTINUOUS
10
0.074059
20
-0.099127
30
0.0
11
0.074076
21
-0.100066
31
0.0
0
LINE
8
0
6
CONTINUOUS
10
0.074610
20
-0.099127
30
0.0
11
0.074059
21
-0.099127
31
0.0
0
LINE
8
0
6
CONTINUOUS
10
0.074076
20
-0.100066
30
0.0
11
0.074012
21
-0.100470
31
0.0
0
LINE
8
0
6
CONTINUOUS
10
0.074012
20
-0.100470
30
0.0
11
0.073738
21
-0.100852
31
0.0
0
LINE
8
0
6
CONTINUOUS
10
0.074604
20
-0.100470
30
0.0
11
0.074012
21
-0.100470
31
0.0
0
LINE
8
0
6
CONTINUOUS
10
0.117277
20
-0.100066
30
0.0
11
0.116602
21
-0.099127
31
0.0
0
LINE
8
0
6
CONTINUOUS
10
0.117776
20
-0.100470
30
0.0
11
0.117277
21
-0.100066
31
0.0
0
LINE
8
0
6
CONTINUOUS
10
0.119032
20
-0.100852
30
0.0
11
0.117776
21
-0.100470
31
0.0
0
LINE
8
0
6
CONTINUOUS
10
0.086150
20
-0.099127
30
0.0
11
0.082136
21
-0.099127
31
0.0
0
LINE
8
0
6
CONTINUOUS
10
0.086520
20
-0.100470
30
0.0
11
0.082417
21
-0.100470
31
0.0
0
LINE
8
0
6
CONTINUOUS
10
0.076215
20
-0.099127
30
0.0
11
0.074610
21
-0.099127
31
0.0
0
LINE
8
0
6
CONTINUOUS
10
0.076300
20
-0.100470
30
0.0
11
0.074604
21
-0.100470
31
0.0
0
LINE
8
0
6
CONTINUOUS
10
0.115499
20
-0.100470
30
0.0
11
0.112826
21
-0.100470
31
0.0
0
LINE
8
0
6
CONTINUOUS
10
0.112826
20
-0.100470
30
0.0
11
0.109336
21
-0.100470
31
0.0
0
LINE
8
0
6
CONTINUOUS
10
0.078769
20
-0.099127
30
0.0
11
0.076215
21
-0.099127
31
0.0
0
LINE
8
0
6
CONTINUOUS
10
0.078955
20
-0.100470
30
0.0
11
0.076300
21
-0.100470
31
0.0
0
LINE
8
0
6
CONTINUOUS
10
0.109336
20
-0.100470
30
0.0
11
0.105208
21
-0.100470
31
0.0
0
LINE
8
0
6
CONTINUOUS
10
0.095852
20
-0.100470
30
0.0
11
0.091070
21
-0.100470
31
0.0
0
LINE
8
0
6
CONTINUOUS
10
0.105208
20
-0.100470
30
0.0
11
0.100641
21
-0.100470
31
0.0
0
LINE
8
0
6
CONTINUOUS
10
0.082417
20
-0.100470
30
0.0
11
0.078955
21
-0.100470
31
0.0
0
LINE
8
0
6
CONTINUOUS
10
0.100641
20
-0.100470
30
0.0
11
0.095852
21
-0.100470
31
0.0
0
LINE
8
0
6
CONTINUOUS
10
0.090616
20
-0.099127
30
0.0
11
0.086150
21
-0.099127
31
0.0
0
LINE
8
0
6
CONTINUOUS
10
0.091070
20
-0.100470
30
0.0
11
0.086520
21
-0.100470
31
0.0
0
LINE
8
0
6
CONTINUOUS
10
0.078769
20
-0.099127
30
0.0
11
0.082136
21
-0.099127
31
0.0
0
LINE
8
0
6
CONTINUOUS
10
0.116602
20
-0.099127
30
0.0
11
0.078608
21
-0.051434
31
0.0
0
LINE
8
0
6
CONTINUOUS
10
0.090616
20
-0.099127
30
0.0
11
0.095313
21
-0.099127
31
0.0
0
LINE
8
0
6
CONTINUOUS
10
0.078147
20
-0.050856
30
0.0
11
0.065692
21
-0.035221
31
0.0
0
LINE
8
0
6
CONTINUOUS
10
0.062522
20
-0.035577
30
0.0
11
0.062265
21
-0.035791
31
0.0
0
LINE
8
0
6
CONTINUOUS
10
0.062866
20
-0.035989
30
0.0
11
0.062522
21
-0.035577
31
0.0
0
LINE
8
0
6
CONTINUOUS
10
0.058666
20
-0.038795
30
0.0
11
0.056725
21
-0.040416
31
0.0
0
LINE
8
0
6
CONTINUOUS
10
0.050003
20
-0.046027
30
0.0
11
0.047838
21
-0.047834
31
0.0
0
LINE
8
0
6
CONTINUOUS
10
0.043055
20
-0.051827
30
0.0
11
0.042298
21
-0.052459
31
0.0
0
LINE
8
0
6
CONTINUOUS
10
0.060288
20
-0.037442
30
0.0
11
0.058666
21
-0.038795
31
0.0
0
LINE
8
0
6
CONTINUOUS
10
0.052281
20
-0.044125
30
0.0
11
0.050003
21
-0.046027
31
0.0
0
LINE
8
0
6
CONTINUOUS
10
0.044275
20
-0.050809
30
0.0
11
0.043055
21
-0.051827
31
0.0
0
LINE
8
0
6
CONTINUOUS
10
0.061508
20
-0.036423
30
0.0
11
0.060288
21
-0.037442
31
0.0
0
LINE
8
0
6
CONTINUOUS
10
0.054560
20
-0.042223
30
0.0
11
0.052281
21
-0.044125
31
0.0
0
LINE
8
0
6
CONTINUOUS
10
0.045896
20
-0.049455
30
0.0
11
0.044275
21
-0.050809
31
0.0
0
LINE
8
0
6
CONTINUOUS
10
0.062265
20
-0.035791
30
0.0
11
0.061508
21
-0.036423
31
0.0
0
LINE
8
0
6
CONTINUOUS
10
0.056725
20
-0.040416
30
0.0
11
0.054568
21
-0.042217
31
0.0
0
LINE
8
0
6
CONTINUOUS
10
0.047838
20
-0.047834
30
0.0
11
0.045896
21
-0.049455
31
0.0
0
LINE
8
0
6
CONTINUOUS
10
0.040342
20
-0.054792
30
0.0
11
0.041125
21
-0.055729
31
0.0
0
LINE
8
0
6
CONTINUOUS
10
0.040650
20
-0.054535
30
0.0
11
0.040342
21
-0.054792
31
0.0
0
LINE
8
0
6
CONTINUOUS
10
0.041558
20
-0.053776
30
0.0
11
0.040650
21
-0.054535
31
0.0
0
LINE
8
0
6
CONTINUOUS
10
0.043022
20
-0.052555
30
0.0
11
0.041558
21
-0.053776
31
0.0
0
LINE
8
0
6
CONTINUOUS
10
0.044967
20
-0.050931
30
0.0
11
0.043022
21
-0.052555
31
0.0
0
LINE
8
0
6
CONTINUOUS
10
0.047296
20
-0.048987
30
0.0
11
0.044967
21
-0.050931
31
0.0
0
LINE
8
0
6
CONTINUOUS
10
0.049892
20
-0.046819
30
0.0
11
0.047296
21
-0.048987
31
0.0
0
LINE
8
0
6
CONTINUOUS
10
0.052626
20
-0.044538
30
0.0
11
0.049892
21
-0.046819
31
0.0
0
LINE
8
0
6
CONTINUOUS
10
0.055359
20
-0.042256
30
0.0
11
0.052626
21
-0.044538
31
0.0
0
LINE
8
0
6
CONTINUOUS
10
0.057955
20
-0.040089
30
0.0
11
0.055359
21
-0.042256
31
0.0
0
LINE
8
0
6
CONTINUOUS
10
0.060284
20
-0.038144
30
0.0
11
0.057955
21
-0.040089
31
0.0
0
LINE
8
0
6
CONTINUOUS
10
0.062229
20
-0.036521
30
0.0
11
0.060284
21
-0.038144
31
0.0
0
LINE
8
0
6
CONTINUOUS
10
0.063693
20
-0.035299
30
0.0
11
0.062229
21
-0.036521
31
0.0
0
LINE
8
0
6
CONTINUOUS
10
0.064601
20
-0.034541
30
0.0
11
0.063693
21
-0.035299
31
0.0
0
LINE
8
0
6
CONTINUOUS
10
0.064909
20
-0.034284
30
0.0
11
0.064601
21
-0.034541
31
0.0
0
LINE
8
0
6
CONTINUOUS
10
0.065692
20
-0.035221
30
0.0
11
0.064909
21
-0.034284
31
0.0
0
LINE
8
0
6
CONTINUOUS
10
0.042041
20
-0.052674
30
0.0
11
0.042385
21
-0.053086
31
0.0
0
LINE
8
0
6
CONTINUOUS
10
0.042298
20
-0.052459
30
0.0
11
0.042041
21
-0.052674
31
0.0
0
LINE
8
0
6
CONTINUOUS
10
0.041125
20
-0.055729
30
0.0
11
0.053209
21
-0.071652
31
0.0
0
LINE
8
0
6
CONTINUOUS
10
-0.065134
20
0.086229
30
0.0
11
-0.083055
21
0.094508
31
0.0
0
LINE
8
0
6
CONTINUOUS
10
-0.038905
20
0.044629
30
0.0
11
-0.035426
21
0.042341
31
0.0
0
LINE
8
0
6
CONTINUOUS
10
-0.040566
20
0.046093
30
0.0
11
-0.038905
21
0.044629
31
0.0
0
LINE
8
0
6
CONTINUOUS
10
-0.103880
20
0.077506
30
0.0
11
-0.091911
21
0.071691
31
0.0
0
LINE
8
0
6
CONTINUOUS
10
-0.111465
20
0.081027
30
0.0
11
-0.103880
21
0.077506
31
0.0
0
LINE
8
0
6
CONTINUOUS
10
-0.067338
20
0.060307
30
0.0
11
-0.056690
21
0.055268
31
0.0
0
LINE
8
0
6
CONTINUOUS
10
-0.131856
20
0.090568
30
0.0
11
-0.130328
21
0.089884
31
0.0
0
LINE
8
0
6
CONTINUOUS
10
-0.132378
20
0.091061
30
0.0
11
-0.131856
21
0.090568
31
0.0
0
LINE
8
0
6
CONTINUOUS
10
-0.130328
20
0.089884
30
0.0
11
-0.125745
21
0.087786
31
0.0
0
LINE
8
0
6
CONTINUOUS
10
-0.118117
20
0.084097
30
0.0
11
-0.111465
21
0.081027
31
0.0
0
LINE
8
0
6
CONTINUOUS
10
-0.056690
20
0.055268
30
0.0
11
-0.052035
21
0.053099
31
0.0
0
LINE
8
0
6
CONTINUOUS
10
-0.022055
20
0.025433
30
0.0
11
-0.022190
21
0.025198
31
0.0
0
LINE
8
0
6
CONTINUOUS
10
-0.022190
20
0.025198
30
0.0
11
-0.020623
21
0.023349
31
0.0
0
LINE
8
0
6
CONTINUOUS
10
-0.021952
20
0.026444
30
0.0
11
-0.022055
21
0.025433
31
0.0
0
LINE
8
0
6
CONTINUOUS
10
-0.125745
20
0.087786
30
0.0
11
-0.118117
21
0.084097
31
0.0
0
LINE
8
0
6
CONTINUOUS
10
0.061102
20
-0.036231
30
0.0
11
0.061007
21
-0.036123
31
0.0
0
LINE
8
0
6
CONTINUOUS
10
0.042679
20
-0.051423
30
0.0
11
0.042772
21
-0.051532
31
0.0
0
LINE
8
0
6
CONTINUOUS
10
0.049597
20
-0.045836
30
0.0
11
0.048473
21
-0.046773
31
0.0
0
LINE
8
0
6
CONTINUOUS
10
0.048774
20
-0.046931
30
0.0
11
0.049880
21
-0.046008
31
0.0
0
LINE
8
0
6
CONTINUOUS
10
0.052234
20
-0.043634
30
0.0
11
0.050891
21
-0.044755
31
0.0
0
LINE
8
0
6
CONTINUOUS
10
0.051156
20
-0.044943
30
0.0
11
0.052472
21
-0.043844
31
0.0
0
LINE
8
0
6
CONTINUOUS
10
0.061067
20
-0.036669
30
0.0
11
0.061102
21
-0.036231
31
0.0
0
LINE
8
0
6
CONTINUOUS
10
0.060761
20
-0.036925
30
0.0
11
0.061067
21
-0.036669
31
0.0
0
LINE
8
0
6
CONTINUOUS
10
0.061102
20
-0.036231
30
0.0
11
0.060792
21
-0.036490
31
0.0
0
LINE
8
0
6
CONTINUOUS
10
0.059863
20
-0.037674
30
0.0
11
0.060761
21
-0.036925
31
0.0
0
LINE
8
0
6
CONTINUOUS
10
0.060792
20
-0.036490
30
0.0
11
0.059877
21
-0.037254
31
0.0
0
LINE
8
0
6
CONTINUOUS
10
0.058438
20
-0.038864
30
0.0
11
0.059863
21
-0.037674
31
0.0
0
LINE
8
0
6
CONTINUOUS
10
0.056506
20
-0.040477
30
0.0
11
0.058438
21
-0.038864
31
0.0
0
LINE
8
0
6
CONTINUOUS
10
0.058420
20
-0.038470
30
0.0
11
0.056461
21
-0.040105
31
0.0
0
LINE
8
0
6
CONTINUOUS
10
0.055781
20
-0.041082
30
0.0
11
0.056239
21
-0.040700
31
0.0
0
LINE
8
0
6
CONTINUOUS
10
0.056128
20
-0.040383
30
0.0
11
0.055588
21
-0.040834
31
0.0
0
LINE
8
0
6
CONTINUOUS
10
0.056239
20
-0.040700
30
0.0
11
0.056506
21
-0.040477
31
0.0
0
LINE
8
0
6
CONTINUOUS
10
0.052472
20
-0.043844
30
0.0
11
0.055781
21
-0.041082
31
0.0
0
LINE
8
0
6
CONTINUOUS
10
0.055588
20
-0.040834
30
0.0
11
0.052234
21
-0.043634
31
0.0
0
LINE
8
0
6
CONTINUOUS
10
0.049880
20
-0.046008
30
0.0
11
0.051156
21
-0.044943
31
0.0
0
LINE
8
0
6
CONTINUOUS
10
0.050891
20
-0.044755
30
0.0
11
0.049597
21
-0.045836
31
0.0
0
LINE
8
0
6
CONTINUOUS
10
0.047913
20
-0.047241
30
0.0
11
0.047352
21
-0.047709
31
0.0
0
LINE
8
0
6
CONTINUOUS
10
0.045833
20
-0.049386
30
0.0
11
0.047682
21
-0.047842
31
0.0
0
LINE
8
0
6
CONTINUOUS
10
0.047352
20
-0.047709
30
0.0
11
0.045453
21
-0.049294
31
0.0
0
LINE
8
0
6
CONTINUOUS
10
0.044415
20
-0.050570
30
0.0
11
0.045833
21
-0.049386
31
0.0
0
LINE
8
0
6
CONTINUOUS
10
0.045453
20
-0.049294
30
0.0
11
0.043998
21
-0.050509
31
0.0
0
LINE
8
0
6
CONTINUOUS
10
0.043523
20
-0.051314
30
0.0
11
0.044415
21
-0.050570
31
0.0
0
LINE
8
0
6
CONTINUOUS
10
0.043998
20
-0.050509
30
0.0
11
0.043084
21
-0.051272
31
0.0
0
LINE
8
0
6
CONTINUOUS
10
0.043219
20
-0.051568
30
0.0
11
0.043523
21
-0.051314
31
0.0
0
LINE
8
0
6
CONTINUOUS
10
0.042772
20
-0.051532
30
0.0
11
0.043219
21
-0.051568
31
0.0
0
LINE
8
0
6
CONTINUOUS
10
0.043084
20
-0.051272
30
0.0
11
0.042772
21
-0.051532
31
0.0
0
LINE
8
0
6
CONTINUOUS
10
-0.132045
20
0.092457
30
0.0
11
-0.132103
21
0.092294
31
0.0
0
LINE
8
0
6
CONTINUOUS
10
0.061007
20
-0.036123
30
0.0
11
0.050798
21
-0.024610
31
0.0
0
LINE
8
0
6
CONTINUOUS
10
-0.079496
20
0.065948
30
0.0
11
-0.067338
21
0.060307
31
0.0
0
LINE
8
0
6
CONTINUOUS
10
-0.125333
20
0.106852
30
0.0
11
-0.126084
21
0.106486
31
0.0
0
LINE
8
0
6
CONTINUOUS
10
-0.047990
20
0.051088
30
0.0
11
-0.051704
21
0.053167
31
0.0
0
LINE
8
0
6
CONTINUOUS
10
-0.052035
20
0.053099
30
0.0
11
-0.048254
21
0.051006
31
0.0
0
LINE
8
0
6
CONTINUOUS
10
-0.083055
20
0.094508
30
0.0
11
-0.100758
21
0.100907
31
0.0
0
LINE
8
0
6
CONTINUOUS
10
-0.100758
20
0.100907
30
0.0
11
-0.116738
21
0.105043
31
0.0
0
LINE
8
0
6
CONTINUOUS
10
-0.045671
20
0.049449
30
0.0
11
-0.044380
21
0.048671
31
0.0
0
LINE
8
0
6
CONTINUOUS
10
-0.116738
20
0.105043
30
0.0
11
-0.124759
21
0.106753
31
0.0
0
LINE
8
0
6
CONTINUOUS
10
-0.037077
20
0.069819
30
0.0
11
-0.042792
21
0.073487
31
0.0
0
LINE
8
0
6
CONTINUOUS
10
-0.042792
20
0.073487
30
0.0
11
-0.048566
21
0.077062
31
0.0
0
LINE
8
0
6
CONTINUOUS
10
-0.130834
20
0.090358
30
0.0
11
-0.126228
21
0.088226
31
0.0
0
LINE
8
0
6
CONTINUOUS
10
-0.046963
20
0.050228
30
0.0
11
-0.045671
21
0.049449
31
0.0
0
LINE
8
0
6
CONTINUOUS
10
-0.039652
20
0.064887
30
0.0
11
-0.038017
21
0.063886
31
0.0
0
LINE
8
0
6
CONTINUOUS
10
0.013932
20
-0.009722
30
0.0
11
-0.004052
21
0.010983
31
0.0
0
LINE
8
0
6
CONTINUOUS
10
0.050798
20
-0.024610
30
0.0
11
0.027749
21
0.001704
31
0.0
0
LINE
8
0
6
CONTINUOUS
10
0.006855
20
0.019371
30
0.0
11
-0.007183
21
0.036353
31
0.0
0
LINE
8
0
6
CONTINUOUS
10
-0.004775
20
0.038642
30
0.0
11
-0.013157
21
0.048092
31
0.0
0
LINE
8
0
6
CONTINUOUS
10
-0.126834
20
0.106120
30
0.0
11
-0.127141
21
0.105345
31
0.0
0
LINE
8
0
6
CONTINUOUS
10
-0.048279
20
0.068526
30
0.0
11
-0.059286
21
0.073999
31
0.0
0
LINE
8
0
6
CONTINUOUS
10
0.032662
20
-0.039686
30
0.0
11
0.042679
21
-0.051423
31
0.0
0
LINE
8
0
6
CONTINUOUS
10
-0.029804
20
0.058330
30
0.0
11
-0.033730
21
0.061732
31
0.0
0
LINE
8
0
6
CONTINUOUS
10
-0.127141
20
0.105345
30
0.0
11
-0.130488
21
0.096890
31
0.0
0
LINE
8
0
6
CONTINUOUS
10
-0.017806
20
0.053148
30
0.0
11
-0.021035
21
0.056390
31
0.0
0
LINE
8
0
6
CONTINUOUS
10
-0.034084
20
0.043496
30
0.0
11
-0.039178
21
0.046192
31
0.0
0
LINE
8
0
6
CONTINUOUS
10
-0.034084
20
0.043496
30
0.0
11
-0.040228
21
0.046255
31
0.0
0
LINE
8
0
6
CONTINUOUS
10
-0.040228
20
0.046255
30
0.0
11
-0.034833
21
0.042790
31
0.0
0
LINE
8
0
6
CONTINUOUS
10
-0.071615
20
0.081271
30
0.0
11
-0.084237
21
0.087550
31
0.0
0
LINE
8
0
6
CONTINUOUS
10
-0.112678
20
0.099490
30
0.0
11
-0.105207
21
0.095981
31
0.0
0
LINE
8
0
6
CONTINUOUS
10
-0.013157
20
0.048092
30
0.0
11
-0.017806
21
0.053148
31
0.0
0
LINE
8
0
6
CONTINUOUS
10
-0.007183
20
0.036353
30
0.0
11
-0.016393
21
0.047143
31
0.0
0
LINE
8
0
6
CONTINUOUS
10
-0.028181
20
0.037273
30
0.0
11
-0.018657
21
0.027452
31
0.0
0
LINE
8
0
6
CONTINUOUS
10
0.046133
20
-0.028256
30
0.0
11
0.024059
21
-0.001461
31
0.0
0
LINE
8
0
6
CONTINUOUS
10
-0.044126
20
0.048802
30
0.0
11
-0.039178
21
0.046192
31
0.0
0
LINE
8
0
6
CONTINUOUS
10
-0.059469
20
0.075113
30
0.0
11
-0.048626
21
0.069723
31
0.0
0
LINE
8
0
6
CONTINUOUS
10
-0.091911
20
0.071691
30
0.0
11
-0.079496
21
0.065948
31
0.0
0
LINE
8
0
6
CONTINUOUS
10
-0.079117
20
0.066048
30
0.0
11
-0.066983
21
0.060418
31
0.0
0
LINE
8
0
6
CONTINUOUS
10
-0.044380
20
0.048671
30
0.0
11
-0.040566
21
0.046093
31
0.0
0
LINE
8
0
6
CONTINUOUS
10
-0.126834
20
0.106120
30
0.0
11
-0.125203
21
0.105311
31
0.0
0
LINE
8
0
6
CONTINUOUS
10
-0.126084
20
0.106486
30
0.0
11
-0.126834
21
0.106120
31
0.0
0
LINE
8
0
6
CONTINUOUS
10
-0.120528
20
0.103226
30
0.0
11
-0.112678
21
0.099490
31
0.0
0
LINE
8
0
6
CONTINUOUS
10
-0.066983
20
0.060418
30
0.0
11
-0.056311
21
0.055338
31
0.0
0
LINE
8
0
6
CONTINUOUS
10
0.056128
20
-0.040383
30
0.0
11
0.056461
21
-0.040105
31
0.0
0
LINE
8
0
6
CONTINUOUS
10
0.056036
20
-0.040271
30
0.0
11
0.056128
21
-0.040383
31
0.0
0
LINE
8
0
6
CONTINUOUS
10
0.058420
20
-0.038470
30
0.0
11
0.059877
21
-0.037254
31
0.0
0
LINE
8
0
6
CONTINUOUS
10
-0.028181
20
0.037273
30
0.0
11
-0.034833
21
0.042790
31
0.0
0
LINE
8
0
6
CONTINUOUS
10
-0.096824
20
0.092017
30
0.0
11
-0.084585
21
0.086109
31
0.0
0
LINE
8
0
6
CONTINUOUS
10
-0.021801
20
0.027932
30
0.0
11
-0.021952
21
0.026444
31
0.0
0
LINE
8
0
6
CONTINUOUS
10
-0.048626
20
0.069723
30
0.0
11
-0.044136
21
0.067276
31
0.0
0
LINE
8
0
6
CONTINUOUS
10
0.035133
20
-0.037609
30
0.0
11
0.011878
21
-0.011412
31
0.0
0
LINE
8
0
6
CONTINUOUS
10
-0.096291
20
0.093472
30
0.0
11
-0.104321
21
0.097245
31
0.0
0
LINE
8
0
6
CONTINUOUS
10
-0.104527
20
0.097206
30
0.0
11
-0.096147
21
0.093237
31
0.0
0
LINE
8
0
6
CONTINUOUS
10
-0.124016
20
0.106225
30
0.0
11
-0.119771
21
0.104238
31
0.0
0
LINE
8
0
6
CONTINUOUS
10
-0.125333
20
0.106852
30
0.0
11
-0.124016
21
0.106225
31
0.0
0
LINE
8
0
6
CONTINUOUS
10
-0.124759
20
0.106753
30
0.0
11
-0.125333
21
0.106852
31
0.0
0
LINE
8
0
6
CONTINUOUS
10
-0.036382
20
0.062886
30
0.0
11
-0.038017
21
0.063886
31
0.0
0
LINE
8
0
6
CONTINUOUS
10
-0.112347
20
0.100831
30
0.0
11
-0.104527
21
0.097206
31
0.0
0
LINE
8
0
6
CONTINUOUS
10
-0.104321
20
0.097245
30
0.0
11
-0.111841
21
0.100721
31
0.0
0
LINE
8
0
6
CONTINUOUS
10
-0.007903
20
0.007895
30
0.0
11
0.009942
21
-0.013016
31
0.0
0
LINE
8
0
6
CONTINUOUS
10
-0.091533
20
0.071751
30
0.0
11
-0.079117
21
0.066048
31
0.0
0
LINE
8
0
6
CONTINUOUS
10
-0.111497
20
0.081211
30
0.0
11
-0.103458
21
0.077480
31
0.0
0
LINE
8
0
6
CONTINUOUS
10
-0.056311
20
0.055338
30
0.0
11
-0.051704
21
0.053167
31
0.0
0
LINE
8
0
6
CONTINUOUS
10
0.027749
20
0.001704
30
0.0
11
0.009599
21
0.022319
31
0.0
0
LINE
8
0
6
CONTINUOUS
10
-0.132378
20
0.091061
30
0.0
11
-0.130834
21
0.090358
31
0.0
0
LINE
8
0
6
CONTINUOUS
10
-0.132103
20
0.092294
30
0.0
11
-0.132378
21
0.091061
31
0.0
0
LINE
8
0
6
CONTINUOUS
10
-0.020623
20
0.023349
30
0.0
11
-0.007903
21
0.007895
31
0.0
0
LINE
8
0
6
CONTINUOUS
10
-0.130488
20
0.096890
30
0.0
11
-0.132045
21
0.092457
31
0.0
0
LINE
8
0
6
CONTINUOUS
10
-0.033730
20
0.061732
30
0.0
11
-0.028846
21
0.058460
31
0.0
0
LINE
8
0
6
CONTINUOUS
10
0.009942
20
-0.013016
30
0.0
11
0.032662
21
-0.039686
31
0.0
0
LINE
8
0
6
CONTINUOUS
10
-0.118537
20
0.084456
30
0.0
11
-0.111497
21
0.081211
31
0.0
0
LINE
8
0
6
CONTINUOUS
10
-0.036382
20
0.062886
30
0.0
11
-0.034747
21
0.061886
31
0.0
0
LINE
8
0
6
CONTINUOUS
10
-0.035426
20
0.042341
30
0.0
11
-0.028685
21
0.036173
31
0.0
0
LINE
8
0
6
CONTINUOUS
10
-0.043853
20
0.065995
30
0.0
11
-0.039473
21
0.063569
31
0.0
0
LINE
8
0
6
CONTINUOUS
10
-0.004052
20
0.010983
30
0.0
11
-0.018657
21
0.027452
31
0.0
0
LINE
8
0
6
CONTINUOUS
10
-0.019872
20
0.026142
30
0.0
11
-0.006219
21
0.009222
31
0.0
0
LINE
8
0
6
CONTINUOUS
10
-0.048566
20
0.077062
30
0.0
11
-0.065134
21
0.086229
31
0.0
0
LINE
8
0
6
CONTINUOUS
10
-0.112347
20
0.100831
30
0.0
11
-0.119771
21
0.104238
31
0.0
0
LINE
8
0
6
CONTINUOUS
10
-0.029804
20
0.058330
30
0.0
11
-0.034747
21
0.061886
31
0.0
0
LINE
8
0
6
CONTINUOUS
10
-0.024291
20
0.059585
30
0.0
11
-0.026899
21
0.061824
31
0.0
0
LINE
8
0
6
CONTINUOUS
10
-0.021035
20
0.056390
30
0.0
11
-0.024291
21
0.059585
31
0.0
0
LINE
8
0
6
CONTINUOUS
10
-0.028685
20
0.036173
30
0.0
11
-0.021801
21
0.027932
31
0.0
0
LINE
8
0
6
CONTINUOUS
10
-0.039652
20
0.064887
30
0.0
11
-0.044136
21
0.067276
31
0.0
0
LINE
8
0
6
CONTINUOUS
10
-0.105207
20
0.095981
30
0.0
11
-0.096824
21
0.092017
31
0.0
0
LINE
8
0
6
CONTINUOUS
10
-0.031644
20
0.065744
30
0.0
11
-0.037077
21
0.069819
31
0.0
0
LINE
8
0
6
CONTINUOUS
10
-0.046702
20
0.050326
30
0.0
11
-0.047990
21
0.051088
31
0.0
0
LINE
8
0
6
CONTINUOUS
10
-0.048254
20
0.051006
30
0.0
11
-0.046963
21
0.050228
31
0.0
0
LINE
8
0
6
CONTINUOUS
10
-0.046702
20
0.050326
30
0.0
11
-0.045414
21
0.049564
31
0.0
0
LINE
8
0
6
CONTINUOUS
10
0.006855
20
0.019371
30
0.0
11
0.024059
21
-0.001461
31
0.0
0
LINE
8
0
6
CONTINUOUS
10
-0.029804
20
0.058330
30
0.0
11
-0.023215
21
0.053595
31
0.0
0
LINE
8
0
6
CONTINUOUS
10
0.056036
20
-0.040271
30
0.0
11
0.046133
21
-0.028256
31
0.0
0
LINE
8
0
6
CONTINUOUS
10
-0.026899
20
0.061824
30
0.0
11
-0.031644
21
0.065744
31
0.0
0
LINE
8
0
6
CONTINUOUS
10
0.048228
20
-0.047387
30
0.0
11
0.047682
21
-0.047842
31
0.0
0
LINE
8
0
6
CONTINUOUS
10
-0.071615
20
0.081271
30
0.0
11
-0.059469
21
0.075113
31
0.0
0
LINE
8
0
6
CONTINUOUS
10
0.011878
20
-0.011412
30
0.0
11
-0.006219
21
0.009222
31
0.0
0
LINE
8
0
6
CONTINUOUS
10
0.009599
20
0.022319
30
0.0
11
-0.004775
21
0.038642
31
0.0
0
LINE
8
0
6
CONTINUOUS
10
-0.045414
20
0.049564
30
0.0
11
-0.044126
21
0.048802
31
0.0
0
LINE
8
0
6
CONTINUOUS
10
-0.084237
20
0.087550
30
0.0
11
-0.096147
21
0.093237
31
0.0
0
LINE
8
0
6
CONTINUOUS
10
-0.016393
20
0.047143
30
0.0
11
-0.023215
21
0.053595
31
0.0
0
LINE
8
0
6
CONTINUOUS
10
-0.126228
20
0.088226
30
0.0
11
-0.118537
21
0.084456
31
0.0
0
LINE
8
0
6
CONTINUOUS
10
0.048228
20
-0.047387
30
0.0
11
0.048774
21
-0.046931
31
0.0
0
LINE
8
0
6
CONTINUOUS
10
0.048473
20
-0.046773
30
0.0
11
0.047913
21
-0.047241
31
0.0
0
LINE
8
0
6
CONTINUOUS
10
-0.125203
20
0.105311
30
0.0
11
-0.120528
21
0.103226
31
0.0
0
LINE
8
0
6
CONTINUOUS
10
-0.103458
20
0.077480
30
0.0
11
-0.091533
21
0.071751
31
0.0
0
LINE
8
0
6
CONTINUOUS
10
0.132378
20
-0.101299
30
0.0
11
0.132378
21
-0.100352
31
0.0
0
LINE
8
0
6
CONTINUOUS
10
0.132378
20
-0.100352
30
0.0
11
0.131185
21
-0.100352
31
0.0
0
LINE
8
0
6
CONTINUOUS
10
0.131185
20
-0.100352
30
0.0
11
0.127689
21
-0.100352
31
0.0
0
LINE
8
0
6
CONTINUOUS
10
0.127689
20
-0.100352
30
0.0
11
0.122127
21
-0.100352
31
0.0
0
LINE
8
0
6
CONTINUOUS
10
0.122127
20
-0.100352
30
0.0
11
0.118408
21
-0.100352
31
0.0
0
LINE
8
0
6
CONTINUOUS
10
0.073378
20
-0.100352
30
0.0
11
0.072629
21
-0.100352
31
0.0
0
LINE
8
0
6
CONTINUOUS
10
0.072629
20
-0.100352
30
0.0
11
0.067067
21
-0.100352
31
0.0
0
LINE
8
0
6
CONTINUOUS
10
0.067067
20
-0.100352
30
0.0
11
0.063571
21
-0.100352
31
0.0
0
LINE
8
0
6
CONTINUOUS
10
0.062378
20
-0.100352
30
0.0
11
0.062378
21
-0.101299
31
0.0
0
LINE
8
0
6
CONTINUOUS
10
0.063571
20
-0.100352
30
0.0
11
0.062378
21
-0.100352
31
0.0
0
LINE
8
0
6
CONTINUOUS
10
0.073378
20
-0.098229
30
0.0
11
0.073378
21
-0.100352
31
0.0
0
LINE
8
0
6
CONTINUOUS
10
0.082878
20
-0.018865
30
0.0
11
0.082878
21
-0.043951
31
0.0
0
LINE
8
0
6
CONTINUOUS
10
0.082737
20
-0.012643
30
0.0
11
0.082914
21
-0.015741
31
0.0
0
LINE
8
0
6
CONTINUOUS
10
0.111494
20
-0.011405
30
0.0
11
0.110434
21
-0.004051
31
0.0
0
LINE
8
0
6
CONTINUOUS
10
0.080758
20
-0.006743
30
0.0
11
0.082003
21
-0.009607
31
0.0
0
LINE
8
0
6
CONTINUOUS
10
0.108144
20
0.003059
30
0.0
11
0.104667
21
0.009670
31
0.0
0
LINE
8
0
6
CONTINUOUS
10
0.077120
20
-0.001693
30
0.0
11
0.079121
21
-0.004075
31
0.0
0
LINE
8
0
6
CONTINUOUS
10
0.100291
20
0.015744
30
0.0
11
0.095093
21
0.021066
31
0.0
0
LINE
8
0
6
CONTINUOUS
10
0.072150
20
0.002051
30
0.0
11
0.074771
21
0.000373
31
0.0
0
LINE
8
0
6
CONTINUOUS
10
0.089123
20
0.025579
30
0.0
11
0.082573
21
0.029114
31
0.0
0
LINE
8
0
6
CONTINUOUS
10
0.066293
20
0.004156
30
0.0
11
0.069293
21
0.003323
31
0.0
0
LINE
8
0
6
CONTINUOUS
10
0.075532
20
0.031573
30
0.0
11
0.068230
21
0.033091
31
0.0
0
LINE
8
0
6
CONTINUOUS
10
0.058990
20
0.004549
30
0.0
11
0.066293
21
0.004156
31
0.0
0
LINE
8
0
6
CONTINUOUS
10
0.068230
20
0.033091
30
0.0
11
0.059586
21
0.033484
31
0.0
0
LINE
8
0
6
CONTINUOUS
10
-0.119587
20
0.009676
30
0.0
11
-0.113713
21
0.009508
31
0.0
0
LINE
8
0
6
CONTINUOUS
10
-0.086653
20
0.008731
30
0.0
11
-0.006656
21
0.006434
31
0.0
0
LINE
8
0
6
CONTINUOUS
10
0.024370
20
0.005543
30
0.0
11
0.058990
21
0.004549
31
0.0
0
LINE
8
0
6
CONTINUOUS
10
0.059586
20
0.033484
30
0.0
11
-0.001794
21
0.035257
31
0.0
0
LINE
8
0
6
CONTINUOUS
10
-0.028566
20
0.036031
30
0.0
11
-0.028683
21
0.036034
31
0.0
0
LINE
8
0
6
CONTINUOUS
10
-0.032343
20
0.036140
30
0.0
11
-0.117908
21
0.038611
31
0.0
0
LINE
8
0
6
CONTINUOUS
10
-0.119153
20
0.035038
30
0.0
11
-0.119042
21
0.036944
31
0.0
0
LINE
8
0
6
CONTINUOUS
10
-0.120622
20
0.009713
30
0.0
11
-0.119587
21
0.009676
31
0.0
0
LINE
8
0
6
CONTINUOUS
10
-0.120581
20
0.010421
30
0.0
11
-0.120622
21
0.009713
31
0.0
0
LINE
8
0
6
CONTINUOUS
10
-0.120462
20
0.012476
30
0.0
11
-0.120581
21
0.010421
31
0.0
0
LINE
8
0
6
CONTINUOUS
10
-0.120276
20
0.015677
30
0.0
11
-0.120462
21
0.012476
31
0.0
0
LINE
8
0
6
CONTINUOUS
10
-0.120042
20
0.019710
30
0.0
11
-0.120276
21
0.015677
31
0.0
0
LINE
8
0
6
CONTINUOUS
10
-0.119783
20
0.024180
30
0.0
11
-0.120042
21
0.019710
31
0.0
0
LINE
8
0
6
CONTINUOUS
10
-0.119523
20
0.028651
30
0.0
11
-0.119783
21
0.024180
31
0.0
0
LINE
8
0
6
CONTINUOUS
10
-0.119289
20
0.032684
30
0.0
11
-0.119523
21
0.028651
31
0.0
0
LINE
8
0
6
CONTINUOUS
10
-0.119103
20
0.035885
30
0.0
11
-0.119289
21
0.032684
31
0.0
0
LINE
8
0
6
CONTINUOUS
10
-0.118984
20
0.037940
30
0.0
11
-0.119103
21
0.035885
31
0.0
0
LINE
8
0
6
CONTINUOUS
10
-0.117908
20
0.038611
30
0.0
11
-0.118943
21
0.038648
31
0.0
0
LINE
8
0
6
CONTINUOUS
10
-0.118943
20
0.038648
30
0.0
11
-0.118984
21
0.037940
31
0.0
0
LINE
8
0
6
CONTINUOUS
10
0.111878
20
-0.043951
30
0.0
11
0.111878
21
-0.018865
31
0.0
0
LINE
8
0
6
CONTINUOUS
10
-0.089499
20
-0.006241
30
0.0
11
-0.089341
21
-0.005299
31
0.0
0
LINE
8
0
6
CONTINUOUS
10
-0.090142
20
-0.006118
30
0.0
11
-0.089499
21
-0.006241
31
0.0
0
LINE
8
0
6
CONTINUOUS
10
-0.092006
20
-0.005761
30
0.0
11
-0.090142
21
-0.006118
31
0.0
0
LINE
8
0
6
CONTINUOUS
10
-0.094909
20
-0.005204
30
0.0
11
-0.092006
21
-0.005761
31
0.0
0
LINE
8
0
6
CONTINUOUS
10
-0.098567
20
-0.004503
30
0.0
11
-0.094909
21
-0.005204
31
0.0
0
LINE
8
0
6
CONTINUOUS
10
-0.102622
20
-0.003727
30
0.0
11
-0.098567
21
-0.004503
31
0.0
0
LINE
8
0
6
CONTINUOUS
10
-0.106677
20
-0.002950
30
0.0
11
-0.102622
21
-0.003727
31
0.0
0
LINE
8
0
6
CONTINUOUS
10
-0.110335
20
-0.002249
30
0.0
11
-0.106677
21
-0.002950
31
0.0
0
LINE
8
0
6
CONTINUOUS
10
-0.113239
20
-0.001692
30
0.0
11
-0.110335
21
-0.002249
31
0.0
0
LINE
8
0
6
CONTINUOUS
10
-0.115102
20
-0.001335
30
0.0
11
-0.113239
21
-0.001692
31
0.0
0
LINE
8
0
6
CONTINUOUS
10
-0.115586
20
-0.000271
30
0.0
11
-0.115745
21
-0.001212
31
0.0
0
LINE
8
0
6
CONTINUOUS
10
-0.115745
20
-0.001212
30
0.0
11
-0.115102
21
-0.001335
31
0.0
0
LINE
8
0
6
CONTINUOUS
10
-0.089341
20
-0.005299
30
0.0
11
-0.086653
21
0.008731
31
0.0
0
LINE
8
0
6
CONTINUOUS
10
-0.094615
20
0.016239
30
0.0
11
-0.098670
21
0.017016
31
0.0
0
LINE
8
0
6
CONTINUOUS
10
-0.113713
20
0.009508
30
0.0
11
-0.115586
21
-0.000271
31
0.0
0
LINE
8
0
6
CONTINUOUS
10
-0.098670
20
0.017016
30
0.0
11
-0.102725
21
0.017793
31
0.0
0
LINE
8
0
6
CONTINUOUS
10
0.121378
20
-0.100352
30
0.0
11
0.121378
21
-0.045856
31
0.0
0
LINE
8
0
6
CONTINUOUS
10
0.082878
20
-0.043951
30
0.0
11
0.082878
21
-0.044856
31
0.0
0
LINE
8
0
6
CONTINUOUS
10
0.083588
20
-0.044856
30
0.0
11
0.082878
21
-0.044856
31
0.0
0
LINE
8
0
6
CONTINUOUS
10
0.085647
20
-0.044856
30
0.0
11
0.083588
21
-0.044856
31
0.0
0
LINE
8
0
6
CONTINUOUS
10
0.088855
20
-0.044856
30
0.0
11
0.085647
21
-0.044856
31
0.0
0
LINE
8
0
6
CONTINUOUS
10
0.092897
20
-0.044856
30
0.0
11
0.088855
21
-0.044856
31
0.0
0
LINE
8
0
6
CONTINUOUS
10
0.097378
20
-0.044856
30
0.0
11
0.092897
21
-0.044856
31
0.0
0
LINE
8
0
6
CONTINUOUS
10
0.101859
20
-0.044856
30
0.0
11
0.097378
21
-0.044856
31
0.0
0
LINE
8
0
6
CONTINUOUS
10
0.105901
20
-0.044856
30
0.0
11
0.101859
21
-0.044856
31
0.0
0
LINE
8
0
6
CONTINUOUS
10
0.109109
20
-0.044856
30
0.0
11
0.105901
21
-0.044856
31
0.0
0
LINE
8
0
6
CONTINUOUS
10
0.111168
20
-0.044856
30
0.0
11
0.109109
21
-0.044856
31
0.0
0
LINE
8
0
6
CONTINUOUS
10
0.111878
20
-0.044856
30
0.0
11
0.111878
21
-0.043951
31
0.0
0
LINE
8
0
6
CONTINUOUS
10
0.111878
20
-0.044856
30
0.0
11
0.111168
21
-0.044856
31
0.0
0
LINE
8
0
6
CONTINUOUS
10
0.074196
20
-0.044856
30
0.0
11
0.073378
21
-0.044856
31
0.0
0
LINE
8
0
6
CONTINUOUS
10
0.076593
20
-0.044856
30
0.0
11
0.074196
21
-0.044856
31
0.0
0
LINE
8
0
6
CONTINUOUS
10
0.080407
20
-0.044856
30
0.0
11
0.076593
21
-0.044856
31
0.0
0
LINE
8
0
6
CONTINUOUS
10
0.085378
20
-0.044856
30
0.0
11
0.080407
21
-0.044856
31
0.0
0
LINE
8
0
6
CONTINUOUS
10
0.091166
20
-0.044856
30
0.0
11
0.085378
21
-0.044856
31
0.0
0
LINE
8
0
6
CONTINUOUS
10
0.097378
20
-0.044856
30
0.0
11
0.091166
21
-0.044856
31
0.0
0
LINE
8
0
6
CONTINUOUS
10
0.103590
20
-0.044856
30
0.0
11
0.097378
21
-0.044856
31
0.0
0
LINE
8
0
6
CONTINUOUS
10
0.109378
20
-0.044856
30
0.0
11
0.103590
21
-0.044856
31
0.0
0
LINE
8
0
6
CONTINUOUS
10
0.114348
20
-0.044856
30
0.0
11
0.109378
21
-0.044856
31
0.0
0
LINE
8
0
6
CONTINUOUS
10
0.118163
20
-0.044856
30
0.0
11
0.114348
21
-0.044856
31
0.0
0
LINE
8
0
6
CONTINUOUS
10
0.120560
20
-0.044856
30
0.0
11
0.118163
21
-0.044856
31
0.0
0
LINE
8
0
6
CONTINUOUS
10
0.121378
20
-0.044856
30
0.0
11
0.120560
21
-0.044856
31
0.0
0
LINE
8
0
6
CONTINUOUS
10
0.121378
20
-0.045856
30
0.0
11
0.121378
21
-0.044856
31
0.0
0
LINE
8
0
6
CONTINUOUS
10
-0.119153
20
0.035038
30
0.0
11
-0.119042
21
0.036944
31
0.0
0
LINE
8
0
6
CONTINUOUS
10
0.110434
20
-0.004051
30
0.0
11
0.108144
21
0.003059
31
0.0
0
LINE
8
0
6
CONTINUOUS
10
0.082003
20
-0.009607
30
0.0
11
0.082737
21
-0.012643
31
0.0
0
LINE
8
0
6
CONTINUOUS
10
0.104667
20
0.009670
30
0.0
11
0.100291
21
0.015744
31
0.0
0
LINE
8
0
6
CONTINUOUS
10
0.079121
20
-0.004075
30
0.0
11
0.080758
21
-0.006743
31
0.0
0
LINE
8
0
6
CONTINUOUS
10
0.111878
20
-0.018865
30
0.0
11
0.111494
21
-0.011405
31
0.0
0
LINE
8
0
6
CONTINUOUS
10
0.082914
20
-0.015741
30
0.0
11
0.082878
21
-0.018865
31
0.0
0
LINE
8
0
6
CONTINUOUS
10
0.095093
20
0.021066
30
0.0
11
0.089123
21
0.025579
31
0.0
0
LINE
8
0
6
CONTINUOUS
10
0.074771
20
0.000373
30
0.0
11
0.077120
21
-0.001693
31
0.0
0
LINE
8
0
6
CONTINUOUS
10
0.082573
20
0.029114
30
0.0
11
0.075532
21
0.031573
31
0.0
0
LINE
8
0
6
CONTINUOUS
10
0.069293
20
0.003323
30
0.0
11
0.072150
21
0.002051
31
0.0
0
LINE
8
0
6
CONTINUOUS
10
0.119878
20
-0.085351
30
0.0
11
0.119878
21
-0.069646
31
0.0
0
LINE
8
0
6
CONTINUOUS
10
0.043586
20
-0.051384
30
0.0
11
0.043475
21
-0.051355
31
0.0
0
LINE
8
0
6
CONTINUOUS
10
0.042376
20
-0.051067
30
0.0
11
0.029982
21
-0.047823
31
0.0
0
LINE
8
0
6
CONTINUOUS
10
0.029869
20
-0.048271
30
0.0
11
0.043151
21
-0.051747
31
0.0
0
LINE
8
0
6
CONTINUOUS
10
0.119878
20
-0.056530
30
0.0
11
0.119878
21
-0.053182
31
0.0
0
LINE
8
0
6
CONTINUOUS
10
0.119878
20
-0.059877
30
0.0
11
0.119878
21
-0.056530
31
0.0
0
LINE
8
0
6
CONTINUOUS
10
0.080823
20
-0.048444
30
0.0
11
0.076365
21
-0.047701
31
0.0
0
LINE
8
0
6
CONTINUOUS
10
0.119878
20
-0.063225
30
0.0
11
0.119878
21
-0.059877
31
0.0
0
LINE
8
0
6
CONTINUOUS
10
0.119878
20
-0.069646
30
0.0
11
0.119878
21
-0.066572
31
0.0
0
LINE
8
0
6
CONTINUOUS
10
0.077333
20
-0.049834
30
0.0
11
0.086241
21
-0.049834
31
0.0
0
LINE
8
0
6
CONTINUOUS
10
0.119878
20
-0.066572
30
0.0
11
0.119878
21
-0.063225
31
0.0
0
LINE
8
0
6
CONTINUOUS
10
0.119878
20
-0.053182
30
0.0
11
0.119878
21
-0.050857
31
0.0
0
LINE
8
0
6
CONTINUOUS
10
0.076365
20
-0.047701
30
0.0
11
0.075492
21
-0.047523
31
0.0
0
LINE
8
0
6
CONTINUOUS
10
0.118408
20
-0.100662
30
0.0
11
0.118408
21
-0.085863
31
0.0
0
LINE
8
0
6
CONTINUOUS
10
0.095392
20
-0.049834
30
0.0
11
0.084073
21
-0.049773
31
0.0
0
LINE
8
0
6
CONTINUOUS
10
0.086241
20
-0.049834
30
0.0
11
0.095392
21
-0.049834
31
0.0
0
LINE
8
0
6
CONTINUOUS
10
0.085947
20
-0.049196
30
0.0
11
0.080823
21
-0.048444
31
0.0
0
LINE
8
0
6
CONTINUOUS
10
0.031439
20
-0.039986
30
0.0
11
0.031698
21
-0.038964
31
0.0
0
LINE
8
0
6
CONTINUOUS
10
0.030869
20
-0.042240
30
0.0
11
0.031439
21
-0.039986
31
0.0
0
LINE
8
0
6
CONTINUOUS
10
0.030869
20
-0.042240
30
0.0
11
0.030298
21
-0.044493
31
0.0
0
LINE
8
0
6
CONTINUOUS
10
0.030298
20
-0.044493
30
0.0
11
0.029815
21
-0.046403
31
0.0
0
LINE
8
0
6
CONTINUOUS
10
0.029491
20
-0.047679
30
0.0
11
0.029815
21
-0.046403
31
0.0
0
LINE
8
0
6
CONTINUOUS
10
0.029378
20
-0.048127
30
0.0
11
0.029869
21
-0.048271
31
0.0
0
LINE
8
0
6
CONTINUOUS
10
0.029982
20
-0.047823
30
0.0
11
0.029491
21
-0.047679
31
0.0
0
LINE
8
0
6
CONTINUOUS
10
0.029378
20
-0.048127
30
0.0
11
0.029491
21
-0.047679
31
0.0
0
LINE
8
0
6
CONTINUOUS
10
0.054568
20
-0.042217
30
0.0
11
0.054457
21
-0.042187
31
0.0
0
LINE
8
0
6
CONTINUOUS
10
0.054032
20
-0.042542
30
0.0
11
0.054143
21
-0.042571
31
0.0
0
LINE
8
0
6
CONTINUOUS
10
0.103138
20
-0.049834
30
0.0
11
0.097378
21
-0.049834
31
0.0
0
LINE
8
0
6
CONTINUOUS
10
0.097378
20
-0.049834
30
0.0
11
0.091618
21
-0.049834
31
0.0
0
LINE
8
0
6
CONTINUOUS
10
0.116908
20
-0.049834
30
0.0
11
0.113308
21
-0.049834
31
0.0
0
LINE
8
0
6
CONTINUOUS
10
0.119068
20
-0.049834
30
0.0
11
0.116908
21
-0.049834
31
0.0
0
LINE
8
0
6
CONTINUOUS
10
0.119878
20
-0.049834
30
0.0
11
0.119068
21
-0.049834
31
0.0
0
LINE
8
0
6
CONTINUOUS
10
0.119878
20
-0.050857
30
0.0
11
0.119878
21
-0.049834
31
0.0
0
LINE
8
0
6
CONTINUOUS
10
0.113308
20
-0.049834
30
0.0
11
0.108538
21
-0.049834
31
0.0
0
LINE
8
0
6
CONTINUOUS
10
0.086218
20
-0.049834
30
0.0
11
0.081448
21
-0.049834
31
0.0
0
LINE
8
0
6
CONTINUOUS
10
0.091618
20
-0.049834
30
0.0
11
0.086218
21
-0.049834
31
0.0
0
LINE
8
0
6
CONTINUOUS
10
0.081448
20
-0.049834
30
0.0
11
0.077848
21
-0.049834
31
0.0
0
LINE
8
0
6
CONTINUOUS
10
0.108538
20
-0.049834
30
0.0
11
0.103138
21
-0.049834
31
0.0
0
LINE
8
0
6
CONTINUOUS
10
0.077848
20
-0.049834
30
0.0
11
0.077333
21
-0.049834
31
0.0
0
LINE
8
0
6
CONTINUOUS
10
0.031778
20
-0.038648
30
0.0
11
0.031698
21
-0.038964
31
0.0
0
LINE
8
0
6
CONTINUOUS
10
0.052790
20
-0.043579
30
0.0
11
0.052901
21
-0.043608
31
0.0
0
LINE
8
0
6
CONTINUOUS
10
0.092019
20
-0.049834
30
0.0
11
0.085947
21
-0.049196
31
0.0
0
LINE
8
0
6
CONTINUOUS
10
0.108505
20
-0.085863
30
0.0
11
0.113286
21
-0.085863
31
0.0
0
LINE
8
0
6
CONTINUOUS
10
0.113286
20
-0.085863
30
0.0
11
0.116841
21
-0.085863
31
0.0
0
LINE
8
0
6
CONTINUOUS
10
0.119878
20
-0.085863
30
0.0
11
0.119878
21
-0.085351
31
0.0
0
LINE
8
0
6
CONTINUOUS
10
0.119048
20
-0.085863
30
0.0
11
0.119878
21
-0.085863
31
0.0
0
LINE
8
0
6
CONTINUOUS
10
0.116841
20
-0.085863
30
0.0
11
0.119048
21
-0.085863
31
0.0
0
LINE
8
0
6
CONTINUOUS
10
0.106035
20
-0.085863
30
0.0
11
0.108505
21
-0.085863
31
0.0
0
LINE
8
0
6
CONTINUOUS
10
-0.104480
20
0.070015
30
0.0
11
-0.103301
21
0.069259
31
0.0
0
LINE
8
0
6
CONTINUOUS
10
-0.081578
20
0.062249
30
0.0
11
-0.081971
21
0.062725
31
0.0
0
LINE
8
0
6
CONTINUOUS
10
-0.076762
20
0.055909
30
0.0
11
-0.076752
21
0.055975
31
0.0
0
LINE
8
0
6
CONTINUOUS
10
-0.072294
20
0.057434
30
0.0
11
-0.071645
21
0.057502
31
0.0
0
LINE
8
0
6
CONTINUOUS
10
-0.062234
20
0.052094
30
0.0
11
-0.061724
21
0.052164
31
0.0
0
LINE
8
0
6
CONTINUOUS
10
-0.066929
20
0.057515
30
0.0
11
-0.066226
21
0.057700
31
0.0
0
LINE
8
0
6
CONTINUOUS
10
-0.115320
20
0.077526
30
0.0
11
-0.115158
21
0.077445
31
0.0
0
LINE
8
0
6
CONTINUOUS
10
-0.110097
20
0.074052
30
0.0
11
-0.110018
21
0.074056
31
0.0
0
LINE
8
0
6
CONTINUOUS
10
-0.113858
20
0.076680
30
0.0
11
-0.113071
21
0.076188
31
0.0
0
LINE
8
0
6
CONTINUOUS
10
-0.115158
20
0.077445
30
0.0
11
-0.113858
21
0.076680
31
0.0
0
LINE
8
0
6
CONTINUOUS
10
-0.110060
20
0.075834
30
0.0
11
-0.109684
21
0.075904
31
0.0
0
LINE
8
0
6
CONTINUOUS
10
-0.107445
20
0.074186
30
0.0
11
-0.108312
21
0.075092
31
0.0
0
LINE
8
0
6
CONTINUOUS
10
-0.054822
20
0.048587
30
0.0
11
-0.054575
21
0.048516
31
0.0
0
LINE
8
0
6
CONTINUOUS
10
-0.076895
20
0.056077
30
0.0
11
-0.076994
21
0.056143
31
0.0
0
LINE
8
0
6
CONTINUOUS
10
-0.076752
20
0.055975
30
0.0
11
-0.076895
21
0.056077
31
0.0
0
LINE
8
0
6
CONTINUOUS
10
-0.105129
20
0.075384
30
0.0
11
-0.105729
21
0.076225
31
0.0
0
LINE
8
0
6
CONTINUOUS
10
-0.102369
20
0.071016
30
0.0
11
-0.101797
21
0.070831
31
0.0
0
LINE
8
0
6
CONTINUOUS
10
-0.118238
20
0.082210
30
0.0
11
-0.117966
21
0.082002
31
0.0
0
LINE
8
0
6
CONTINUOUS
10
-0.117966
20
0.082002
30
0.0
11
-0.116922
21
0.081278
31
0.0
0
LINE
8
0
6
CONTINUOUS
10
-0.107340
20
0.077072
30
0.0
11
-0.107152
21
0.077061
31
0.0
0
LINE
8
0
6
CONTINUOUS
10
-0.107965
20
0.077076
30
0.0
11
-0.107340
21
0.077072
31
0.0
0
LINE
8
0
6
CONTINUOUS
10
-0.095503
20
0.068888
30
0.0
11
-0.096210
21
0.069502
31
0.0
0
LINE
8
0
6
CONTINUOUS
10
-0.110163
20
0.075862
30
0.0
11
-0.110060
21
0.075834
31
0.0
0
LINE
8
0
6
CONTINUOUS
10
-0.049750
20
0.048028
30
0.0
11
-0.049688
21
0.048020
31
0.0
0
LINE
8
0
6
CONTINUOUS
10
-0.098444
20
0.070356
30
0.0
11
-0.097680
21
0.070236
31
0.0
0
LINE
8
0
6
CONTINUOUS
10
-0.102226
20
0.069101
30
0.0
11
-0.101843
21
0.068938
31
0.0
0
LINE
8
0
6
CONTINUOUS
10
-0.099470
20
0.067504
30
0.0
11
-0.100465
21
0.068140
31
0.0
0
LINE
8
0
6
CONTINUOUS
10
-0.124284
20
0.084928
30
0.0
11
-0.123109
21
0.083800
31
0.0
0
LINE
8
0
6
CONTINUOUS
10
-0.046793
20
0.047198
30
0.0
11
-0.047096
21
0.047368
31
0.0
0
LINE
8
0
6
CONTINUOUS
10
-0.046614
20
0.047083
30
0.0
11
-0.046793
21
0.047198
31
0.0
0
LINE
8
0
6
CONTINUOUS
10
-0.082353
20
0.058801
30
0.0
11
-0.082064
21
0.058657
31
0.0
0
LINE
8
0
6
CONTINUOUS
10
-0.107984
20
0.072648
30
0.0
11
-0.107931
21
0.072610
31
0.0
0
LINE
8
0
6
CONTINUOUS
10
-0.107931
20
0.072610
30
0.0
11
-0.107636
21
0.072427
31
0.0
0
LINE
8
0
6
CONTINUOUS
10
-0.092392
20
0.064053
30
0.0
11
-0.091639
21
0.063911
31
0.0
0
LINE
8
0
6
CONTINUOUS
10
-0.117858
20
0.079531
30
0.0
11
-0.117722
21
0.079670
31
0.0
0
LINE
8
0
6
CONTINUOUS
10
-0.116470
20
0.078905
30
0.0
11
-0.115369
21
0.077983
31
0.0
0
LINE
8
0
6
CONTINUOUS
10
-0.113071
20
0.076188
30
0.0
11
-0.112198
21
0.075913
31
0.0
0
LINE
8
0
6
CONTINUOUS
10
-0.112198
20
0.075913
30
0.0
11
-0.110489
21
0.075172
31
0.0
0
LINE
8
0
6
CONTINUOUS
10
-0.056141
20
0.048994
30
0.0
11
-0.054822
21
0.048587
31
0.0
0
LINE
8
0
6
CONTINUOUS
10
-0.074408
20
0.055331
30
0.0
11
-0.073384
21
0.055012
31
0.0
0
LINE
8
0
6
CONTINUOUS
10
-0.116075
20
0.080329
30
0.0
11
-0.116922
21
0.081278
31
0.0
0
LINE
8
0
6
CONTINUOUS
10
-0.071366
20
0.054186
30
0.0
11
-0.071861
21
0.054442
31
0.0
0
LINE
8
0
6
CONTINUOUS
10
-0.055715
20
0.051969
30
0.0
11
-0.054080
21
0.051641
31
0.0
0
LINE
8
0
6
CONTINUOUS
10
-0.083727
20
0.059469
30
0.0
11
-0.082353
21
0.058801
31
0.0
0
ENDSEC
0
EOF
