999
Erzeugt mit innoplus bad 
0
SECTION
2
HEADER
9
$ACADVER
1
AC1009
9
$DWGCODEPAGE
3
ISO8859-1
0
ENDSEC
0
SECTION
2
TABLES
0
TABLE
2
LAYER
70
1
0
LAYER
2
0
70
0
62
7
6
CONTINUOUS
0
ENDTAB
0
ENDSEC
0
SECTION
2
ENTITIES
0
LINE
8
0
6
CONTINUOUS
10
0.089030
20
0.027932
30
0.0
11
0.092137
21
0.026444
31
0.0
0
LINE
8
0
6
CONTINUOUS
10
0.086928
20
0.036173
30
0.0
11
0.089030
21
0.027932
31
0.0
0
LINE
8
0
6
CONTINUOUS
10
0.067278
20
0.051006
30
0.0
11
0.072352
21
0.048671
31
0.0
0
LINE
8
0
6
CONTINUOUS
10
0.052098
20
0.060307
30
0.0
11
0.058572
21
0.055268
31
0.0
0
LINE
8
0
6
CONTINUOUS
10
0.087356
20
0.089884
30
0.0
11
0.074627
21
0.087786
31
0.0
0
LINE
8
0
6
CONTINUOUS
10
0.058572
20
0.055268
30
0.0
11
0.062690
21
0.053099
31
0.0
0
LINE
8
0
6
CONTINUOUS
10
0.100563
20
0.090568
30
0.0
11
0.087356
21
0.089884
31
0.0
0
LINE
8
0
6
CONTINUOUS
10
0.080455
20
0.044629
30
0.0
11
0.083436
21
0.042341
31
0.0
0
LINE
8
0
6
CONTINUOUS
10
0.077531
20
0.046093
30
0.0
11
0.080455
21
0.044629
31
0.0
0
LINE
8
0
6
CONTINUOUS
10
0.092137
20
0.026444
30
0.0
11
0.096357
21
0.025433
31
0.0
0
LINE
8
0
6
CONTINUOUS
10
0.048872
20
0.065948
30
0.0
11
0.052098
21
0.060307
31
0.0
0
LINE
8
0
6
CONTINUOUS
10
0.074627
20
0.087786
30
0.0
11
0.063442
21
0.084097
31
0.0
0
LINE
8
0
6
CONTINUOUS
10
0.083436
20
0.042341
30
0.0
11
0.086928
21
0.036173
31
0.0
0
LINE
8
0
6
CONTINUOUS
10
0.096357
20
0.025433
30
0.0
11
0.100563
21
0.025190
31
0.0
0
LINE
8
0
6
CONTINUOUS
10
0.052670
20
0.077506
30
0.0
11
0.049136
21
0.071691
31
0.0
0
LINE
8
0
6
CONTINUOUS
10
0.049136
20
0.071691
30
0.0
11
0.048872
21
0.065948
31
0.0
0
LINE
8
0
6
CONTINUOUS
10
0.062690
20
0.053099
30
0.0
11
0.067278
21
0.051006
31
0.0
0
LINE
8
0
6
CONTINUOUS
10
0.072352
20
0.048671
30
0.0
11
0.077531
21
0.046093
31
0.0
0
LINE
8
0
6
CONTINUOUS
10
0.057296
20
0.081027
30
0.0
11
0.052670
21
0.077506
31
0.0
0
LINE
8
0
6
CONTINUOUS
10
0.063442
20
0.084097
30
0.0
11
0.057296
21
0.081027
31
0.0
0
LINE
8
0
6
CONTINUOUS
10
0.112096
20
0.027932
30
0.0
11
0.114198
21
0.036173
31
0.0
0
LINE
8
0
6
CONTINUOUS
10
0.108989
20
0.026444
30
0.0
11
0.112096
21
0.027932
31
0.0
0
LINE
8
0
6
CONTINUOUS
10
0.128774
20
0.048671
30
0.0
11
0.133847
21
0.051006
31
0.0
0
LINE
8
0
6
CONTINUOUS
10
0.142554
20
0.055268
30
0.0
11
0.149028
21
0.060307
31
0.0
0
LINE
8
0
6
CONTINUOUS
10
0.126499
20
0.087786
30
0.0
11
0.113770
21
0.089884
31
0.0
0
LINE
8
0
6
CONTINUOUS
10
0.138436
20
0.053099
30
0.0
11
0.142554
21
0.055268
31
0.0
0
LINE
8
0
6
CONTINUOUS
10
0.113770
20
0.089884
30
0.0
11
0.100563
21
0.090568
31
0.0
0
LINE
8
0
6
CONTINUOUS
10
0.117690
20
0.042341
30
0.0
11
0.120671
21
0.044629
31
0.0
0
LINE
8
0
6
CONTINUOUS
10
0.120671
20
0.044629
30
0.0
11
0.123595
21
0.046093
31
0.0
0
LINE
8
0
6
CONTINUOUS
10
0.104769
20
0.025433
30
0.0
11
0.108989
21
0.026444
31
0.0
0
LINE
8
0
6
CONTINUOUS
10
0.149028
20
0.060307
30
0.0
11
0.152254
21
0.065948
31
0.0
0
LINE
8
0
6
CONTINUOUS
10
0.137684
20
0.084097
30
0.0
11
0.126499
21
0.087786
31
0.0
0
LINE
8
0
6
CONTINUOUS
10
0.114198
20
0.036173
30
0.0
11
0.117690
21
0.042341
31
0.0
0
LINE
8
0
6
CONTINUOUS
10
0.100563
20
0.025190
30
0.0
11
0.104769
21
0.025433
31
0.0
0
LINE
8
0
6
CONTINUOUS
10
0.151989
20
0.071691
30
0.0
11
0.148456
21
0.077506
31
0.0
0
LINE
8
0
6
CONTINUOUS
10
0.152254
20
0.065948
30
0.0
11
0.151989
21
0.071691
31
0.0
0
LINE
8
0
6
CONTINUOUS
10
0.133847
20
0.051006
30
0.0
11
0.138436
21
0.053099
31
0.0
0
LINE
8
0
6
CONTINUOUS
10
0.123595
20
0.046093
30
0.0
11
0.128774
21
0.048671
31
0.0
0
LINE
8
0
6
CONTINUOUS
10
0.143830
20
0.081027
30
0.0
11
0.137684
21
0.084097
31
0.0
0
LINE
8
0
6
CONTINUOUS
10
0.148456
20
0.077506
30
0.0
11
0.143830
21
0.081027
31
0.0
0
LINE
8
0
6
CONTINUOUS
10
0.072049
20
0.056631
30
0.0
11
0.073044
21
0.055964
31
0.0
0
LINE
8
0
6
CONTINUOUS
10
0.070156
20
0.058294
30
0.0
11
0.072049
21
0.056631
31
0.0
0
LINE
8
0
6
CONTINUOUS
10
0.073044
20
0.055964
30
0.0
11
0.071218
21
0.057568
31
0.0
0
LINE
8
0
6
CONTINUOUS
10
0.068755
20
0.060071
30
0.0
11
0.070156
21
0.058294
31
0.0
0
LINE
8
0
6
CONTINUOUS
10
0.071218
20
0.057568
30
0.0
11
0.069867
21
0.059282
31
0.0
0
LINE
8
0
6
CONTINUOUS
10
0.067886
20
0.061945
30
0.0
11
0.068755
21
0.060071
31
0.0
0
LINE
8
0
6
CONTINUOUS
10
0.069867
20
0.059282
30
0.0
11
0.069029
21
0.061090
31
0.0
0
LINE
8
0
6
CONTINUOUS
10
0.067588
20
0.063898
30
0.0
11
0.067886
21
0.061945
31
0.0
0
LINE
8
0
6
CONTINUOUS
10
0.069029
20
0.061090
30
0.0
11
0.068742
21
0.062974
31
0.0
0
LINE
8
0
6
CONTINUOUS
10
0.067886
20
0.065851
30
0.0
11
0.067588
21
0.063898
31
0.0
0
LINE
8
0
6
CONTINUOUS
10
0.068742
20
0.062974
30
0.0
11
0.069029
21
0.064858
31
0.0
0
LINE
8
0
6
CONTINUOUS
10
0.068755
20
0.067725
30
0.0
11
0.067886
21
0.065851
31
0.0
0
LINE
8
0
6
CONTINUOUS
10
0.069029
20
0.064858
30
0.0
11
0.069867
21
0.066666
31
0.0
0
LINE
8
0
6
CONTINUOUS
10
0.070156
20
0.069502
30
0.0
11
0.068755
21
0.067725
31
0.0
0
LINE
8
0
6
CONTINUOUS
10
0.069867
20
0.066666
30
0.0
11
0.071218
21
0.068380
31
0.0
0
LINE
8
0
6
CONTINUOUS
10
0.072049
20
0.071165
30
0.0
11
0.070156
21
0.069502
31
0.0
0
LINE
8
0
6
CONTINUOUS
10
0.071218
20
0.068380
30
0.0
11
0.073044
21
0.069984
31
0.0
0
LINE
8
0
6
CONTINUOUS
10
0.073044
20
0.069984
30
0.0
11
0.075308
21
0.071461
31
0.0
0
LINE
8
0
6
CONTINUOUS
10
0.075308
20
0.071461
30
0.0
11
0.077971
21
0.072796
31
0.0
0
LINE
8
0
6
CONTINUOUS
10
0.077971
20
0.072796
30
0.0
11
0.080997
21
0.073970
31
0.0
0
LINE
8
0
6
CONTINUOUS
10
0.080997
20
0.073970
30
0.0
11
0.084347
21
0.074968
31
0.0
0
LINE
8
0
6
CONTINUOUS
10
0.084347
20
0.074968
30
0.0
11
0.087985
21
0.075773
31
0.0
0
LINE
8
0
6
CONTINUOUS
10
0.087985
20
0.075773
30
0.0
11
0.091873
21
0.076369
31
0.0
0
LINE
8
0
6
CONTINUOUS
10
0.091873
20
0.076369
30
0.0
11
0.095972
21
0.076738
31
0.0
0
LINE
8
0
6
CONTINUOUS
10
0.095972
20
0.076738
30
0.0
11
0.100246
21
0.076865
31
0.0
0
LINE
8
0
6
CONTINUOUS
10
0.100246
20
0.076865
30
0.0
11
0.104520
21
0.076738
31
0.0
0
LINE
8
0
6
CONTINUOUS
10
0.104520
20
0.076738
30
0.0
11
0.108619
21
0.076369
31
0.0
0
LINE
8
0
6
CONTINUOUS
10
0.108619
20
0.076369
30
0.0
11
0.112507
21
0.075773
31
0.0
0
LINE
8
0
6
CONTINUOUS
10
0.112507
20
0.075773
30
0.0
11
0.116144
21
0.074968
31
0.0
0
LINE
8
0
6
CONTINUOUS
10
0.116144
20
0.074968
30
0.0
11
0.119495
21
0.073970
31
0.0
0
LINE
8
0
6
CONTINUOUS
10
0.119495
20
0.073970
30
0.0
11
0.122521
21
0.072796
31
0.0
0
LINE
8
0
6
CONTINUOUS
10
0.122521
20
0.072796
30
0.0
11
0.125184
21
0.071461
31
0.0
0
LINE
8
0
6
CONTINUOUS
10
0.125184
20
0.071461
30
0.0
11
0.127448
21
0.069984
31
0.0
0
LINE
8
0
6
CONTINUOUS
10
0.127448
20
0.069984
30
0.0
11
0.129274
21
0.068380
31
0.0
0
LINE
8
0
6
CONTINUOUS
10
0.131736
20
0.067725
30
0.0
11
0.130336
21
0.069502
31
0.0
0
LINE
8
0
6
CONTINUOUS
10
0.129274
20
0.068380
30
0.0
11
0.130624
21
0.066666
31
0.0
0
LINE
8
0
6
CONTINUOUS
10
0.132605
20
0.065851
30
0.0
11
0.131736
21
0.067725
31
0.0
0
LINE
8
0
6
CONTINUOUS
10
0.130624
20
0.066666
30
0.0
11
0.131462
21
0.064858
31
0.0
0
LINE
8
0
6
CONTINUOUS
10
0.132903
20
0.063898
30
0.0
11
0.132605
21
0.065851
31
0.0
0
LINE
8
0
6
CONTINUOUS
10
0.131462
20
0.064858
30
0.0
11
0.131750
21
0.062974
31
0.0
0
LINE
8
0
6
CONTINUOUS
10
0.132605
20
0.061945
30
0.0
11
0.132903
21
0.063898
31
0.0
0
LINE
8
0
6
CONTINUOUS
10
0.131750
20
0.062974
30
0.0
11
0.131462
21
0.061089
31
0.0
0
LINE
8
0
6
CONTINUOUS
10
0.131736
20
0.060071
30
0.0
11
0.132605
21
0.061945
31
0.0
0
LINE
8
0
6
CONTINUOUS
10
0.131462
20
0.061089
30
0.0
11
0.130624
21
0.059282
31
0.0
0
LINE
8
0
6
CONTINUOUS
10
0.130336
20
0.058294
30
0.0
11
0.131736
21
0.060071
31
0.0
0
LINE
8
0
6
CONTINUOUS
10
0.130624
20
0.059282
30
0.0
11
0.129274
21
0.057568
31
0.0
0
LINE
8
0
6
CONTINUOUS
10
0.128443
20
0.056631
30
0.0
11
0.130336
21
0.058294
31
0.0
0
LINE
8
0
6
CONTINUOUS
10
0.127448
20
0.055964
30
0.0
11
0.128443
21
0.056631
31
0.0
0
LINE
8
0
6
CONTINUOUS
10
0.129274
20
0.057568
30
0.0
11
0.127448
21
0.055964
31
0.0
0
LINE
8
0
6
CONTINUOUS
10
0.145701
20
0.063033
30
0.0
11
0.145993
21
0.062343
31
0.0
0
LINE
8
0
6
CONTINUOUS
10
0.104934
20
0.053645
30
0.0
11
0.105225
21
0.054335
31
0.0
0
LINE
8
0
6
CONTINUOUS
10
0.104934
20
0.054504
30
0.0
11
0.104934
21
0.053645
31
0.0
0
LINE
8
0
6
CONTINUOUS
10
0.105225
20
0.054335
30
0.0
11
0.106774
21
0.054573
31
0.0
0
LINE
8
0
6
CONTINUOUS
10
0.105225
20
0.055078
30
0.0
11
0.105225
21
0.054335
31
0.0
0
LINE
8
0
6
CONTINUOUS
10
0.127570
20
0.050646
30
0.0
11
0.128828
21
0.051099
31
0.0
0
LINE
8
0
6
CONTINUOUS
10
0.127570
20
0.051290
30
0.0
11
0.127570
21
0.050646
31
0.0
0
LINE
8
0
6
CONTINUOUS
10
0.119526
20
0.051196
30
0.0
11
0.120783
21
0.051649
31
0.0
0
LINE
8
0
6
CONTINUOUS
10
0.119526
20
0.051621
30
0.0
11
0.119526
21
0.051196
31
0.0
0
LINE
8
0
6
CONTINUOUS
10
0.123176
20
0.057004
30
0.0
11
0.124724
21
0.056767
31
0.0
0
LINE
8
0
6
CONTINUOUS
10
0.124724
20
0.056767
30
0.0
11
0.125015
21
0.056076
31
0.0
0
LINE
8
0
6
CONTINUOUS
10
0.124724
20
0.057710
30
0.0
11
0.124724
21
0.056767
31
0.0
0
LINE
8
0
6
CONTINUOUS
10
0.125618
20
0.061951
30
0.0
11
0.125909
21
0.062641
31
0.0
0
LINE
8
0
6
CONTINUOUS
10
0.125618
20
0.062678
30
0.0
11
0.125618
21
0.061951
31
0.0
0
LINE
8
0
6
CONTINUOUS
10
0.113447
20
0.067245
30
0.0
11
0.113447
21
0.068140
31
0.0
0
LINE
8
0
6
CONTINUOUS
10
0.113011
20
0.067921
30
0.0
11
0.113447
21
0.067245
31
0.0
0
LINE
8
0
6
CONTINUOUS
10
0.116612
20
0.062823
30
0.0
11
0.117989
21
0.063207
31
0.0
0
LINE
8
0
6
CONTINUOUS
10
0.116612
20
0.063531
30
0.0
11
0.116612
21
0.062823
31
0.0
0
LINE
8
0
6
CONTINUOUS
10
0.117989
20
0.063207
30
0.0
11
0.119458
21
0.062891
31
0.0
0
LINE
8
0
6
CONTINUOUS
10
0.117989
20
0.064053
30
0.0
11
0.117989
21
0.063207
31
0.0
0
LINE
8
0
6
CONTINUOUS
10
0.106602
20
0.062837
30
0.0
11
0.107979
21
0.063221
31
0.0
0
LINE
8
0
6
CONTINUOUS
10
0.106602
20
0.063668
30
0.0
11
0.106602
21
0.062837
31
0.0
0
LINE
8
0
6
CONTINUOUS
10
0.142725
20
0.068885
30
0.0
11
0.143016
21
0.069575
31
0.0
0
LINE
8
0
6
CONTINUOUS
10
0.142725
20
0.069426
30
0.0
11
0.142725
21
0.068885
31
0.0
0
LINE
8
0
6
CONTINUOUS
10
0.143016
20
0.069575
30
0.0
11
0.144565
21
0.069812
31
0.0
0
LINE
8
0
6
CONTINUOUS
10
0.143016
20
0.070186
30
0.0
11
0.143016
21
0.069575
31
0.0
0
LINE
8
0
6
CONTINUOUS
10
0.145822
20
0.069360
30
0.0
11
0.145822
21
0.070594
31
0.0
0
LINE
8
0
6
CONTINUOUS
10
0.144565
20
0.069812
30
0.0
11
0.145822
21
0.069360
31
0.0
0
LINE
8
0
6
CONTINUOUS
10
0.144565
20
0.070766
30
0.0
11
0.144565
21
0.069812
31
0.0
0
LINE
8
0
6
CONTINUOUS
10
0.116983
20
0.083821
30
0.0
11
0.116983
21
0.084928
31
0.0
0
LINE
8
0
6
CONTINUOUS
10
0.115932
20
0.084360
30
0.0
11
0.116983
21
0.083821
31
0.0
0
LINE
8
0
6
CONTINUOUS
10
0.057275
20
0.069772
30
0.0
11
0.057566
21
0.069082
31
0.0
0
LINE
8
0
6
CONTINUOUS
10
0.055726
20
0.070010
30
0.0
11
0.057275
21
0.069772
31
0.0
0
LINE
8
0
6
CONTINUOUS
10
0.054469
20
0.069557
30
0.0
11
0.055726
21
0.070010
31
0.0
0
LINE
8
0
6
CONTINUOUS
10
0.054469
20
0.070778
30
0.0
11
0.054469
21
0.069557
31
0.0
0
LINE
8
0
6
CONTINUOUS
10
0.090751
20
0.062238
30
0.0
11
0.090843
21
0.062938
31
0.0
0
LINE
8
0
6
CONTINUOUS
10
0.090751
20
0.063172
30
0.0
11
0.090751
21
0.062238
31
0.0
0
LINE
8
0
6
CONTINUOUS
10
0.090843
20
0.062938
30
0.0
11
0.092312
21
0.063254
31
0.0
0
LINE
8
0
6
CONTINUOUS
10
0.090843
20
0.063865
30
0.0
11
0.090843
21
0.062938
31
0.0
0
LINE
8
0
6
CONTINUOUS
10
0.080740
20
0.062277
30
0.0
11
0.080833
21
0.062977
31
0.0
0
LINE
8
0
6
CONTINUOUS
10
0.080740
20
0.063337
30
0.0
11
0.080740
21
0.062277
31
0.0
0
LINE
8
0
6
CONTINUOUS
10
0.080833
20
0.062977
30
0.0
11
0.082302
21
0.063293
31
0.0
0
LINE
8
0
6
CONTINUOUS
10
0.080833
20
0.064003
30
0.0
11
0.080833
21
0.062977
31
0.0
0
LINE
8
0
6
CONTINUOUS
10
0.075325
20
0.068102
30
0.0
11
0.075417
21
0.068802
31
0.0
0
LINE
8
0
6
CONTINUOUS
10
0.075325
20
0.069062
30
0.0
11
0.075325
21
0.068102
31
0.0
0
LINE
8
0
6
CONTINUOUS
10
0.076886
20
0.069118
30
0.0
11
0.078263
21
0.068734
31
0.0
0
LINE
8
0
6
CONTINUOUS
10
0.075417
20
0.068802
30
0.0
11
0.076886
21
0.069118
31
0.0
0
LINE
8
0
6
CONTINUOUS
10
0.075417
20
0.069848
30
0.0
11
0.075417
21
0.068802
31
0.0
0
LINE
8
0
6
CONTINUOUS
10
0.100715
20
0.065159
30
0.0
11
0.101871
21
0.064660
31
0.0
0
LINE
8
0
6
CONTINUOUS
10
0.099122
20
0.064982
30
0.0
11
0.100715
21
0.065159
31
0.0
0
LINE
8
0
6
CONTINUOUS
10
0.086844
20
0.067285
30
0.0
11
0.087280
21
0.067962
31
0.0
0
LINE
8
0
6
CONTINUOUS
10
0.086844
20
0.068166
30
0.0
11
0.086844
21
0.067285
31
0.0
0
LINE
8
0
6
CONTINUOUS
10
0.086367
20
0.078587
30
0.0
11
0.087250
21
0.077995
31
0.0
0
LINE
8
0
6
CONTINUOUS
10
0.099253
20
0.074577
30
0.0
11
0.100875
21
0.074459
31
0.0
0
LINE
8
0
6
CONTINUOUS
10
0.065575
20
0.062653
30
0.0
11
0.065866
21
0.061962
31
0.0
0
LINE
8
0
6
CONTINUOUS
10
0.064026
20
0.062890
30
0.0
11
0.065575
21
0.062653
31
0.0
0
LINE
8
0
6
CONTINUOUS
10
0.062769
20
0.062438
30
0.0
11
0.064026
21
0.062890
31
0.0
0
LINE
8
0
6
CONTINUOUS
10
0.062769
20
0.063549
30
0.0
11
0.062769
21
0.062438
31
0.0
0
LINE
8
0
6
CONTINUOUS
10
0.086201
20
0.047216
30
0.0
11
0.086492
21
0.046525
31
0.0
0
LINE
8
0
6
CONTINUOUS
10
0.084653
20
0.047453
30
0.0
11
0.086201
21
0.047216
31
0.0
0
LINE
8
0
6
CONTINUOUS
10
0.101291
20
0.045585
30
0.0
11
0.101582
21
0.044895
31
0.0
0
LINE
8
0
6
CONTINUOUS
10
0.099743
20
0.045823
30
0.0
11
0.101291
21
0.045585
31
0.0
0
LINE
8
0
6
CONTINUOUS
10
0.070498
20
0.056430
30
0.0
11
0.070498
21
0.057003
31
0.0
0
LINE
8
0
6
CONTINUOUS
10
0.069241
20
0.056882
30
0.0
11
0.070498
21
0.056430
31
0.0
0
LINE
8
0
6
CONTINUOUS
10
0.069241
20
0.056882
30
0.0
11
0.069241
21
0.057573
31
0.0
0
LINE
8
0
6
CONTINUOUS
10
0.067692
20
0.056645
30
0.0
11
0.069241
21
0.056882
31
0.0
0
LINE
8
0
6
CONTINUOUS
10
0.080765
20
0.051104
30
0.0
11
0.080765
21
0.051699
31
0.0
0
LINE
8
0
6
CONTINUOUS
10
0.079508
20
0.051556
30
0.0
11
0.080765
21
0.051104
31
0.0
0
LINE
8
0
6
CONTINUOUS
10
0.079508
20
0.051556
30
0.0
11
0.079508
21
0.052217
31
0.0
0
LINE
8
0
6
CONTINUOUS
10
0.077959
20
0.051318
30
0.0
11
0.079508
21
0.051556
31
0.0
0
LINE
8
0
6
CONTINUOUS
10
0.094003
20
0.048380
30
0.0
11
0.094294
21
0.047690
31
0.0
0
LINE
8
0
6
CONTINUOUS
10
0.092454
20
0.048618
30
0.0
11
0.094003
21
0.048380
31
0.0
0
LINE
8
0
6
CONTINUOUS
10
0.101790
20
0.069105
30
0.0
11
0.101790
21
0.070015
31
0.0
0
LINE
8
0
6
CONTINUOUS
10
0.101029
20
0.069727
30
0.0
11
0.101790
21
0.069105
31
0.0
0
LINE
8
0
6
CONTINUOUS
10
0.089737
20
0.058190
30
0.0
11
0.090439
21
0.057779
31
0.0
0
LINE
8
0
6
CONTINUOUS
10
0.088758
20
0.058810
30
0.0
11
0.089714
21
0.058204
31
0.0
0
LINE
8
0
6
CONTINUOUS
10
0.090439
20
0.057779
30
0.0
11
0.089549
21
0.058343
31
0.0
0
LINE
8
0
6
CONTINUOUS
10
0.087987
20
0.059469
30
0.0
11
0.088758
21
0.058810
31
0.0
0
LINE
8
0
6
CONTINUOUS
10
0.089549
20
0.058343
30
0.0
11
0.088831
21
0.058957
31
0.0
0
LINE
8
0
6
CONTINUOUS
10
0.087417
20
0.060173
30
0.0
11
0.087987
21
0.059469
31
0.0
0
LINE
8
0
6
CONTINUOUS
10
0.088831
20
0.058957
30
0.0
11
0.088300
21
0.059612
31
0.0
0
LINE
8
0
6
CONTINUOUS
10
0.087063
20
0.060915
30
0.0
11
0.087417
21
0.060173
31
0.0
0
LINE
8
0
6
CONTINUOUS
10
0.088300
20
0.059612
30
0.0
11
0.087970
21
0.060303
31
0.0
0
LINE
8
0
6
CONTINUOUS
10
0.086941
20
0.061689
30
0.0
11
0.087063
21
0.060915
31
0.0
0
LINE
8
0
6
CONTINUOUS
10
0.087970
20
0.060303
30
0.0
11
0.087857
21
0.061023
31
0.0
0
LINE
8
0
6
CONTINUOUS
10
0.087063
20
0.062462
30
0.0
11
0.086941
21
0.061689
31
0.0
0
LINE
8
0
6
CONTINUOUS
10
0.087857
20
0.061023
30
0.0
11
0.087970
21
0.061744
31
0.0
0
LINE
8
0
6
CONTINUOUS
10
0.087417
20
0.063204
30
0.0
11
0.087063
21
0.062462
31
0.0
0
LINE
8
0
6
CONTINUOUS
10
0.087970
20
0.061744
30
0.0
11
0.088300
21
0.062435
31
0.0
0
LINE
8
0
6
CONTINUOUS
10
0.088300
20
0.062435
30
0.0
11
0.088831
21
0.063090
31
0.0
0
LINE
8
0
6
CONTINUOUS
10
0.088831
20
0.063090
30
0.0
11
0.089549
21
0.063704
31
0.0
0
LINE
8
0
6
CONTINUOUS
10
0.089714
20
0.065174
30
0.0
11
0.088758
21
0.064567
31
0.0
0
LINE
8
0
6
CONTINUOUS
10
0.089549
20
0.063704
30
0.0
11
0.090439
21
0.064268
31
0.0
0
LINE
8
0
6
CONTINUOUS
10
0.090839
20
0.065721
30
0.0
11
0.089714
21
0.065174
31
0.0
0
LINE
8
0
6
CONTINUOUS
10
0.090439
20
0.064268
30
0.0
11
0.091487
21
0.064778
31
0.0
0
LINE
8
0
6
CONTINUOUS
10
0.092117
20
0.066203
30
0.0
11
0.090839
21
0.065721
31
0.0
0
LINE
8
0
6
CONTINUOUS
10
0.091487
20
0.064778
30
0.0
11
0.092676
21
0.065227
31
0.0
0
LINE
8
0
6
CONTINUOUS
10
0.093531
20
0.066613
30
0.0
11
0.092117
21
0.066203
31
0.0
0
LINE
8
0
6
CONTINUOUS
10
0.092676
20
0.065227
30
0.0
11
0.093994
21
0.065609
31
0.0
0
LINE
8
0
6
CONTINUOUS
10
0.095068
20
0.066944
30
0.0
11
0.093531
21
0.066613
31
0.0
0
LINE
8
0
6
CONTINUOUS
10
0.093994
20
0.065609
30
0.0
11
0.095425
21
0.065917
31
0.0
0
LINE
8
0
6
CONTINUOUS
10
0.096710
20
0.067188
30
0.0
11
0.095068
21
0.066944
31
0.0
0
LINE
8
0
6
CONTINUOUS
10
0.095425
20
0.065917
30
0.0
11
0.096953
21
0.066144
31
0.0
0
LINE
8
0
6
CONTINUOUS
10
0.098442
20
0.067340
30
0.0
11
0.096710
21
0.067188
31
0.0
0
LINE
8
0
6
CONTINUOUS
10
0.096953
20
0.066144
30
0.0
11
0.098565
21
0.066286
31
0.0
0
LINE
8
0
6
CONTINUOUS
10
0.100246
20
0.067392
30
0.0
11
0.098442
21
0.067340
31
0.0
0
LINE
8
0
6
CONTINUOUS
10
0.098565
20
0.066286
30
0.0
11
0.100246
21
0.066334
31
0.0
0
LINE
8
0
6
CONTINUOUS
10
0.102050
20
0.067340
30
0.0
11
0.100246
21
0.067392
31
0.0
0
LINE
8
0
6
CONTINUOUS
10
0.100246
20
0.066334
30
0.0
11
0.101927
21
0.066286
31
0.0
0
LINE
8
0
6
CONTINUOUS
10
0.103782
20
0.067188
30
0.0
11
0.102050
21
0.067340
31
0.0
0
LINE
8
0
6
CONTINUOUS
10
0.101927
20
0.066286
30
0.0
11
0.103539
21
0.066144
31
0.0
0
LINE
8
0
6
CONTINUOUS
10
0.105424
20
0.066944
30
0.0
11
0.103782
21
0.067188
31
0.0
0
LINE
8
0
6
CONTINUOUS
10
0.103539
20
0.066144
30
0.0
11
0.105067
21
0.065917
31
0.0
0
LINE
8
0
6
CONTINUOUS
10
0.106960
20
0.066613
30
0.0
11
0.105424
21
0.066944
31
0.0
0
LINE
8
0
6
CONTINUOUS
10
0.105067
20
0.065917
30
0.0
11
0.106498
21
0.065609
31
0.0
0
LINE
8
0
6
CONTINUOUS
10
0.108375
20
0.066203
30
0.0
11
0.106960
21
0.066613
31
0.0
0
LINE
8
0
6
CONTINUOUS
10
0.106498
20
0.065609
30
0.0
11
0.107815
21
0.065227
31
0.0
0
LINE
8
0
6
CONTINUOUS
10
0.109653
20
0.065721
30
0.0
11
0.108375
21
0.066203
31
0.0
0
LINE
8
0
6
CONTINUOUS
10
0.107815
20
0.065227
30
0.0
11
0.109005
21
0.064778
31
0.0
0
LINE
8
0
6
CONTINUOUS
10
0.110778
20
0.065173
30
0.0
11
0.109653
21
0.065721
31
0.0
0
LINE
8
0
6
CONTINUOUS
10
0.109005
20
0.064778
30
0.0
11
0.110053
21
0.064268
31
0.0
0
LINE
8
0
6
CONTINUOUS
10
0.110053
20
0.064268
30
0.0
11
0.110943
21
0.063704
31
0.0
0
LINE
8
0
6
CONTINUOUS
10
0.110943
20
0.063704
30
0.0
11
0.111661
21
0.063090
31
0.0
0
LINE
8
0
6
CONTINUOUS
10
0.111661
20
0.063090
30
0.0
11
0.112192
21
0.062435
31
0.0
0
LINE
8
0
6
CONTINUOUS
10
0.112192
20
0.062435
30
0.0
11
0.112521
21
0.061744
31
0.0
0
LINE
8
0
6
CONTINUOUS
10
0.113551
20
0.061689
30
0.0
11
0.113429
21
0.062462
31
0.0
0
LINE
8
0
6
CONTINUOUS
10
0.112521
20
0.061744
30
0.0
11
0.112634
21
0.061023
31
0.0
0
LINE
8
0
6
CONTINUOUS
10
0.113429
20
0.060915
30
0.0
11
0.113551
21
0.061689
31
0.0
0
LINE
8
0
6
CONTINUOUS
10
0.112634
20
0.061023
30
0.0
11
0.112521
21
0.060303
31
0.0
0
LINE
8
0
6
CONTINUOUS
10
0.113075
20
0.060173
30
0.0
11
0.113429
21
0.060915
31
0.0
0
LINE
8
0
6
CONTINUOUS
10
0.112521
20
0.060303
30
0.0
11
0.112192
21
0.059612
31
0.0
0
LINE
8
0
6
CONTINUOUS
10
0.112505
20
0.059469
30
0.0
11
0.113075
21
0.060173
31
0.0
0
LINE
8
0
6
CONTINUOUS
10
0.112192
20
0.059612
30
0.0
11
0.111661
21
0.058957
31
0.0
0
LINE
8
0
6
CONTINUOUS
10
0.111733
20
0.058810
30
0.0
11
0.112505
21
0.059469
31
0.0
0
LINE
8
0
6
CONTINUOUS
10
0.111661
20
0.058957
30
0.0
11
0.110943
21
0.058343
31
0.0
0
LINE
8
0
6
CONTINUOUS
10
0.110053
20
0.057779
30
0.0
11
0.110726
21
0.058173
31
0.0
0
LINE
8
0
6
CONTINUOUS
10
0.110943
20
0.058343
30
0.0
11
0.110053
21
0.057779
31
0.0
0
LINE
8
0
6
CONTINUOUS
10
0.054590
20
0.063234
30
0.0
11
0.056138
21
0.063472
31
0.0
0
LINE
8
0
6
CONTINUOUS
10
0.142896
20
0.062818
30
0.0
11
0.144153
21
0.063270
31
0.0
0
LINE
8
0
6
CONTINUOUS
10
0.142896
20
0.063310
30
0.0
11
0.142896
21
0.062818
31
0.0
0
LINE
8
0
6
CONTINUOUS
10
0.144153
20
0.063270
30
0.0
11
0.145701
21
0.063033
31
0.0
0
LINE
8
0
6
CONTINUOUS
10
0.144153
20
0.063990
30
0.0
11
0.144153
21
0.063270
31
0.0
0
LINE
8
0
6
CONTINUOUS
10
0.108031
20
0.054120
30
0.0
11
0.108031
21
0.055012
31
0.0
0
LINE
8
0
6
CONTINUOUS
10
0.106774
20
0.054573
30
0.0
11
0.108031
21
0.054120
31
0.0
0
LINE
8
0
6
CONTINUOUS
10
0.106774
20
0.055331
30
0.0
11
0.106774
21
0.054573
31
0.0
0
LINE
8
0
6
CONTINUOUS
10
0.105997
20
0.047624
30
0.0
11
0.106288
21
0.048315
31
0.0
0
LINE
8
0
6
CONTINUOUS
10
0.105997
20
0.048541
30
0.0
11
0.105997
21
0.047624
31
0.0
0
LINE
8
0
6
CONTINUOUS
10
0.106288
20
0.048315
30
0.0
11
0.107837
21
0.048552
31
0.0
0
LINE
8
0
6
CONTINUOUS
10
0.106288
20
0.049024
30
0.0
11
0.106288
21
0.048315
31
0.0
0
LINE
8
0
6
CONTINUOUS
10
0.109094
20
0.048100
30
0.0
11
0.109094
21
0.048994
31
0.0
0
LINE
8
0
6
CONTINUOUS
10
0.107837
20
0.048552
30
0.0
11
0.109094
21
0.048100
31
0.0
0
LINE
8
0
6
CONTINUOUS
10
0.107837
20
0.049250
30
0.0
11
0.107837
21
0.048552
31
0.0
0
LINE
8
0
6
CONTINUOUS
10
0.106711
20
0.058405
30
0.0
11
0.107002
21
0.059095
31
0.0
0
LINE
8
0
6
CONTINUOUS
10
0.106711
20
0.059217
30
0.0
11
0.106711
21
0.058405
31
0.0
0
LINE
8
0
6
CONTINUOUS
10
0.107002
20
0.059095
30
0.0
11
0.108550
21
0.059333
31
0.0
0
LINE
8
0
6
CONTINUOUS
10
0.107002
20
0.059921
30
0.0
11
0.107002
21
0.059095
31
0.0
0
LINE
8
0
6
CONTINUOUS
10
0.109808
20
0.058880
30
0.0
11
0.109808
21
0.059814
31
0.0
0
LINE
8
0
6
CONTINUOUS
10
0.108550
20
0.059333
30
0.0
11
0.109808
21
0.058880
31
0.0
0
LINE
8
0
6
CONTINUOUS
10
0.108550
20
0.060220
30
0.0
11
0.108550
21
0.059333
31
0.0
0
LINE
8
0
6
CONTINUOUS
10
0.137748
20
0.056451
30
0.0
11
0.139005
21
0.056903
31
0.0
0
LINE
8
0
6
CONTINUOUS
10
0.137748
20
0.056875
30
0.0
11
0.137748
21
0.056451
31
0.0
0
LINE
8
0
6
CONTINUOUS
10
0.139005
20
0.056903
30
0.0
11
0.140554
21
0.056665
31
0.0
0
LINE
8
0
6
CONTINUOUS
10
0.139005
20
0.057515
30
0.0
11
0.139005
21
0.056903
31
0.0
0
LINE
8
0
6
CONTINUOUS
10
0.140554
20
0.056665
30
0.0
11
0.140845
21
0.055975
31
0.0
0
LINE
8
0
6
CONTINUOUS
10
0.140554
20
0.057700
30
0.0
11
0.140554
21
0.056665
31
0.0
0
LINE
8
0
6
CONTINUOUS
10
0.128828
20
0.051099
30
0.0
11
0.130376
21
0.050861
31
0.0
0
LINE
8
0
6
CONTINUOUS
10
0.128828
20
0.051772
30
0.0
11
0.128828
21
0.051099
31
0.0
0
LINE
8
0
6
CONTINUOUS
10
0.130376
20
0.050861
30
0.0
11
0.130667
21
0.050171
31
0.0
0
LINE
8
0
6
CONTINUOUS
10
0.130376
20
0.051969
30
0.0
11
0.130376
21
0.050861
31
0.0
0
LINE
8
0
6
CONTINUOUS
10
0.120783
20
0.051649
30
0.0
11
0.122332
21
0.051411
31
0.0
0
LINE
8
0
6
CONTINUOUS
10
0.120783
20
0.052105
30
0.0
11
0.120783
21
0.051649
31
0.0
0
LINE
8
0
6
CONTINUOUS
10
0.122332
20
0.051411
30
0.0
11
0.122623
21
0.050721
31
0.0
0
LINE
8
0
6
CONTINUOUS
10
0.122332
20
0.052164
30
0.0
11
0.122332
21
0.051411
31
0.0
0
LINE
8
0
6
CONTINUOUS
10
0.121918
20
0.056552
30
0.0
11
0.123176
21
0.057004
31
0.0
0
LINE
8
0
6
CONTINUOUS
10
0.121918
20
0.057221
30
0.0
11
0.121918
21
0.056552
31
0.0
0
LINE
8
0
6
CONTINUOUS
10
0.129793
20
0.056311
30
0.0
11
0.131050
21
0.056763
31
0.0
0
LINE
8
0
6
CONTINUOUS
10
0.129793
20
0.056864
30
0.0
11
0.129793
21
0.056311
31
0.0
0
LINE
8
0
6
CONTINUOUS
10
0.131050
20
0.056763
30
0.0
11
0.132599
21
0.056526
31
0.0
0
LINE
8
0
6
CONTINUOUS
10
0.131050
20
0.057434
30
0.0
11
0.131050
21
0.056763
31
0.0
0
LINE
8
0
6
CONTINUOUS
10
0.132599
20
0.056526
30
0.0
11
0.132890
21
0.055835
31
0.0
0
LINE
8
0
6
CONTINUOUS
10
0.132599
20
0.057502
30
0.0
11
0.132599
21
0.056526
31
0.0
0
LINE
8
0
6
CONTINUOUS
10
0.112118
20
0.051755
30
0.0
11
0.112409
21
0.052446
31
0.0
0
LINE
8
0
6
CONTINUOUS
10
0.112118
20
0.052519
30
0.0
11
0.112118
21
0.051755
31
0.0
0
LINE
8
0
6
CONTINUOUS
10
0.112409
20
0.052446
30
0.0
11
0.113957
21
0.052683
31
0.0
0
LINE
8
0
6
CONTINUOUS
10
0.112409
20
0.053095
30
0.0
11
0.112409
21
0.052446
31
0.0
0
LINE
8
0
6
CONTINUOUS
10
0.115215
20
0.052231
30
0.0
11
0.115215
21
0.053185
31
0.0
0
LINE
8
0
6
CONTINUOUS
10
0.113957
20
0.052683
30
0.0
11
0.115215
21
0.052231
31
0.0
0
LINE
8
0
6
CONTINUOUS
10
0.113957
20
0.053426
30
0.0
11
0.113957
21
0.052683
31
0.0
0
LINE
8
0
6
CONTINUOUS
10
0.113798
20
0.045916
30
0.0
11
0.114090
21
0.046606
31
0.0
0
LINE
8
0
6
CONTINUOUS
10
0.113798
20
0.047255
30
0.0
11
0.113798
21
0.045916
31
0.0
0
LINE
8
0
6
CONTINUOUS
10
0.114090
20
0.046606
30
0.0
11
0.115638
21
0.046844
31
0.0
0
LINE
8
0
6
CONTINUOUS
10
0.114090
20
0.047723
30
0.0
11
0.114090
21
0.046606
31
0.0
0
LINE
8
0
6
CONTINUOUS
10
0.116895
20
0.046392
30
0.0
11
0.116895
21
0.047855
31
0.0
0
LINE
8
0
6
CONTINUOUS
10
0.115638
20
0.046844
30
0.0
11
0.116895
21
0.046392
31
0.0
0
LINE
8
0
6
CONTINUOUS
10
0.115638
20
0.048028
30
0.0
11
0.115638
21
0.046844
31
0.0
0
LINE
8
0
6
CONTINUOUS
10
0.134425
20
0.061810
30
0.0
11
0.134716
21
0.062500
31
0.0
0
LINE
8
0
6
CONTINUOUS
10
0.134425
20
0.062460
30
0.0
11
0.134425
21
0.061810
31
0.0
0
LINE
8
0
6
CONTINUOUS
10
0.134716
20
0.062500
30
0.0
11
0.136265
21
0.062738
31
0.0
0
LINE
8
0
6
CONTINUOUS
10
0.134716
20
0.063147
30
0.0
11
0.134716
21
0.062500
31
0.0
0
LINE
8
0
6
CONTINUOUS
10
0.137522
20
0.062285
30
0.0
11
0.137522
21
0.063411
31
0.0
0
LINE
8
0
6
CONTINUOUS
10
0.136265
20
0.062738
30
0.0
11
0.137522
21
0.062285
31
0.0
0
LINE
8
0
6
CONTINUOUS
10
0.136265
20
0.063622
30
0.0
11
0.136265
21
0.062738
31
0.0
0
LINE
8
0
6
CONTINUOUS
10
0.125909
20
0.062641
30
0.0
11
0.127457
21
0.062879
31
0.0
0
LINE
8
0
6
CONTINUOUS
10
0.125909
20
0.063377
30
0.0
11
0.125909
21
0.062641
31
0.0
0
LINE
8
0
6
CONTINUOUS
10
0.128715
20
0.062426
30
0.0
11
0.128715
21
0.063560
31
0.0
0
LINE
8
0
6
CONTINUOUS
10
0.127457
20
0.062879
30
0.0
11
0.128715
21
0.062426
31
0.0
0
LINE
8
0
6
CONTINUOUS
10
0.127457
20
0.063777
30
0.0
11
0.127457
21
0.062879
31
0.0
0
LINE
8
0
6
CONTINUOUS
10
0.114190
20
0.056937
30
0.0
11
0.114481
21
0.057627
31
0.0
0
LINE
8
0
6
CONTINUOUS
10
0.114190
20
0.057613
30
0.0
11
0.114190
21
0.056937
31
0.0
0
LINE
8
0
6
CONTINUOUS
10
0.114481
20
0.057627
30
0.0
11
0.116029
21
0.057865
31
0.0
0
LINE
8
0
6
CONTINUOUS
10
0.114481
20
0.058327
30
0.0
11
0.114481
21
0.057627
31
0.0
0
LINE
8
0
6
CONTINUOUS
10
0.117287
20
0.057412
30
0.0
11
0.117287
21
0.058459
31
0.0
0
LINE
8
0
6
CONTINUOUS
10
0.116029
20
0.057865
30
0.0
11
0.117287
21
0.057412
31
0.0
0
LINE
8
0
6
CONTINUOUS
10
0.116029
20
0.058750
30
0.0
11
0.116029
21
0.057865
31
0.0
0
LINE
8
0
6
CONTINUOUS
10
0.116329
20
0.077852
30
0.0
11
0.116329
21
0.078905
31
0.0
0
LINE
8
0
6
CONTINUOUS
10
0.115569
20
0.078474
30
0.0
11
0.116329
21
0.077852
31
0.0
0
LINE
8
0
6
CONTINUOUS
10
0.113041
20
0.077913
30
0.0
11
0.113925
21
0.078504
31
0.0
0
LINE
8
0
6
CONTINUOUS
10
0.113041
20
0.078698
30
0.0
11
0.113041
21
0.077913
31
0.0
0
LINE
8
0
6
CONTINUOUS
10
0.115569
20
0.078474
30
0.0
11
0.115569
21
0.079670
31
0.0
0
LINE
8
0
6
CONTINUOUS
10
0.113925
20
0.078504
30
0.0
11
0.115569
21
0.078474
31
0.0
0
LINE
8
0
6
CONTINUOUS
10
0.113925
20
0.079531
30
0.0
11
0.113925
21
0.078504
31
0.0
0
LINE
8
0
6
CONTINUOUS
10
0.115393
20
0.072315
30
0.0
11
0.115393
21
0.073294
31
0.0
0
LINE
8
0
6
CONTINUOUS
10
0.114633
20
0.072937
30
0.0
11
0.115393
21
0.072315
31
0.0
0
LINE
8
0
6
CONTINUOUS
10
0.112105
20
0.072376
30
0.0
11
0.112988
21
0.072967
31
0.0
0
LINE
8
0
6
CONTINUOUS
10
0.112105
20
0.073203
30
0.0
11
0.112105
21
0.072376
31
0.0
0
LINE
8
0
6
CONTINUOUS
10
0.114633
20
0.072937
30
0.0
11
0.114633
21
0.074059
31
0.0
0
LINE
8
0
6
CONTINUOUS
10
0.112988
20
0.072967
30
0.0
11
0.114633
21
0.072937
31
0.0
0
LINE
8
0
6
CONTINUOUS
10
0.112988
20
0.074052
30
0.0
11
0.112988
21
0.072967
31
0.0
0
LINE
8
0
6
CONTINUOUS
10
0.128623
20
0.073964
30
0.0
11
0.128623
21
0.075092
31
0.0
0
LINE
8
0
6
CONTINUOUS
10
0.128187
20
0.074640
30
0.0
11
0.128623
21
0.073964
31
0.0
0
LINE
8
0
6
CONTINUOUS
10
0.125438
20
0.074318
30
0.0
11
0.126594
21
0.074817
31
0.0
0
LINE
8
0
6
CONTINUOUS
10
0.125438
20
0.075122
30
0.0
11
0.125438
21
0.074318
31
0.0
0
LINE
8
0
6
CONTINUOUS
10
0.128187
20
0.074640
30
0.0
11
0.128187
21
0.075904
31
0.0
0
LINE
8
0
6
CONTINUOUS
10
0.126594
20
0.074817
30
0.0
11
0.128187
21
0.074640
31
0.0
0
LINE
8
0
6
CONTINUOUS
10
0.126594
20
0.075862
30
0.0
11
0.126594
21
0.074817
31
0.0
0
LINE
8
0
6
CONTINUOUS
10
0.110262
20
0.067599
30
0.0
11
0.111419
21
0.068098
31
0.0
0
LINE
8
0
6
CONTINUOUS
10
0.110262
20
0.068466
30
0.0
11
0.110262
21
0.067599
31
0.0
0
LINE
8
0
6
CONTINUOUS
10
0.113011
20
0.067921
30
0.0
11
0.113011
21
0.068938
31
0.0
0
LINE
8
0
6
CONTINUOUS
10
0.111419
20
0.068098
30
0.0
11
0.113011
21
0.067921
31
0.0
0
LINE
8
0
6
CONTINUOUS
10
0.111419
20
0.069101
30
0.0
11
0.111419
21
0.068098
31
0.0
0
LINE
8
0
6
CONTINUOUS
10
0.136092
20
0.068413
30
0.0
11
0.136092
21
0.069502
31
0.0
0
LINE
8
0
6
CONTINUOUS
10
0.136000
20
0.069114
30
0.0
11
0.136092
21
0.068413
31
0.0
0
LINE
8
0
6
CONTINUOUS
10
0.133154
20
0.069046
30
0.0
11
0.134531
21
0.069430
31
0.0
0
LINE
8
0
6
CONTINUOUS
10
0.133154
20
0.069742
30
0.0
11
0.133154
21
0.069046
31
0.0
0
LINE
8
0
6
CONTINUOUS
10
0.136000
20
0.069114
30
0.0
11
0.136000
21
0.070236
31
0.0
0
LINE
8
0
6
CONTINUOUS
10
0.134531
20
0.069430
30
0.0
11
0.136000
21
0.069114
31
0.0
0
LINE
8
0
6
CONTINUOUS
10
0.134531
20
0.070356
30
0.0
11
0.134531
21
0.069430
31
0.0
0
LINE
8
0
6
CONTINUOUS
10
0.124966
20
0.068009
30
0.0
11
0.124966
21
0.068987
31
0.0
0
LINE
8
0
6
CONTINUOUS
10
0.124874
20
0.068710
30
0.0
11
0.124966
21
0.068009
31
0.0
0
LINE
8
0
6
CONTINUOUS
10
0.122028
20
0.068642
30
0.0
11
0.123405
21
0.069026
31
0.0
0
LINE
8
0
6
CONTINUOUS
10
0.122028
20
0.069439
30
0.0
11
0.122028
21
0.068642
31
0.0
0
LINE
8
0
6
CONTINUOUS
10
0.124874
20
0.068710
30
0.0
11
0.124874
21
0.069773
31
0.0
0
LINE
8
0
6
CONTINUOUS
10
0.123405
20
0.069026
30
0.0
11
0.124874
21
0.068710
31
0.0
0
LINE
8
0
6
CONTINUOUS
10
0.123405
20
0.069999
30
0.0
11
0.123405
21
0.069026
31
0.0
0
LINE
8
0
6
CONTINUOUS
10
0.119551
20
0.062191
30
0.0
11
0.119551
21
0.063245
31
0.0
0
LINE
8
0
6
CONTINUOUS
10
0.119458
20
0.062891
30
0.0
11
0.119551
21
0.062191
31
0.0
0
LINE
8
0
6
CONTINUOUS
10
0.119458
20
0.063911
30
0.0
11
0.119458
21
0.062891
31
0.0
0
LINE
8
0
6
CONTINUOUS
10
0.109540
20
0.062205
30
0.0
11
0.109540
21
0.063143
31
0.0
0
LINE
8
0
6
CONTINUOUS
10
0.109448
20
0.062905
30
0.0
11
0.109540
21
0.062205
31
0.0
0
LINE
8
0
6
CONTINUOUS
10
0.109448
20
0.062905
30
0.0
11
0.109448
21
0.063835
31
0.0
0
LINE
8
0
6
CONTINUOUS
10
0.107979
20
0.063221
30
0.0
11
0.109448
21
0.062905
31
0.0
0
LINE
8
0
6
CONTINUOUS
10
0.107979
20
0.064098
30
0.0
11
0.107979
21
0.063221
31
0.0
0
LINE
8
0
6
CONTINUOUS
10
0.113738
20
0.083585
30
0.0
11
0.114310
21
0.084242
31
0.0
0
LINE
8
0
6
CONTINUOUS
10
0.113738
20
0.084199
30
0.0
11
0.113738
21
0.083585
31
0.0
0
LINE
8
0
6
CONTINUOUS
10
0.115932
20
0.084360
30
0.0
11
0.115932
21
0.085688
31
0.0
0
LINE
8
0
6
CONTINUOUS
10
0.114310
20
0.084242
30
0.0
11
0.115932
21
0.084360
31
0.0
0
LINE
8
0
6
CONTINUOUS
10
0.114310
20
0.085321
30
0.0
11
0.114310
21
0.084242
31
0.0
0
LINE
8
0
6
CONTINUOUS
10
0.130526
20
0.080206
30
0.0
11
0.130526
21
0.081278
31
0.0
0
LINE
8
0
6
CONTINUOUS
10
0.130090
20
0.080882
30
0.0
11
0.130526
21
0.080206
31
0.0
0
LINE
8
0
6
CONTINUOUS
10
0.127341
20
0.080560
30
0.0
11
0.128498
21
0.081059
31
0.0
0
LINE
8
0
6
CONTINUOUS
10
0.127341
20
0.081214
30
0.0
11
0.127341
21
0.080560
31
0.0
0
LINE
8
0
6
CONTINUOUS
10
0.130090
20
0.080882
30
0.0
11
0.130090
21
0.082210
31
0.0
0
LINE
8
0
6
CONTINUOUS
10
0.128498
20
0.081059
30
0.0
11
0.130090
21
0.080882
31
0.0
0
LINE
8
0
6
CONTINUOUS
10
0.128498
20
0.082205
30
0.0
11
0.128498
21
0.081059
31
0.0
0
LINE
8
0
6
CONTINUOUS
10
0.140423
20
0.075046
30
0.0
11
0.140423
21
0.076225
31
0.0
0
LINE
8
0
6
CONTINUOUS
10
0.140331
20
0.075746
30
0.0
11
0.140423
21
0.075046
31
0.0
0
LINE
8
0
6
CONTINUOUS
10
0.137484
20
0.075678
30
0.0
11
0.138861
21
0.076062
31
0.0
0
LINE
8
0
6
CONTINUOUS
10
0.137484
20
0.076245
30
0.0
11
0.137484
21
0.075678
31
0.0
0
LINE
8
0
6
CONTINUOUS
10
0.140331
20
0.075746
30
0.0
11
0.140331
21
0.077061
31
0.0
0
LINE
8
0
6
CONTINUOUS
10
0.138861
20
0.076062
30
0.0
11
0.140331
21
0.075746
31
0.0
0
LINE
8
0
6
CONTINUOUS
10
0.138861
20
0.077076
30
0.0
11
0.138861
21
0.076062
31
0.0
0
LINE
8
0
6
CONTINUOUS
10
0.059868
20
0.075246
30
0.0
11
0.059961
21
0.075946
31
0.0
0
LINE
8
0
6
CONTINUOUS
10
0.059868
20
0.076445
30
0.0
11
0.059868
21
0.075246
31
0.0
0
LINE
8
0
6
CONTINUOUS
10
0.061430
20
0.076262
30
0.0
11
0.062807
21
0.075878
31
0.0
0
LINE
8
0
6
CONTINUOUS
10
0.059961
20
0.075946
30
0.0
11
0.061430
21
0.076262
31
0.0
0
LINE
8
0
6
CONTINUOUS
10
0.059961
20
0.077242
30
0.0
11
0.059961
21
0.075946
31
0.0
0
LINE
8
0
6
CONTINUOUS
10
0.069765
20
0.080348
30
0.0
11
0.070201
21
0.081024
31
0.0
0
LINE
8
0
6
CONTINUOUS
10
0.069765
20
0.081432
30
0.0
11
0.069765
21
0.080348
31
0.0
0
LINE
8
0
6
CONTINUOUS
10
0.071793
20
0.081201
30
0.0
11
0.072950
21
0.080702
31
0.0
0
LINE
8
0
6
CONTINUOUS
10
0.070201
20
0.081024
30
0.0
11
0.071793
21
0.081201
31
0.0
0
LINE
8
0
6
CONTINUOUS
10
0.070201
20
0.082358
30
0.0
11
0.070201
21
0.081024
31
0.0
0
LINE
8
0
6
CONTINUOUS
10
0.098557
20
0.084535
30
0.0
11
0.099049
21
0.085205
31
0.0
0
LINE
8
0
6
CONTINUOUS
10
0.098557
20
0.085369
30
0.0
11
0.098557
21
0.084535
31
0.0
0
LINE
8
0
6
CONTINUOUS
10
0.099049
20
0.085205
30
0.0
11
0.100655
21
0.085358
31
0.0
0
LINE
8
0
6
CONTINUOUS
10
0.099049
20
0.086441
30
0.0
11
0.099049
21
0.085205
31
0.0
0
LINE
8
0
6
CONTINUOUS
10
0.100655
20
0.085358
30
0.0
11
0.101769
21
0.084841
31
0.0
0
LINE
8
0
6
CONTINUOUS
10
0.100655
20
0.086639
30
0.0
11
0.100655
21
0.085358
31
0.0
0
LINE
8
0
6
CONTINUOUS
10
0.083308
20
0.083900
30
0.0
11
0.084359
21
0.084440
31
0.0
0
LINE
8
0
6
CONTINUOUS
10
0.083308
20
0.085019
30
0.0
11
0.083308
21
0.083900
31
0.0
0
LINE
8
0
6
CONTINUOUS
10
0.085981
20
0.084322
30
0.0
11
0.086553
21
0.083665
31
0.0
0
LINE
8
0
6
CONTINUOUS
10
0.084359
20
0.084440
30
0.0
11
0.085981
21
0.084322
31
0.0
0
LINE
8
0
6
CONTINUOUS
10
0.084359
20
0.085779
30
0.0
11
0.084359
21
0.084440
31
0.0
0
LINE
8
0
6
CONTINUOUS
10
0.092312
20
0.063254
30
0.0
11
0.093689
21
0.062870
31
0.0
0
LINE
8
0
6
CONTINUOUS
10
0.092312
20
0.064127
30
0.0
11
0.092312
21
0.063254
31
0.0
0
LINE
8
0
6
CONTINUOUS
10
0.082302
20
0.063293
30
0.0
11
0.083679
21
0.062909
31
0.0
0
LINE
8
0
6
CONTINUOUS
10
0.082302
20
0.064146
30
0.0
11
0.082302
21
0.063293
31
0.0
0
LINE
8
0
6
CONTINUOUS
10
0.064199
20
0.068557
30
0.0
11
0.064291
21
0.069257
31
0.0
0
LINE
8
0
6
CONTINUOUS
10
0.064199
20
0.069626
30
0.0
11
0.064199
21
0.068557
31
0.0
0
LINE
8
0
6
CONTINUOUS
10
0.065760
20
0.069573
30
0.0
11
0.067137
21
0.069189
31
0.0
0
LINE
8
0
6
CONTINUOUS
10
0.064291
20
0.069257
30
0.0
11
0.065760
21
0.069573
31
0.0
0
LINE
8
0
6
CONTINUOUS
10
0.064291
20
0.070360
30
0.0
11
0.064291
21
0.069257
31
0.0
0
LINE
8
0
6
CONTINUOUS
10
0.098686
20
0.064305
30
0.0
11
0.099122
21
0.064982
31
0.0
0
LINE
8
0
6
CONTINUOUS
10
0.098686
20
0.065207
30
0.0
11
0.098686
21
0.064305
31
0.0
0
LINE
8
0
6
CONTINUOUS
10
0.088872
20
0.068139
30
0.0
11
0.090029
21
0.067640
31
0.0
0
LINE
8
0
6
CONTINUOUS
10
0.087280
20
0.067962
30
0.0
11
0.088872
21
0.068139
31
0.0
0
LINE
8
0
6
CONTINUOUS
10
0.087280
20
0.068964
30
0.0
11
0.087280
21
0.067962
31
0.0
0
LINE
8
0
6
CONTINUOUS
10
0.071668
20
0.074109
30
0.0
11
0.072104
21
0.074785
31
0.0
0
LINE
8
0
6
CONTINUOUS
10
0.071668
20
0.075265
30
0.0
11
0.071668
21
0.074109
31
0.0
0
LINE
8
0
6
CONTINUOUS
10
0.073697
20
0.074963
30
0.0
11
0.074853
21
0.074463
31
0.0
0
LINE
8
0
6
CONTINUOUS
10
0.072104
20
0.074785
30
0.0
11
0.073697
21
0.074963
31
0.0
0
LINE
8
0
6
CONTINUOUS
10
0.072104
20
0.076077
30
0.0
11
0.072104
21
0.074785
31
0.0
0
LINE
8
0
6
CONTINUOUS
10
0.084898
20
0.072358
30
0.0
11
0.085658
21
0.072980
31
0.0
0
LINE
8
0
6
CONTINUOUS
10
0.084898
20
0.073394
30
0.0
11
0.084898
21
0.072358
31
0.0
0
LINE
8
0
6
CONTINUOUS
10
0.087303
20
0.073011
30
0.0
11
0.088187
21
0.072419
31
0.0
0
LINE
8
0
6
CONTINUOUS
10
0.085658
20
0.072980
30
0.0
11
0.087303
21
0.073011
31
0.0
0
LINE
8
0
6
CONTINUOUS
10
0.085658
20
0.074160
30
0.0
11
0.085658
21
0.072980
31
0.0
0
LINE
8
0
6
CONTINUOUS
10
0.083962
20
0.077935
30
0.0
11
0.084722
21
0.078557
31
0.0
0
LINE
8
0
6
CONTINUOUS
10
0.083962
20
0.079005
30
0.0
11
0.083962
21
0.077935
31
0.0
0
LINE
8
0
6
CONTINUOUS
10
0.084722
20
0.078557
30
0.0
11
0.086367
21
0.078587
31
0.0
0
LINE
8
0
6
CONTINUOUS
10
0.084722
20
0.079771
30
0.0
11
0.084722
21
0.078557
31
0.0
0
LINE
8
0
6
CONTINUOUS
10
0.099253
20
0.074577
30
0.0
11
0.099253
21
0.076836
31
0.0
0
LINE
8
0
6
CONTINUOUS
10
0.098202
20
0.074038
30
0.0
11
0.099253
21
0.074577
31
0.0
0
LINE
8
0
6
CONTINUOUS
10
0.098202
20
0.075020
30
0.0
11
0.098202
21
0.074038
31
0.0
0
LINE
8
0
6
CONTINUOUS
10
0.100875
20
0.074459
30
0.0
11
0.101447
21
0.073802
31
0.0
0
LINE
8
0
6
CONTINUOUS
10
0.100875
20
0.075528
30
0.0
11
0.100875
21
0.074459
31
0.0
0
LINE
8
0
6
CONTINUOUS
10
0.098319
20
0.079450
30
0.0
11
0.099370
21
0.079990
31
0.0
0
LINE
8
0
6
CONTINUOUS
10
0.098319
20
0.080441
30
0.0
11
0.098319
21
0.079450
31
0.0
0
LINE
8
0
6
CONTINUOUS
10
0.100993
20
0.079872
30
0.0
11
0.101564
21
0.079215
31
0.0
0
LINE
8
0
6
CONTINUOUS
10
0.099370
20
0.079990
30
0.0
11
0.100993
21
0.079872
31
0.0
0
LINE
8
0
6
CONTINUOUS
10
0.099370
20
0.081149
30
0.0
11
0.099370
21
0.079990
31
0.0
0
LINE
8
0
6
CONTINUOUS
10
0.085810
20
0.057709
30
0.0
11
0.086101
21
0.057019
31
0.0
0
LINE
8
0
6
CONTINUOUS
10
0.084262
20
0.057947
30
0.0
11
0.085810
21
0.057709
31
0.0
0
LINE
8
0
6
CONTINUOUS
10
0.083004
20
0.057494
30
0.0
11
0.084262
21
0.057947
31
0.0
0
LINE
8
0
6
CONTINUOUS
10
0.083004
20
0.058561
30
0.0
11
0.083004
21
0.057494
31
0.0
0
LINE
8
0
6
CONTINUOUS
10
0.074382
20
0.062765
30
0.0
11
0.074673
21
0.062075
31
0.0
0
LINE
8
0
6
CONTINUOUS
10
0.072834
20
0.063003
30
0.0
11
0.074382
21
0.062765
31
0.0
0
LINE
8
0
6
CONTINUOUS
10
0.071576
20
0.062551
30
0.0
11
0.072834
21
0.063003
31
0.0
0
LINE
8
0
6
CONTINUOUS
10
0.071576
20
0.063710
30
0.0
11
0.071576
21
0.062551
31
0.0
0
LINE
8
0
6
CONTINUOUS
10
0.083396
20
0.047001
30
0.0
11
0.084653
21
0.047453
31
0.0
0
LINE
8
0
6
CONTINUOUS
10
0.083396
20
0.047928
30
0.0
11
0.083396
21
0.047001
31
0.0
0
LINE
8
0
6
CONTINUOUS
10
0.098485
20
0.045370
30
0.0
11
0.099743
21
0.045823
31
0.0
0
LINE
8
0
6
CONTINUOUS
10
0.098485
20
0.046298
30
0.0
11
0.098485
21
0.045370
31
0.0
0
LINE
8
0
6
CONTINUOUS
10
0.087882
20
0.052501
30
0.0
11
0.088173
21
0.051810
31
0.0
0
LINE
8
0
6
CONTINUOUS
10
0.086334
20
0.052738
30
0.0
11
0.087882
21
0.052501
31
0.0
0
LINE
8
0
6
CONTINUOUS
10
0.085076
20
0.052286
30
0.0
11
0.086334
21
0.052738
31
0.0
0
LINE
8
0
6
CONTINUOUS
10
0.085076
20
0.053262
30
0.0
11
0.085076
21
0.052286
31
0.0
0
LINE
8
0
6
CONTINUOUS
10
0.067692
20
0.056645
30
0.0
11
0.067692
21
0.057641
31
0.0
0
LINE
8
0
6
CONTINUOUS
10
0.067401
20
0.055955
30
0.0
11
0.067692
21
0.056645
31
0.0
0
LINE
8
0
6
CONTINUOUS
10
0.067401
20
0.057140
30
0.0
11
0.067401
21
0.055955
31
0.0
0
LINE
8
0
6
CONTINUOUS
10
0.078373
20
0.056652
30
0.0
11
0.078373
21
0.057314
31
0.0
0
LINE
8
0
6
CONTINUOUS
10
0.077115
20
0.057105
30
0.0
11
0.078373
21
0.056652
31
0.0
0
LINE
8
0
6
CONTINUOUS
10
0.077115
20
0.057105
30
0.0
11
0.077115
21
0.057825
31
0.0
0
LINE
8
0
6
CONTINUOUS
10
0.075567
20
0.056867
30
0.0
11
0.077115
21
0.057105
31
0.0
0
LINE
8
0
6
CONTINUOUS
10
0.075567
20
0.056867
30
0.0
11
0.075567
21
0.057803
31
0.0
0
LINE
8
0
6
CONTINUOUS
10
0.075276
20
0.056177
30
0.0
11
0.075567
21
0.056867
31
0.0
0
LINE
8
0
6
CONTINUOUS
10
0.075276
20
0.057288
30
0.0
11
0.075276
21
0.056177
31
0.0
0
LINE
8
0
6
CONTINUOUS
10
0.077959
20
0.051318
30
0.0
11
0.077959
21
0.052307
31
0.0
0
LINE
8
0
6
CONTINUOUS
10
0.077668
20
0.050628
30
0.0
11
0.077959
21
0.051318
31
0.0
0
LINE
8
0
6
CONTINUOUS
10
0.077668
20
0.051847
30
0.0
11
0.077668
21
0.050628
31
0.0
0
LINE
8
0
6
CONTINUOUS
10
0.072720
20
0.050954
30
0.0
11
0.072720
21
0.051412
31
0.0
0
LINE
8
0
6
CONTINUOUS
10
0.071463
20
0.051407
30
0.0
11
0.072720
21
0.050954
31
0.0
0
LINE
8
0
6
CONTINUOUS
10
0.071463
20
0.051407
30
0.0
11
0.071463
21
0.051945
31
0.0
0
LINE
8
0
6
CONTINUOUS
10
0.069915
20
0.051169
30
0.0
11
0.071463
21
0.051407
31
0.0
0
LINE
8
0
6
CONTINUOUS
10
0.069915
20
0.051169
30
0.0
11
0.069915
21
0.052155
31
0.0
0
LINE
8
0
6
CONTINUOUS
10
0.069624
20
0.050479
30
0.0
11
0.069915
21
0.051169
31
0.0
0
LINE
8
0
6
CONTINUOUS
10
0.069624
20
0.051827
30
0.0
11
0.069624
21
0.050479
31
0.0
0
LINE
8
0
6
CONTINUOUS
10
0.062543
20
0.056635
30
0.0
11
0.062543
21
0.057085
31
0.0
0
LINE
8
0
6
CONTINUOUS
10
0.061286
20
0.057087
30
0.0
11
0.062543
21
0.056635
31
0.0
0
LINE
8
0
6
CONTINUOUS
10
0.061286
20
0.057087
30
0.0
11
0.061286
21
0.057706
31
0.0
0
LINE
8
0
6
CONTINUOUS
10
0.059737
20
0.056850
30
0.0
11
0.061286
21
0.057087
31
0.0
0
LINE
8
0
6
CONTINUOUS
10
0.059737
20
0.056850
30
0.0
11
0.059737
21
0.057891
31
0.0
0
LINE
8
0
6
CONTINUOUS
10
0.059446
20
0.056159
30
0.0
11
0.059737
21
0.056850
31
0.0
0
LINE
8
0
6
CONTINUOUS
10
0.059446
20
0.057468
30
0.0
11
0.059446
21
0.056159
31
0.0
0
LINE
8
0
6
CONTINUOUS
10
0.093289
20
0.059130
30
0.0
11
0.093580
21
0.058440
31
0.0
0
LINE
8
0
6
CONTINUOUS
10
0.091741
20
0.059367
30
0.0
11
0.093289
21
0.059130
31
0.0
0
LINE
8
0
6
CONTINUOUS
10
0.090483
20
0.058915
30
0.0
11
0.091741
21
0.059367
31
0.0
0
LINE
8
0
6
CONTINUOUS
10
0.090483
20
0.059844
30
0.0
11
0.090483
21
0.058915
31
0.0
0
LINE
8
0
6
CONTINUOUS
10
0.091197
20
0.048165
30
0.0
11
0.092454
21
0.048618
31
0.0
0
LINE
8
0
6
CONTINUOUS
10
0.091197
20
0.049030
30
0.0
11
0.091197
21
0.048165
31
0.0
0
LINE
8
0
6
CONTINUOUS
10
0.101228
20
0.050566
30
0.0
11
0.101519
21
0.049876
31
0.0
0
LINE
8
0
6
CONTINUOUS
10
0.099680
20
0.050803
30
0.0
11
0.101228
21
0.050566
31
0.0
0
LINE
8
0
6
CONTINUOUS
10
0.098422
20
0.050351
30
0.0
11
0.099680
21
0.050803
31
0.0
0
LINE
8
0
6
CONTINUOUS
10
0.098422
20
0.051236
30
0.0
11
0.098422
21
0.050351
31
0.0
0
LINE
8
0
6
CONTINUOUS
10
0.095066
20
0.054364
30
0.0
11
0.095357
21
0.053674
31
0.0
0
LINE
8
0
6
CONTINUOUS
10
0.093517
20
0.054602
30
0.0
11
0.095066
21
0.054364
31
0.0
0
LINE
8
0
6
CONTINUOUS
10
0.092260
20
0.054149
30
0.0
11
0.093517
21
0.054602
31
0.0
0
LINE
8
0
6
CONTINUOUS
10
0.092260
20
0.055043
30
0.0
11
0.092260
21
0.054149
31
0.0
0
LINE
8
0
6
CONTINUOUS
10
0.101480
20
0.056781
30
0.0
11
0.101771
21
0.056091
31
0.0
0
LINE
8
0
6
CONTINUOUS
10
0.099931
20
0.057019
30
0.0
11
0.101480
21
0.056781
31
0.0
0
LINE
8
0
6
CONTINUOUS
10
0.098674
20
0.056566
30
0.0
11
0.099931
21
0.057019
31
0.0
0
LINE
8
0
6
CONTINUOUS
10
0.098674
20
0.057508
30
0.0
11
0.098674
21
0.056566
31
0.0
0
LINE
8
0
6
CONTINUOUS
10
0.098501
20
0.069165
30
0.0
11
0.099385
21
0.069757
31
0.0
0
LINE
8
0
6
CONTINUOUS
10
0.098501
20
0.070122
30
0.0
11
0.098501
21
0.069165
31
0.0
0
LINE
8
0
6
CONTINUOUS
10
0.101029
20
0.069727
30
0.0
11
0.101029
21
0.070743
31
0.0
0
LINE
8
0
6
CONTINUOUS
10
0.099385
20
0.069757
30
0.0
11
0.101029
21
0.069727
31
0.0
0
LINE
8
0
6
CONTINUOUS
10
0.099385
20
0.070808
30
0.0
11
0.099385
21
0.069757
31
0.0
0
LINE
8
0
6
CONTINUOUS
10
0.057395
20
0.063019
30
0.0
11
0.057395
21
0.063504
31
0.0
0
LINE
8
0
6
CONTINUOUS
10
0.056138
20
0.063472
30
0.0
11
0.057395
21
0.063019
31
0.0
0
LINE
8
0
6
CONTINUOUS
10
0.056138
20
0.064185
30
0.0
11
0.056138
21
0.063472
31
0.0
0
LINE
8
0
6
CONTINUOUS
10
0.054590
20
0.063234
30
0.0
11
0.054590
21
0.064342
31
0.0
0
LINE
8
0
6
CONTINUOUS
10
0.054298
20
0.062544
30
0.0
11
0.054590
21
0.063234
31
0.0
0
LINE
8
0
6
CONTINUOUS
10
0.054298
20
0.063819
30
0.0
11
0.054298
21
0.062544
31
0.0
0
LINE
8
0
6
CONTINUOUS
10
0.099671
20
0.084019
30
0.0
11
0.101277
21
0.084172
31
0.0
0
LINE
8
0
6
CONTINUOUS
10
0.098557
20
0.084535
30
0.0
11
0.099671
21
0.084019
31
0.0
0
LINE
8
0
6
CONTINUOUS
10
0.099049
20
0.085205
30
0.0
11
0.098557
21
0.084535
31
0.0
0
LINE
8
0
6
CONTINUOUS
10
0.100655
20
0.085358
30
0.0
11
0.099049
21
0.085205
31
0.0
0
LINE
8
0
6
CONTINUOUS
10
0.101769
20
0.084841
30
0.0
11
0.100655
21
0.085358
31
0.0
0
LINE
8
0
6
CONTINUOUS
10
0.101277
20
0.084172
30
0.0
11
0.101769
21
0.084841
31
0.0
0
LINE
8
0
6
CONTINUOUS
10
0.143983
20
0.068432
30
0.0
11
0.145531
21
0.068670
31
0.0
0
LINE
8
0
6
CONTINUOUS
10
0.142725
20
0.068885
30
0.0
11
0.143983
21
0.068432
31
0.0
0
LINE
8
0
6
CONTINUOUS
10
0.143016
20
0.069575
30
0.0
11
0.142725
21
0.068885
31
0.0
0
LINE
8
0
6
CONTINUOUS
10
0.144565
20
0.069812
30
0.0
11
0.143016
21
0.069575
31
0.0
0
LINE
8
0
6
CONTINUOUS
10
0.145822
20
0.069360
30
0.0
11
0.144565
21
0.069812
31
0.0
0
LINE
8
0
6
CONTINUOUS
10
0.145531
20
0.068670
30
0.0
11
0.145822
21
0.069360
31
0.0
0
LINE
8
0
6
CONTINUOUS
10
0.086201
20
0.047216
30
0.0
11
0.084653
21
0.047453
31
0.0
0
LINE
8
0
6
CONTINUOUS
10
0.086492
20
0.046525
30
0.0
11
0.086201
21
0.047216
31
0.0
0
LINE
8
0
6
CONTINUOUS
10
0.085235
20
0.046073
30
0.0
11
0.086492
21
0.046525
31
0.0
0
LINE
8
0
6
CONTINUOUS
10
0.083687
20
0.046311
30
0.0
11
0.085235
21
0.046073
31
0.0
0
LINE
8
0
6
CONTINUOUS
10
0.083396
20
0.047001
30
0.0
11
0.083687
21
0.046311
31
0.0
0
LINE
8
0
6
CONTINUOUS
10
0.084653
20
0.047453
30
0.0
11
0.083396
21
0.047001
31
0.0
0
LINE
8
0
6
CONTINUOUS
10
0.085782
20
0.071767
30
0.0
11
0.087426
21
0.071797
31
0.0
0
LINE
8
0
6
CONTINUOUS
10
0.084898
20
0.072358
30
0.0
11
0.085782
21
0.071767
31
0.0
0
LINE
8
0
6
CONTINUOUS
10
0.085658
20
0.072980
30
0.0
11
0.084898
21
0.072358
31
0.0
0
LINE
8
0
6
CONTINUOUS
10
0.087303
20
0.073011
30
0.0
11
0.085658
21
0.072980
31
0.0
0
LINE
8
0
6
CONTINUOUS
10
0.088187
20
0.072419
30
0.0
11
0.087303
21
0.073011
31
0.0
0
LINE
8
0
6
CONTINUOUS
10
0.087426
20
0.071797
30
0.0
11
0.088187
21
0.072419
31
0.0
0
LINE
8
0
6
CONTINUOUS
10
0.076533
20
0.055724
30
0.0
11
0.078082
21
0.055962
31
0.0
0
LINE
8
0
6
CONTINUOUS
10
0.075276
20
0.056177
30
0.0
11
0.076533
21
0.055724
31
0.0
0
LINE
8
0
6
CONTINUOUS
10
0.075567
20
0.056867
30
0.0
11
0.075276
21
0.056177
31
0.0
0
LINE
8
0
6
CONTINUOUS
10
0.077115
20
0.057105
30
0.0
11
0.075567
21
0.056867
31
0.0
0
LINE
8
0
6
CONTINUOUS
10
0.078373
20
0.056652
30
0.0
11
0.077115
21
0.057105
31
0.0
0
LINE
8
0
6
CONTINUOUS
10
0.078082
20
0.055962
30
0.0
11
0.078373
21
0.056652
31
0.0
0
LINE
8
0
6
CONTINUOUS
10
0.086916
20
0.051358
30
0.0
11
0.088173
21
0.051810
31
0.0
0
LINE
8
0
6
CONTINUOUS
10
0.085367
20
0.051596
30
0.0
11
0.086916
21
0.051358
31
0.0
0
LINE
8
0
6
CONTINUOUS
10
0.085076
20
0.052286
30
0.0
11
0.085367
21
0.051596
31
0.0
0
LINE
8
0
6
CONTINUOUS
10
0.086334
20
0.052738
30
0.0
11
0.085076
21
0.052286
31
0.0
0
LINE
8
0
6
CONTINUOUS
10
0.087882
20
0.052501
30
0.0
11
0.086334
21
0.052738
31
0.0
0
LINE
8
0
6
CONTINUOUS
10
0.088173
20
0.051810
30
0.0
11
0.087882
21
0.052501
31
0.0
0
LINE
8
0
6
CONTINUOUS
10
0.108163
20
0.061821
30
0.0
11
0.109540
21
0.062205
31
0.0
0
LINE
8
0
6
CONTINUOUS
10
0.106694
20
0.062137
30
0.0
11
0.108163
21
0.061821
31
0.0
0
LINE
8
0
6
CONTINUOUS
10
0.106602
20
0.062837
30
0.0
11
0.106694
21
0.062137
31
0.0
0
LINE
8
0
6
CONTINUOUS
10
0.107979
20
0.063221
30
0.0
11
0.106602
21
0.062837
31
0.0
0
LINE
8
0
6
CONTINUOUS
10
0.109448
20
0.062905
30
0.0
11
0.107979
21
0.063221
31
0.0
0
LINE
8
0
6
CONTINUOUS
10
0.109540
20
0.062205
30
0.0
11
0.109448
21
0.062905
31
0.0
0
LINE
8
0
6
CONTINUOUS
10
0.061430
20
0.076262
30
0.0
11
0.059961
21
0.075946
31
0.0
0
LINE
8
0
6
CONTINUOUS
10
0.062807
20
0.075878
30
0.0
11
0.061430
21
0.076262
31
0.0
0
LINE
8
0
6
CONTINUOUS
10
0.062715
20
0.075178
30
0.0
11
0.062807
21
0.075878
31
0.0
0
LINE
8
0
6
CONTINUOUS
10
0.061246
20
0.074861
30
0.0
11
0.062715
21
0.075178
31
0.0
0
LINE
8
0
6
CONTINUOUS
10
0.059868
20
0.075246
30
0.0
11
0.061246
21
0.074861
31
0.0
0
LINE
8
0
6
CONTINUOUS
10
0.059961
20
0.075946
30
0.0
11
0.059868
21
0.075246
31
0.0
0
LINE
8
0
6
CONTINUOUS
10
0.124724
20
0.056767
30
0.0
11
0.123176
21
0.057004
31
0.0
0
LINE
8
0
6
CONTINUOUS
10
0.125015
20
0.056076
30
0.0
11
0.124724
21
0.056767
31
0.0
0
LINE
8
0
6
CONTINUOUS
10
0.123758
20
0.055624
30
0.0
11
0.125015
21
0.056076
31
0.0
0
LINE
8
0
6
CONTINUOUS
10
0.122209
20
0.055862
30
0.0
11
0.123758
21
0.055624
31
0.0
0
LINE
8
0
6
CONTINUOUS
10
0.121918
20
0.056552
30
0.0
11
0.122209
21
0.055862
31
0.0
0
LINE
8
0
6
CONTINUOUS
10
0.123176
20
0.057004
30
0.0
11
0.121918
21
0.056552
31
0.0
0
LINE
8
0
6
CONTINUOUS
10
0.074417
20
0.073787
30
0.0
11
0.074853
21
0.074463
31
0.0
0
LINE
8
0
6
CONTINUOUS
10
0.072824
20
0.073610
30
0.0
11
0.074417
21
0.073787
31
0.0
0
LINE
8
0
6
CONTINUOUS
10
0.071668
20
0.074109
30
0.0
11
0.072824
21
0.073610
31
0.0
0
LINE
8
0
6
CONTINUOUS
10
0.072104
20
0.074785
30
0.0
11
0.071668
21
0.074109
31
0.0
0
LINE
8
0
6
CONTINUOUS
10
0.073697
20
0.074963
30
0.0
11
0.072104
21
0.074785
31
0.0
0
LINE
8
0
6
CONTINUOUS
10
0.074853
20
0.074463
30
0.0
11
0.073697
21
0.074963
31
0.0
0
LINE
8
0
6
CONTINUOUS
10
0.107837
20
0.048552
30
0.0
11
0.106288
21
0.048315
31
0.0
0
LINE
8
0
6
CONTINUOUS
10
0.109094
20
0.048100
30
0.0
11
0.107837
21
0.048552
31
0.0
0
LINE
8
0
6
CONTINUOUS
10
0.108803
20
0.047410
30
0.0
11
0.109094
21
0.048100
31
0.0
0
LINE
8
0
6
CONTINUOUS
10
0.107254
20
0.047172
30
0.0
11
0.108803
21
0.047410
31
0.0
0
LINE
8
0
6
CONTINUOUS
10
0.105997
20
0.047624
30
0.0
11
0.107254
21
0.047172
31
0.0
0
LINE
8
0
6
CONTINUOUS
10
0.106288
20
0.048315
30
0.0
11
0.105997
21
0.047624
31
0.0
0
LINE
8
0
6
CONTINUOUS
10
0.092128
20
0.061854
30
0.0
11
0.093597
21
0.062170
31
0.0
0
LINE
8
0
6
CONTINUOUS
10
0.090751
20
0.062238
30
0.0
11
0.092128
21
0.061854
31
0.0
0
LINE
8
0
6
CONTINUOUS
10
0.090843
20
0.062938
30
0.0
11
0.090751
21
0.062238
31
0.0
0
LINE
8
0
6
CONTINUOUS
10
0.092312
20
0.063254
30
0.0
11
0.090843
21
0.062938
31
0.0
0
LINE
8
0
6
CONTINUOUS
10
0.093689
20
0.062870
30
0.0
11
0.092312
21
0.063254
31
0.0
0
LINE
8
0
6
CONTINUOUS
10
0.093597
20
0.062170
30
0.0
11
0.093689
21
0.062870
31
0.0
0
LINE
8
0
6
CONTINUOUS
10
0.126875
20
0.061499
30
0.0
11
0.128423
21
0.061736
31
0.0
0
LINE
8
0
6
CONTINUOUS
10
0.125618
20
0.061951
30
0.0
11
0.126875
21
0.061499
31
0.0
0
LINE
8
0
6
CONTINUOUS
10
0.125909
20
0.062641
30
0.0
11
0.125618
21
0.061951
31
0.0
0
LINE
8
0
6
CONTINUOUS
10
0.127457
20
0.062879
30
0.0
11
0.125909
21
0.062641
31
0.0
0
LINE
8
0
6
CONTINUOUS
10
0.128715
20
0.062426
30
0.0
11
0.127457
21
0.062879
31
0.0
0
LINE
8
0
6
CONTINUOUS
10
0.128423
20
0.061736
30
0.0
11
0.128715
21
0.062426
31
0.0
0
LINE
8
0
6
CONTINUOUS
10
0.119458
20
0.062891
30
0.0
11
0.117989
21
0.063207
31
0.0
0
LINE
8
0
6
CONTINUOUS
10
0.119551
20
0.062191
30
0.0
11
0.119458
21
0.062891
31
0.0
0
LINE
8
0
6
CONTINUOUS
10
0.118174
20
0.061807
30
0.0
11
0.119551
21
0.062191
31
0.0
0
LINE
8
0
6
CONTINUOUS
10
0.116704
20
0.062123
30
0.0
11
0.118174
21
0.061807
31
0.0
0
LINE
8
0
6
CONTINUOUS
10
0.116612
20
0.062823
30
0.0
11
0.116704
21
0.062123
31
0.0
0
LINE
8
0
6
CONTINUOUS
10
0.117989
20
0.063207
30
0.0
11
0.116612
21
0.062823
31
0.0
0
LINE
8
0
6
CONTINUOUS
10
0.100875
20
0.074459
30
0.0
11
0.099253
21
0.074577
31
0.0
0
LINE
8
0
6
CONTINUOUS
10
0.101447
20
0.073802
30
0.0
11
0.100875
21
0.074459
31
0.0
0
LINE
8
0
6
CONTINUOUS
10
0.100396
20
0.073262
30
0.0
11
0.101447
21
0.073802
31
0.0
0
LINE
8
0
6
CONTINUOUS
10
0.098774
20
0.073380
30
0.0
11
0.100396
21
0.073262
31
0.0
0
LINE
8
0
6
CONTINUOUS
10
0.098202
20
0.074038
30
0.0
11
0.098774
21
0.073380
31
0.0
0
LINE
8
0
6
CONTINUOUS
10
0.099253
20
0.074577
30
0.0
11
0.098202
21
0.074038
31
0.0
0
LINE
8
0
6
CONTINUOUS
10
0.085810
20
0.057709
30
0.0
11
0.084262
21
0.057947
31
0.0
0
LINE
8
0
6
CONTINUOUS
10
0.086101
20
0.057019
30
0.0
11
0.085810
21
0.057709
31
0.0
0
LINE
8
0
6
CONTINUOUS
10
0.084844
20
0.056566
30
0.0
11
0.086101
21
0.057019
31
0.0
0
LINE
8
0
6
CONTINUOUS
10
0.083295
20
0.056804
30
0.0
11
0.084844
21
0.056566
31
0.0
0
LINE
8
0
6
CONTINUOUS
10
0.083004
20
0.057494
30
0.0
11
0.083295
21
0.056804
31
0.0
0
LINE
8
0
6
CONTINUOUS
10
0.084262
20
0.057947
30
0.0
11
0.083004
21
0.057494
31
0.0
0
LINE
8
0
6
CONTINUOUS
10
0.112988
20
0.072967
30
0.0
11
0.112105
21
0.072376
31
0.0
0
LINE
8
0
6
CONTINUOUS
10
0.114633
20
0.072937
30
0.0
11
0.112988
21
0.072967
31
0.0
0
LINE
8
0
6
CONTINUOUS
10
0.115393
20
0.072315
30
0.0
11
0.114633
21
0.072937
31
0.0
0
LINE
8
0
6
CONTINUOUS
10
0.114509
20
0.071724
30
0.0
11
0.115393
21
0.072315
31
0.0
0
LINE
8
0
6
CONTINUOUS
10
0.112865
20
0.071754
30
0.0
11
0.114509
21
0.071724
31
0.0
0
LINE
8
0
6
CONTINUOUS
10
0.112105
20
0.072376
30
0.0
11
0.112865
21
0.071754
31
0.0
0
LINE
8
0
6
CONTINUOUS
10
0.085981
20
0.084322
30
0.0
11
0.084359
21
0.084440
31
0.0
0
LINE
8
0
6
CONTINUOUS
10
0.086553
20
0.083665
30
0.0
11
0.085981
21
0.084322
31
0.0
0
LINE
8
0
6
CONTINUOUS
10
0.085502
20
0.083125
30
0.0
11
0.086553
21
0.083665
31
0.0
0
LINE
8
0
6
CONTINUOUS
10
0.083880
20
0.083243
30
0.0
11
0.085502
21
0.083125
31
0.0
0
LINE
8
0
6
CONTINUOUS
10
0.083308
20
0.083900
30
0.0
11
0.083880
21
0.083243
31
0.0
0
LINE
8
0
6
CONTINUOUS
10
0.084359
20
0.084440
30
0.0
11
0.083308
21
0.083900
31
0.0
0
LINE
8
0
6
CONTINUOUS
10
0.067045
20
0.068489
30
0.0
11
0.067137
21
0.069189
31
0.0
0
LINE
8
0
6
CONTINUOUS
10
0.065576
20
0.068173
30
0.0
11
0.067045
21
0.068489
31
0.0
0
LINE
8
0
6
CONTINUOUS
10
0.064199
20
0.068557
30
0.0
11
0.065576
21
0.068173
31
0.0
0
LINE
8
0
6
CONTINUOUS
10
0.064291
20
0.069257
30
0.0
11
0.064199
21
0.068557
31
0.0
0
LINE
8
0
6
CONTINUOUS
10
0.065760
20
0.069573
30
0.0
11
0.064291
21
0.069257
31
0.0
0
LINE
8
0
6
CONTINUOUS
10
0.067137
20
0.069189
30
0.0
11
0.065760
21
0.069573
31
0.0
0
LINE
8
0
6
CONTINUOUS
10
0.126594
20
0.074817
30
0.0
11
0.125438
21
0.074318
31
0.0
0
LINE
8
0
6
CONTINUOUS
10
0.128187
20
0.074640
30
0.0
11
0.126594
21
0.074817
31
0.0
0
LINE
8
0
6
CONTINUOUS
10
0.128623
20
0.073964
30
0.0
11
0.128187
21
0.074640
31
0.0
0
LINE
8
0
6
CONTINUOUS
10
0.127467
20
0.073465
30
0.0
11
0.128623
21
0.073964
31
0.0
0
LINE
8
0
6
CONTINUOUS
10
0.125874
20
0.073642
30
0.0
11
0.127467
21
0.073465
31
0.0
0
LINE
8
0
6
CONTINUOUS
10
0.125438
20
0.074318
30
0.0
11
0.125874
21
0.073642
31
0.0
0
LINE
8
0
6
CONTINUOUS
10
0.093517
20
0.054602
30
0.0
11
0.092260
21
0.054149
31
0.0
0
LINE
8
0
6
CONTINUOUS
10
0.095066
20
0.054364
30
0.0
11
0.093517
21
0.054602
31
0.0
0
LINE
8
0
6
CONTINUOUS
10
0.095357
20
0.053674
30
0.0
11
0.095066
21
0.054364
31
0.0
0
LINE
8
0
6
CONTINUOUS
10
0.094100
20
0.053222
30
0.0
11
0.095357
21
0.053674
31
0.0
0
LINE
8
0
6
CONTINUOUS
10
0.092551
20
0.053459
30
0.0
11
0.094100
21
0.053222
31
0.0
0
LINE
8
0
6
CONTINUOUS
10
0.092260
20
0.054149
30
0.0
11
0.092551
21
0.053459
31
0.0
0
LINE
8
0
6
CONTINUOUS
10
0.056138
20
0.063472
30
0.0
11
0.054590
21
0.063234
31
0.0
0
LINE
8
0
6
CONTINUOUS
10
0.057395
20
0.063019
30
0.0
11
0.056138
21
0.063472
31
0.0
0
LINE
8
0
6
CONTINUOUS
10
0.057104
20
0.062329
30
0.0
11
0.057395
21
0.063019
31
0.0
0
LINE
8
0
6
CONTINUOUS
10
0.055556
20
0.062091
30
0.0
11
0.057104
21
0.062329
31
0.0
0
LINE
8
0
6
CONTINUOUS
10
0.054298
20
0.062544
30
0.0
11
0.055556
21
0.062091
31
0.0
0
LINE
8
0
6
CONTINUOUS
10
0.054590
20
0.063234
30
0.0
11
0.054298
21
0.062544
31
0.0
0
LINE
8
0
6
CONTINUOUS
10
0.116411
20
0.083163
30
0.0
11
0.116983
21
0.083821
31
0.0
0
LINE
8
0
6
CONTINUOUS
10
0.114789
20
0.083045
30
0.0
11
0.116411
21
0.083163
31
0.0
0
LINE
8
0
6
CONTINUOUS
10
0.113738
20
0.083585
30
0.0
11
0.114789
21
0.083045
31
0.0
0
LINE
8
0
6
CONTINUOUS
10
0.114310
20
0.084242
30
0.0
11
0.113738
21
0.083585
31
0.0
0
LINE
8
0
6
CONTINUOUS
10
0.115932
20
0.084360
30
0.0
11
0.114310
21
0.084242
31
0.0
0
LINE
8
0
6
CONTINUOUS
10
0.116983
20
0.083821
30
0.0
11
0.115932
21
0.084360
31
0.0
0
LINE
8
0
6
CONTINUOUS
10
0.100513
20
0.078675
30
0.0
11
0.101564
21
0.079215
31
0.0
0
LINE
8
0
6
CONTINUOUS
10
0.098891
20
0.078793
30
0.0
11
0.100513
21
0.078675
31
0.0
0
LINE
8
0
6
CONTINUOUS
10
0.098319
20
0.079450
30
0.0
11
0.098891
21
0.078793
31
0.0
0
LINE
8
0
6
CONTINUOUS
10
0.099370
20
0.079990
30
0.0
11
0.098319
21
0.079450
31
0.0
0
LINE
8
0
6
CONTINUOUS
10
0.100993
20
0.079872
30
0.0
11
0.099370
21
0.079990
31
0.0
0
LINE
8
0
6
CONTINUOUS
10
0.101564
20
0.079215
30
0.0
11
0.100993
21
0.079872
31
0.0
0
LINE
8
0
6
CONTINUOUS
10
0.131633
20
0.055383
30
0.0
11
0.132890
21
0.055835
31
0.0
0
LINE
8
0
6
CONTINUOUS
10
0.130084
20
0.055620
30
0.0
11
0.131633
21
0.055383
31
0.0
0
LINE
8
0
6
CONTINUOUS
10
0.129793
20
0.056311
30
0.0
11
0.130084
21
0.055620
31
0.0
0
LINE
8
0
6
CONTINUOUS
10
0.131050
20
0.056763
30
0.0
11
0.129793
21
0.056311
31
0.0
0
LINE
8
0
6
CONTINUOUS
10
0.132599
20
0.056526
30
0.0
11
0.131050
21
0.056763
31
0.0
0
LINE
8
0
6
CONTINUOUS
10
0.132890
20
0.055835
30
0.0
11
0.132599
21
0.056526
31
0.0
0
LINE
8
0
6
CONTINUOUS
10
0.101291
20
0.045585
30
0.0
11
0.099743
21
0.045823
31
0.0
0
LINE
8
0
6
CONTINUOUS
10
0.101582
20
0.044895
30
0.0
11
0.101291
21
0.045585
31
0.0
0
LINE
8
0
6
CONTINUOUS
10
0.100325
20
0.044443
30
0.0
11
0.101582
21
0.044895
31
0.0
0
LINE
8
0
6
CONTINUOUS
10
0.098777
20
0.044680
30
0.0
11
0.100325
21
0.044443
31
0.0
0
LINE
8
0
6
CONTINUOUS
10
0.098485
20
0.045370
30
0.0
11
0.098777
21
0.044680
31
0.0
0
LINE
8
0
6
CONTINUOUS
10
0.099743
20
0.045823
30
0.0
11
0.098485
21
0.045370
31
0.0
0
LINE
8
0
6
CONTINUOUS
10
0.116029
20
0.057865
30
0.0
11
0.114481
21
0.057627
31
0.0
0
LINE
8
0
6
CONTINUOUS
10
0.117287
20
0.057412
30
0.0
11
0.116029
21
0.057865
31
0.0
0
LINE
8
0
6
CONTINUOUS
10
0.116996
20
0.056722
30
0.0
11
0.117287
21
0.057412
31
0.0
0
LINE
8
0
6
CONTINUOUS
10
0.115447
20
0.056485
30
0.0
11
0.116996
21
0.056722
31
0.0
0
LINE
8
0
6
CONTINUOUS
10
0.114190
20
0.056937
30
0.0
11
0.115447
21
0.056485
31
0.0
0
LINE
8
0
6
CONTINUOUS
10
0.114481
20
0.057627
30
0.0
11
0.114190
21
0.056937
31
0.0
0
LINE
8
0
6
CONTINUOUS
10
0.056309
20
0.068630
30
0.0
11
0.057566
21
0.069082
31
0.0
0
LINE
8
0
6
CONTINUOUS
10
0.054760
20
0.068867
30
0.0
11
0.056309
21
0.068630
31
0.0
0
LINE
8
0
6
CONTINUOUS
10
0.054469
20
0.069557
30
0.0
11
0.054760
21
0.068867
31
0.0
0
LINE
8
0
6
CONTINUOUS
10
0.055726
20
0.070010
30
0.0
11
0.054469
21
0.069557
31
0.0
0
LINE
8
0
6
CONTINUOUS
10
0.057275
20
0.069772
30
0.0
11
0.055726
21
0.070010
31
0.0
0
LINE
8
0
6
CONTINUOUS
10
0.057566
20
0.069082
30
0.0
11
0.057275
21
0.069772
31
0.0
0
LINE
8
0
6
CONTINUOUS
10
0.099680
20
0.050803
30
0.0
11
0.098422
21
0.050351
31
0.0
0
LINE
8
0
6
CONTINUOUS
10
0.101228
20
0.050566
30
0.0
11
0.099680
21
0.050803
31
0.0
0
LINE
8
0
6
CONTINUOUS
10
0.101519
20
0.049876
30
0.0
11
0.101228
21
0.050566
31
0.0
0
LINE
8
0
6
CONTINUOUS
10
0.100262
20
0.049423
30
0.0
11
0.101519
21
0.049876
31
0.0
0
LINE
8
0
6
CONTINUOUS
10
0.098713
20
0.049661
30
0.0
11
0.100262
21
0.049423
31
0.0
0
LINE
8
0
6
CONTINUOUS
10
0.098422
20
0.050351
30
0.0
11
0.098713
21
0.049661
31
0.0
0
LINE
8
0
6
CONTINUOUS
10
0.101029
20
0.069727
30
0.0
11
0.099385
21
0.069757
31
0.0
0
LINE
8
0
6
CONTINUOUS
10
0.101790
20
0.069105
30
0.0
11
0.101029
21
0.069727
31
0.0
0
LINE
8
0
6
CONTINUOUS
10
0.100906
20
0.068513
30
0.0
11
0.101790
21
0.069105
31
0.0
0
LINE
8
0
6
CONTINUOUS
10
0.099262
20
0.068543
30
0.0
11
0.100906
21
0.068513
31
0.0
0
LINE
8
0
6
CONTINUOUS
10
0.098501
20
0.069165
30
0.0
11
0.099262
21
0.068543
31
0.0
0
LINE
8
0
6
CONTINUOUS
10
0.099385
20
0.069757
30
0.0
11
0.098501
21
0.069165
31
0.0
0
LINE
8
0
6
CONTINUOUS
10
0.092323
20
0.057987
30
0.0
11
0.093580
21
0.058440
31
0.0
0
LINE
8
0
6
CONTINUOUS
10
0.090775
20
0.058225
30
0.0
11
0.092323
21
0.057987
31
0.0
0
LINE
8
0
6
CONTINUOUS
10
0.090483
20
0.058915
30
0.0
11
0.090775
21
0.058225
31
0.0
0
LINE
8
0
6
CONTINUOUS
10
0.091741
20
0.059367
30
0.0
11
0.090483
21
0.058915
31
0.0
0
LINE
8
0
6
CONTINUOUS
10
0.093289
20
0.059130
30
0.0
11
0.091741
21
0.059367
31
0.0
0
LINE
8
0
6
CONTINUOUS
10
0.093580
20
0.058440
30
0.0
11
0.093289
21
0.059130
31
0.0
0
LINE
8
0
6
CONTINUOUS
10
0.107968
20
0.057952
30
0.0
11
0.109516
21
0.058190
31
0.0
0
LINE
8
0
6
CONTINUOUS
10
0.106711
20
0.058405
30
0.0
11
0.107968
21
0.057952
31
0.0
0
LINE
8
0
6
CONTINUOUS
10
0.107002
20
0.059095
30
0.0
11
0.106711
21
0.058405
31
0.0
0
LINE
8
0
6
CONTINUOUS
10
0.108550
20
0.059333
30
0.0
11
0.107002
21
0.059095
31
0.0
0
LINE
8
0
6
CONTINUOUS
10
0.109808
20
0.058880
30
0.0
11
0.108550
21
0.059333
31
0.0
0
LINE
8
0
6
CONTINUOUS
10
0.109516
20
0.058190
30
0.0
11
0.109808
21
0.058880
31
0.0
0
LINE
8
0
6
CONTINUOUS
10
0.129410
20
0.049718
30
0.0
11
0.130667
21
0.050171
31
0.0
0
LINE
8
0
6
CONTINUOUS
10
0.127862
20
0.049956
30
0.0
11
0.129410
21
0.049718
31
0.0
0
LINE
8
0
6
CONTINUOUS
10
0.127570
20
0.050646
30
0.0
11
0.127862
21
0.049956
31
0.0
0
LINE
8
0
6
CONTINUOUS
10
0.128828
20
0.051099
30
0.0
11
0.127570
21
0.050646
31
0.0
0
LINE
8
0
6
CONTINUOUS
10
0.130376
20
0.050861
30
0.0
11
0.128828
21
0.051099
31
0.0
0
LINE
8
0
6
CONTINUOUS
10
0.130667
20
0.050171
30
0.0
11
0.130376
21
0.050861
31
0.0
0
LINE
8
0
6
CONTINUOUS
10
0.106191
20
0.053192
30
0.0
11
0.107740
21
0.053430
31
0.0
0
LINE
8
0
6
CONTINUOUS
10
0.104934
20
0.053645
30
0.0
11
0.106191
21
0.053192
31
0.0
0
LINE
8
0
6
CONTINUOUS
10
0.105225
20
0.054335
30
0.0
11
0.104934
21
0.053645
31
0.0
0
LINE
8
0
6
CONTINUOUS
10
0.106774
20
0.054573
30
0.0
11
0.105225
21
0.054335
31
0.0
0
LINE
8
0
6
CONTINUOUS
10
0.108031
20
0.054120
30
0.0
11
0.106774
21
0.054573
31
0.0
0
LINE
8
0
6
CONTINUOUS
10
0.107740
20
0.053430
30
0.0
11
0.108031
21
0.054120
31
0.0
0
LINE
8
0
6
CONTINUOUS
10
0.072834
20
0.063003
30
0.0
11
0.071576
21
0.062551
31
0.0
0
LINE
8
0
6
CONTINUOUS
10
0.074382
20
0.062765
30
0.0
11
0.072834
21
0.063003
31
0.0
0
LINE
8
0
6
CONTINUOUS
10
0.074673
20
0.062075
30
0.0
11
0.074382
21
0.062765
31
0.0
0
LINE
8
0
6
CONTINUOUS
10
0.073416
20
0.061623
30
0.0
11
0.074673
21
0.062075
31
0.0
0
LINE
8
0
6
CONTINUOUS
10
0.071868
20
0.061861
30
0.0
11
0.073416
21
0.061623
31
0.0
0
LINE
8
0
6
CONTINUOUS
10
0.071576
20
0.062551
30
0.0
11
0.071868
21
0.061861
31
0.0
0
LINE
8
0
6
CONTINUOUS
10
0.100514
20
0.055639
30
0.0
11
0.101771
21
0.056091
31
0.0
0
LINE
8
0
6
CONTINUOUS
10
0.098965
20
0.055876
30
0.0
11
0.100514
21
0.055639
31
0.0
0
LINE
8
0
6
CONTINUOUS
10
0.098674
20
0.056566
30
0.0
11
0.098965
21
0.055876
31
0.0
0
LINE
8
0
6
CONTINUOUS
10
0.099931
20
0.057019
30
0.0
11
0.098674
21
0.056566
31
0.0
0
LINE
8
0
6
CONTINUOUS
10
0.101480
20
0.056781
30
0.0
11
0.099931
21
0.057019
31
0.0
0
LINE
8
0
6
CONTINUOUS
10
0.101771
20
0.056091
30
0.0
11
0.101480
21
0.056781
31
0.0
0
LINE
8
0
6
CONTINUOUS
10
0.072429
20
0.050264
30
0.0
11
0.072720
21
0.050954
31
0.0
0
LINE
8
0
6
CONTINUOUS
10
0.070881
20
0.050026
30
0.0
11
0.072429
21
0.050264
31
0.0
0
LINE
8
0
6
CONTINUOUS
10
0.069624
20
0.050479
30
0.0
11
0.070881
21
0.050026
31
0.0
0
LINE
8
0
6
CONTINUOUS
10
0.069915
20
0.051169
30
0.0
11
0.069624
21
0.050479
31
0.0
0
LINE
8
0
6
CONTINUOUS
10
0.071463
20
0.051407
30
0.0
11
0.069915
21
0.051169
31
0.0
0
LINE
8
0
6
CONTINUOUS
10
0.072720
20
0.050954
30
0.0
11
0.071463
21
0.051407
31
0.0
0
LINE
8
0
6
CONTINUOUS
10
0.140331
20
0.075746
30
0.0
11
0.138861
21
0.076062
31
0.0
0
LINE
8
0
6
CONTINUOUS
10
0.140423
20
0.075046
30
0.0
11
0.140331
21
0.075746
31
0.0
0
LINE
8
0
6
CONTINUOUS
10
0.139046
20
0.074662
30
0.0
11
0.140423
21
0.075046
31
0.0
0
LINE
8
0
6
CONTINUOUS
10
0.137576
20
0.074978
30
0.0
11
0.139046
21
0.074662
31
0.0
0
LINE
8
0
6
CONTINUOUS
10
0.137484
20
0.075678
30
0.0
11
0.137576
21
0.074978
31
0.0
0
LINE
8
0
6
CONTINUOUS
10
0.138861
20
0.076062
30
0.0
11
0.137484
21
0.075678
31
0.0
0
LINE
8
0
6
CONTINUOUS
10
0.123405
20
0.069026
30
0.0
11
0.122028
21
0.068642
31
0.0
0
LINE
8
0
6
CONTINUOUS
10
0.124874
20
0.068710
30
0.0
11
0.123405
21
0.069026
31
0.0
0
LINE
8
0
6
CONTINUOUS
10
0.124966
20
0.068009
30
0.0
11
0.124874
21
0.068710
31
0.0
0
LINE
8
0
6
CONTINUOUS
10
0.123589
20
0.067625
30
0.0
11
0.124966
21
0.068009
31
0.0
0
LINE
8
0
6
CONTINUOUS
10
0.122120
20
0.067941
30
0.0
11
0.123589
21
0.067625
31
0.0
0
LINE
8
0
6
CONTINUOUS
10
0.122028
20
0.068642
30
0.0
11
0.122120
21
0.067941
31
0.0
0
LINE
8
0
6
CONTINUOUS
10
0.113375
20
0.051303
30
0.0
11
0.114924
21
0.051541
31
0.0
0
LINE
8
0
6
CONTINUOUS
10
0.112118
20
0.051755
30
0.0
11
0.113375
21
0.051303
31
0.0
0
LINE
8
0
6
CONTINUOUS
10
0.112409
20
0.052446
30
0.0
11
0.112118
21
0.051755
31
0.0
0
LINE
8
0
6
CONTINUOUS
10
0.113957
20
0.052683
30
0.0
11
0.112409
21
0.052446
31
0.0
0
LINE
8
0
6
CONTINUOUS
10
0.115215
20
0.052231
30
0.0
11
0.113957
21
0.052683
31
0.0
0
LINE
8
0
6
CONTINUOUS
10
0.114924
20
0.051541
30
0.0
11
0.115215
21
0.052231
31
0.0
0
LINE
8
0
6
CONTINUOUS
10
0.115638
20
0.046844
30
0.0
11
0.114090
21
0.046606
31
0.0
0
LINE
8
0
6
CONTINUOUS
10
0.116895
20
0.046392
30
0.0
11
0.115638
21
0.046844
31
0.0
0
LINE
8
0
6
CONTINUOUS
10
0.116604
20
0.045701
30
0.0
11
0.116895
21
0.046392
31
0.0
0
LINE
8
0
6
CONTINUOUS
10
0.115056
20
0.045464
30
0.0
11
0.116604
21
0.045701
31
0.0
0
LINE
8
0
6
CONTINUOUS
10
0.113798
20
0.045916
30
0.0
11
0.115056
21
0.045464
31
0.0
0
LINE
8
0
6
CONTINUOUS
10
0.114090
20
0.046606
30
0.0
11
0.113798
21
0.045916
31
0.0
0
LINE
8
0
6
CONTINUOUS
10
0.071793
20
0.081201
30
0.0
11
0.070201
21
0.081024
31
0.0
0
LINE
8
0
6
CONTINUOUS
10
0.072950
20
0.080702
30
0.0
11
0.071793
21
0.081201
31
0.0
0
LINE
8
0
6
CONTINUOUS
10
0.072514
20
0.080026
30
0.0
11
0.072950
21
0.080702
31
0.0
0
LINE
8
0
6
CONTINUOUS
10
0.070921
20
0.079849
30
0.0
11
0.072514
21
0.080026
31
0.0
0
LINE
8
0
6
CONTINUOUS
10
0.069765
20
0.080348
30
0.0
11
0.070921
21
0.079849
31
0.0
0
LINE
8
0
6
CONTINUOUS
10
0.070201
20
0.081024
30
0.0
11
0.069765
21
0.080348
31
0.0
0
LINE
8
0
6
CONTINUOUS
10
0.137231
20
0.061595
30
0.0
11
0.137522
21
0.062285
31
0.0
0
LINE
8
0
6
CONTINUOUS
10
0.135682
20
0.061357
30
0.0
11
0.137231
21
0.061595
31
0.0
0
LINE
8
0
6
CONTINUOUS
10
0.134425
20
0.061810
30
0.0
11
0.135682
21
0.061357
31
0.0
0
LINE
8
0
6
CONTINUOUS
10
0.134716
20
0.062500
30
0.0
11
0.134425
21
0.061810
31
0.0
0
LINE
8
0
6
CONTINUOUS
10
0.136265
20
0.062738
30
0.0
11
0.134716
21
0.062500
31
0.0
0
LINE
8
0
6
CONTINUOUS
10
0.137522
20
0.062285
30
0.0
11
0.136265
21
0.062738
31
0.0
0
LINE
8
0
6
CONTINUOUS
10
0.079508
20
0.051556
30
0.0
11
0.077959
21
0.051318
31
0.0
0
LINE
8
0
6
CONTINUOUS
10
0.080765
20
0.051104
30
0.0
11
0.079508
21
0.051556
31
0.0
0
LINE
8
0
6
CONTINUOUS
10
0.080474
20
0.050413
30
0.0
11
0.080765
21
0.051104
31
0.0
0
LINE
8
0
6
CONTINUOUS
10
0.078925
20
0.050176
30
0.0
11
0.080474
21
0.050413
31
0.0
0
LINE
8
0
6
CONTINUOUS
10
0.077668
20
0.050628
30
0.0
11
0.078925
21
0.050176
31
0.0
0
LINE
8
0
6
CONTINUOUS
10
0.077959
20
0.051318
30
0.0
11
0.077668
21
0.050628
31
0.0
0
LINE
8
0
6
CONTINUOUS
10
0.086367
20
0.078587
30
0.0
11
0.084722
21
0.078557
31
0.0
0
LINE
8
0
6
CONTINUOUS
10
0.087250
20
0.077995
30
0.0
11
0.086367
21
0.078587
31
0.0
0
LINE
8
0
6
CONTINUOUS
10
0.086490
20
0.077374
30
0.0
11
0.087250
21
0.077995
31
0.0
0
LINE
8
0
6
CONTINUOUS
10
0.084845
20
0.077343
30
0.0
11
0.086490
21
0.077374
31
0.0
0
LINE
8
0
6
CONTINUOUS
10
0.083962
20
0.077935
30
0.0
11
0.084845
21
0.077343
31
0.0
0
LINE
8
0
6
CONTINUOUS
10
0.084722
20
0.078557
30
0.0
11
0.083962
21
0.077935
31
0.0
0
LINE
8
0
6
CONTINUOUS
10
0.076886
20
0.069118
30
0.0
11
0.075417
21
0.068802
31
0.0
0
LINE
8
0
6
CONTINUOUS
10
0.078263
20
0.068734
30
0.0
11
0.076886
21
0.069118
31
0.0
0
LINE
8
0
6
CONTINUOUS
10
0.078171
20
0.068034
30
0.0
11
0.078263
21
0.068734
31
0.0
0
LINE
8
0
6
CONTINUOUS
10
0.076702
20
0.067718
30
0.0
11
0.078171
21
0.068034
31
0.0
0
LINE
8
0
6
CONTINUOUS
10
0.075325
20
0.068102
30
0.0
11
0.076702
21
0.067718
31
0.0
0
LINE
8
0
6
CONTINUOUS
10
0.075417
20
0.068802
30
0.0
11
0.075325
21
0.068102
31
0.0
0
LINE
8
0
6
CONTINUOUS
10
0.094003
20
0.048380
30
0.0
11
0.092454
21
0.048618
31
0.0
0
LINE
8
0
6
CONTINUOUS
10
0.094294
20
0.047690
30
0.0
11
0.094003
21
0.048380
31
0.0
0
LINE
8
0
6
CONTINUOUS
10
0.093037
20
0.047237
30
0.0
11
0.094294
21
0.047690
31
0.0
0
LINE
8
0
6
CONTINUOUS
10
0.091488
20
0.047475
30
0.0
11
0.093037
21
0.047237
31
0.0
0
LINE
8
0
6
CONTINUOUS
10
0.091197
20
0.048165
30
0.0
11
0.091488
21
0.047475
31
0.0
0
LINE
8
0
6
CONTINUOUS
10
0.092454
20
0.048618
30
0.0
11
0.091197
21
0.048165
31
0.0
0
LINE
8
0
6
CONTINUOUS
10
0.082117
20
0.061893
30
0.0
11
0.083587
21
0.062209
31
0.0
0
LINE
8
0
6
CONTINUOUS
10
0.080740
20
0.062277
30
0.0
11
0.082117
21
0.061893
31
0.0
0
LINE
8
0
6
CONTINUOUS
10
0.080833
20
0.062977
30
0.0
11
0.080740
21
0.062277
31
0.0
0
LINE
8
0
6
CONTINUOUS
10
0.082302
20
0.063293
30
0.0
11
0.080833
21
0.062977
31
0.0
0
LINE
8
0
6
CONTINUOUS
10
0.083679
20
0.062909
30
0.0
11
0.082302
21
0.063293
31
0.0
0
LINE
8
0
6
CONTINUOUS
10
0.083587
20
0.062209
30
0.0
11
0.083679
21
0.062909
31
0.0
0
LINE
8
0
6
CONTINUOUS
10
0.113925
20
0.078504
30
0.0
11
0.113041
21
0.077913
31
0.0
0
LINE
8
0
6
CONTINUOUS
10
0.115569
20
0.078474
30
0.0
11
0.113925
21
0.078504
31
0.0
0
LINE
8
0
6
CONTINUOUS
10
0.116329
20
0.077852
30
0.0
11
0.115569
21
0.078474
31
0.0
0
LINE
8
0
6
CONTINUOUS
10
0.115446
20
0.077260
30
0.0
11
0.116329
21
0.077852
31
0.0
0
LINE
8
0
6
CONTINUOUS
10
0.113801
20
0.077291
30
0.0
11
0.115446
21
0.077260
31
0.0
0
LINE
8
0
6
CONTINUOUS
10
0.113041
20
0.077913
30
0.0
11
0.113801
21
0.077291
31
0.0
0
LINE
8
0
6
CONTINUOUS
10
0.120783
20
0.051649
30
0.0
11
0.119526
21
0.051196
31
0.0
0
LINE
8
0
6
CONTINUOUS
10
0.122332
20
0.051411
30
0.0
11
0.120783
21
0.051649
31
0.0
0
LINE
8
0
6
CONTINUOUS
10
0.122623
20
0.050721
30
0.0
11
0.122332
21
0.051411
31
0.0
0
LINE
8
0
6
CONTINUOUS
10
0.121365
20
0.050268
30
0.0
11
0.122623
21
0.050721
31
0.0
0
LINE
8
0
6
CONTINUOUS
10
0.119817
20
0.050506
30
0.0
11
0.121365
21
0.050268
31
0.0
0
LINE
8
0
6
CONTINUOUS
10
0.119526
20
0.051196
30
0.0
11
0.119817
21
0.050506
31
0.0
0
LINE
8
0
6
CONTINUOUS
10
0.068658
20
0.055502
30
0.0
11
0.070207
21
0.055740
31
0.0
0
LINE
8
0
6
CONTINUOUS
10
0.067401
20
0.055955
30
0.0
11
0.068658
21
0.055502
31
0.0
0
LINE
8
0
6
CONTINUOUS
10
0.067692
20
0.056645
30
0.0
11
0.067401
21
0.055955
31
0.0
0
LINE
8
0
6
CONTINUOUS
10
0.069241
20
0.056882
30
0.0
11
0.067692
21
0.056645
31
0.0
0
LINE
8
0
6
CONTINUOUS
10
0.070498
20
0.056430
30
0.0
11
0.069241
21
0.056882
31
0.0
0
LINE
8
0
6
CONTINUOUS
10
0.070207
20
0.055740
30
0.0
11
0.070498
21
0.056430
31
0.0
0
LINE
8
0
6
CONTINUOUS
10
0.064026
20
0.062890
30
0.0
11
0.062769
21
0.062438
31
0.0
0
LINE
8
0
6
CONTINUOUS
10
0.065575
20
0.062653
30
0.0
11
0.064026
21
0.062890
31
0.0
0
LINE
8
0
6
CONTINUOUS
10
0.065866
20
0.061962
30
0.0
11
0.065575
21
0.062653
31
0.0
0
LINE
8
0
6
CONTINUOUS
10
0.064609
20
0.061510
30
0.0
11
0.065866
21
0.061962
31
0.0
0
LINE
8
0
6
CONTINUOUS
10
0.063060
20
0.061747
30
0.0
11
0.064609
21
0.061510
31
0.0
0
LINE
8
0
6
CONTINUOUS
10
0.062769
20
0.062438
30
0.0
11
0.063060
21
0.061747
31
0.0
0
LINE
8
0
6
CONTINUOUS
10
0.134715
20
0.068029
30
0.0
11
0.136092
21
0.068413
31
0.0
0
LINE
8
0
6
CONTINUOUS
10
0.133246
20
0.068346
30
0.0
11
0.134715
21
0.068029
31
0.0
0
LINE
8
0
6
CONTINUOUS
10
0.133154
20
0.069046
30
0.0
11
0.133246
21
0.068346
31
0.0
0
LINE
8
0
6
CONTINUOUS
10
0.134531
20
0.069430
30
0.0
11
0.133154
21
0.069046
31
0.0
0
LINE
8
0
6
CONTINUOUS
10
0.136000
20
0.069114
30
0.0
11
0.134531
21
0.069430
31
0.0
0
LINE
8
0
6
CONTINUOUS
10
0.136092
20
0.068413
30
0.0
11
0.136000
21
0.069114
31
0.0
0
LINE
8
0
6
CONTINUOUS
10
0.101435
20
0.063984
30
0.0
11
0.101871
21
0.064660
31
0.0
0
LINE
8
0
6
CONTINUOUS
10
0.099843
20
0.063806
30
0.0
11
0.101435
21
0.063984
31
0.0
0
LINE
8
0
6
CONTINUOUS
10
0.098686
20
0.064305
30
0.0
11
0.099843
21
0.063806
31
0.0
0
LINE
8
0
6
CONTINUOUS
10
0.099122
20
0.064982
30
0.0
11
0.098686
21
0.064305
31
0.0
0
LINE
8
0
6
CONTINUOUS
10
0.100715
20
0.065159
30
0.0
11
0.099122
21
0.064982
31
0.0
0
LINE
8
0
6
CONTINUOUS
10
0.101871
20
0.064660
30
0.0
11
0.100715
21
0.065159
31
0.0
0
LINE
8
0
6
CONTINUOUS
10
0.139588
20
0.055523
30
0.0
11
0.140845
21
0.055975
31
0.0
0
LINE
8
0
6
CONTINUOUS
10
0.138039
20
0.055760
30
0.0
11
0.139588
21
0.055523
31
0.0
0
LINE
8
0
6
CONTINUOUS
10
0.137748
20
0.056451
30
0.0
11
0.138039
21
0.055760
31
0.0
0
LINE
8
0
6
CONTINUOUS
10
0.139005
20
0.056903
30
0.0
11
0.137748
21
0.056451
31
0.0
0
LINE
8
0
6
CONTINUOUS
10
0.140554
20
0.056665
30
0.0
11
0.139005
21
0.056903
31
0.0
0
LINE
8
0
6
CONTINUOUS
10
0.140845
20
0.055975
30
0.0
11
0.140554
21
0.056665
31
0.0
0
LINE
8
0
6
CONTINUOUS
10
0.144153
20
0.063270
30
0.0
11
0.142896
21
0.062818
31
0.0
0
LINE
8
0
6
CONTINUOUS
10
0.145701
20
0.063033
30
0.0
11
0.144153
21
0.063270
31
0.0
0
LINE
8
0
6
CONTINUOUS
10
0.145993
20
0.062343
30
0.0
11
0.145701
21
0.063033
31
0.0
0
LINE
8
0
6
CONTINUOUS
10
0.144735
20
0.061890
30
0.0
11
0.145993
21
0.062343
31
0.0
0
LINE
8
0
6
CONTINUOUS
10
0.143187
20
0.062128
30
0.0
11
0.144735
21
0.061890
31
0.0
0
LINE
8
0
6
CONTINUOUS
10
0.142896
20
0.062818
30
0.0
11
0.143187
21
0.062128
31
0.0
0
LINE
8
0
6
CONTINUOUS
10
0.088000
20
0.066786
30
0.0
11
0.089593
21
0.066964
31
0.0
0
LINE
8
0
6
CONTINUOUS
10
0.086844
20
0.067285
30
0.0
11
0.088000
21
0.066786
31
0.0
0
LINE
8
0
6
CONTINUOUS
10
0.087280
20
0.067962
30
0.0
11
0.086844
21
0.067285
31
0.0
0
LINE
8
0
6
CONTINUOUS
10
0.088872
20
0.068139
30
0.0
11
0.087280
21
0.067962
31
0.0
0
LINE
8
0
6
CONTINUOUS
10
0.090029
20
0.067640
30
0.0
11
0.088872
21
0.068139
31
0.0
0
LINE
8
0
6
CONTINUOUS
10
0.089593
20
0.066964
30
0.0
11
0.090029
21
0.067640
31
0.0
0
LINE
8
0
6
CONTINUOUS
10
0.112291
20
0.066746
30
0.0
11
0.113447
21
0.067245
31
0.0
0
LINE
8
0
6
CONTINUOUS
10
0.110698
20
0.066923
30
0.0
11
0.112291
21
0.066746
31
0.0
0
LINE
8
0
6
CONTINUOUS
10
0.110262
20
0.067599
30
0.0
11
0.110698
21
0.066923
31
0.0
0
LINE
8
0
6
CONTINUOUS
10
0.111419
20
0.068098
30
0.0
11
0.110262
21
0.067599
31
0.0
0
LINE
8
0
6
CONTINUOUS
10
0.113011
20
0.067921
30
0.0
11
0.111419
21
0.068098
31
0.0
0
LINE
8
0
6
CONTINUOUS
10
0.113447
20
0.067245
30
0.0
11
0.113011
21
0.067921
31
0.0
0
LINE
8
0
6
CONTINUOUS
10
0.129370
20
0.079707
30
0.0
11
0.130526
21
0.080206
31
0.0
0
LINE
8
0
6
CONTINUOUS
10
0.127777
20
0.079884
30
0.0
11
0.129370
21
0.079707
31
0.0
0
LINE
8
0
6
CONTINUOUS
10
0.127341
20
0.080560
30
0.0
11
0.127777
21
0.079884
31
0.0
0
LINE
8
0
6
CONTINUOUS
10
0.128498
20
0.081059
30
0.0
11
0.127341
21
0.080560
31
0.0
0
LINE
8
0
6
CONTINUOUS
10
0.130090
20
0.080882
30
0.0
11
0.128498
21
0.081059
31
0.0
0
LINE
8
0
6
CONTINUOUS
10
0.130526
20
0.080206
30
0.0
11
0.130090
21
0.080882
31
0.0
0
LINE
8
0
6
CONTINUOUS
10
0.060703
20
0.055707
30
0.0
11
0.062252
21
0.055945
31
0.0
0
LINE
8
0
6
CONTINUOUS
10
0.059446
20
0.056159
30
0.0
11
0.060703
21
0.055707
31
0.0
0
LINE
8
0
6
CONTINUOUS
10
0.059737
20
0.056850
30
0.0
11
0.059446
21
0.056159
31
0.0
0
LINE
8
0
6
CONTINUOUS
10
0.061286
20
0.057087
30
0.0
11
0.059737
21
0.056850
31
0.0
0
LINE
8
0
6
CONTINUOUS
10
0.062543
20
0.056635
30
0.0
11
0.061286
21
0.057087
31
0.0
0
LINE
8
0
6
CONTINUOUS
10
0.062252
20
0.055945
30
0.0
11
0.062543
21
0.056635
31
0.0
0
LINE
8
0
6
CONTINUOUS
10
0.065564
20
-0.100852
30
0.0
11
0.065564
21
-0.101852
31
0.0
0
LINE
8
0
6
CONTINUOUS
10
0.066441
20
-0.100852
30
0.0
11
0.065564
21
-0.100852
31
0.0
0
LINE
8
0
6
CONTINUOUS
10
0.065564
20
-0.106852
30
0.0
11
0.066441
21
-0.106852
31
0.0
0
LINE
8
0
6
CONTINUOUS
10
0.065564
20
-0.105852
30
0.0
11
0.065564
21
-0.106852
31
0.0
0
LINE
8
0
6
CONTINUOUS
10
0.069030
20
-0.100852
30
0.0
11
0.066441
21
-0.100852
31
0.0
0
LINE
8
0
6
CONTINUOUS
10
0.066441
20
-0.106852
30
0.0
11
0.069030
21
-0.106852
31
0.0
0
LINE
8
0
6
CONTINUOUS
10
0.073200
20
-0.100852
30
0.0
11
0.069030
21
-0.100852
31
0.0
0
LINE
8
0
6
CONTINUOUS
10
0.069030
20
-0.106852
30
0.0
11
0.073200
21
-0.106852
31
0.0
0
LINE
8
0
6
CONTINUOUS
10
0.078741
20
-0.100852
30
0.0
11
0.073200
21
-0.100852
31
0.0
0
LINE
8
0
6
CONTINUOUS
10
0.073200
20
-0.106852
30
0.0
11
0.078741
21
-0.106852
31
0.0
0
LINE
8
0
6
CONTINUOUS
10
0.085378
20
-0.100852
30
0.0
11
0.078741
21
-0.100852
31
0.0
0
LINE
8
0
6
CONTINUOUS
10
0.078741
20
-0.106852
30
0.0
11
0.085378
21
-0.106852
31
0.0
0
LINE
8
0
6
CONTINUOUS
10
0.092775
20
-0.100852
30
0.0
11
0.085378
21
-0.100852
31
0.0
0
LINE
8
0
6
CONTINUOUS
10
0.085378
20
-0.106852
30
0.0
11
0.092775
21
-0.106852
31
0.0
0
LINE
8
0
6
CONTINUOUS
10
0.100564
20
-0.100852
30
0.0
11
0.092775
21
-0.100852
31
0.0
0
LINE
8
0
6
CONTINUOUS
10
0.092775
20
-0.106852
30
0.0
11
0.100564
21
-0.106852
31
0.0
0
LINE
8
0
6
CONTINUOUS
10
0.108352
20
-0.100852
30
0.0
11
0.100564
21
-0.100852
31
0.0
0
LINE
8
0
6
CONTINUOUS
10
0.100564
20
-0.106852
30
0.0
11
0.108352
21
-0.106852
31
0.0
0
LINE
8
0
6
CONTINUOUS
10
0.115750
20
-0.100852
30
0.0
11
0.108352
21
-0.100852
31
0.0
0
LINE
8
0
6
CONTINUOUS
10
0.108352
20
-0.106852
30
0.0
11
0.115750
21
-0.106852
31
0.0
0
LINE
8
0
6
CONTINUOUS
10
0.122386
20
-0.100852
30
0.0
11
0.115750
21
-0.100852
31
0.0
0
LINE
8
0
6
CONTINUOUS
10
0.115750
20
-0.106852
30
0.0
11
0.122386
21
-0.106852
31
0.0
0
LINE
8
0
6
CONTINUOUS
10
0.127928
20
-0.100852
30
0.0
11
0.122386
21
-0.100852
31
0.0
0
LINE
8
0
6
CONTINUOUS
10
0.122386
20
-0.106852
30
0.0
11
0.127928
21
-0.106852
31
0.0
0
LINE
8
0
6
CONTINUOUS
10
0.132098
20
-0.100852
30
0.0
11
0.127928
21
-0.100852
31
0.0
0
LINE
8
0
6
CONTINUOUS
10
0.127928
20
-0.106852
30
0.0
11
0.132098
21
-0.106852
31
0.0
0
LINE
8
0
6
CONTINUOUS
10
0.134686
20
-0.100852
30
0.0
11
0.132098
21
-0.100852
31
0.0
0
LINE
8
0
6
CONTINUOUS
10
0.132098
20
-0.106852
30
0.0
11
0.134686
21
-0.106852
31
0.0
0
LINE
8
0
6
CONTINUOUS
10
0.135564
20
-0.100852
30
0.0
11
0.134686
21
-0.100852
31
0.0
0
LINE
8
0
6
CONTINUOUS
10
0.135564
20
-0.101852
30
0.0
11
0.135564
21
-0.100852
31
0.0
0
LINE
8
0
6
CONTINUOUS
10
0.135564
20
-0.106852
30
0.0
11
0.135564
21
-0.105852
31
0.0
0
LINE
8
0
6
CONTINUOUS
10
0.134686
20
-0.106852
30
0.0
11
0.135564
21
-0.106852
31
0.0
0
LINE
8
0
6
CONTINUOUS
10
0.065564
20
-0.101852
30
0.0
11
0.065564
21
-0.105852
31
0.0
0
LINE
8
0
6
CONTINUOUS
10
0.135564
20
-0.105852
30
0.0
11
0.135564
21
-0.101852
31
0.0
0
LINE
8
0
6
CONTINUOUS
10
0.084804
20
-0.063683
30
0.0
11
0.085985
21
-0.065879
31
0.0
0
LINE
8
0
6
CONTINUOUS
10
0.085982
20
-0.066171
30
0.0
11
0.084801
21
-0.063975
31
0.0
0
LINE
8
0
6
CONTINUOUS
10
0.084409
20
-0.061228
30
0.0
11
0.084408
21
-0.061374
31
0.0
0
LINE
8
0
6
CONTINUOUS
10
0.084408
20
-0.061374
30
0.0
11
0.084804
21
-0.063683
31
0.0
0
LINE
8
0
6
CONTINUOUS
10
0.084405
20
-0.061665
30
0.0
11
0.084404
21
-0.061811
31
0.0
0
LINE
8
0
6
CONTINUOUS
10
0.084801
20
-0.063975
30
0.0
11
0.084405
21
-0.061665
31
0.0
0
LINE
8
0
6
CONTINUOUS
10
0.116719
20
-0.061374
30
0.0
11
0.116718
21
-0.061228
31
0.0
0
LINE
8
0
6
CONTINUOUS
10
0.116324
20
-0.063683
30
0.0
11
0.116719
21
-0.061374
31
0.0
0
LINE
8
0
6
CONTINUOUS
10
0.116722
20
-0.061665
30
0.0
11
0.116327
21
-0.063975
31
0.0
0
LINE
8
0
6
CONTINUOUS
10
0.116724
20
-0.061811
30
0.0
11
0.116722
21
-0.061665
31
0.0
0
LINE
8
0
6
CONTINUOUS
10
0.085985
20
-0.065879
30
0.0
11
0.087894
21
-0.067853
31
0.0
0
LINE
8
0
6
CONTINUOUS
10
0.087891
20
-0.068146
30
0.0
11
0.085982
21
-0.066171
31
0.0
0
LINE
8
0
6
CONTINUOUS
10
0.090440
20
-0.069506
30
0.0
11
0.093501
21
-0.070754
31
0.0
0
LINE
8
0
6
CONTINUOUS
10
0.093499
20
-0.071048
30
0.0
11
0.090437
21
-0.069799
31
0.0
0
LINE
8
0
6
CONTINUOUS
10
0.100564
20
-0.071800
30
0.0
11
0.104195
21
-0.071534
31
0.0
0
LINE
8
0
6
CONTINUOUS
10
0.104196
20
-0.071828
30
0.0
11
0.100564
21
-0.072094
31
0.0
0
LINE
8
0
6
CONTINUOUS
10
0.104195
20
-0.071534
30
0.0
11
0.107626
21
-0.070754
31
0.0
0
LINE
8
0
6
CONTINUOUS
10
0.107629
20
-0.071048
30
0.0
11
0.104196
21
-0.071828
31
0.0
0
LINE
8
0
6
CONTINUOUS
10
0.093501
20
-0.070754
30
0.0
11
0.096932
21
-0.071534
31
0.0
0
LINE
8
0
6
CONTINUOUS
10
0.096931
20
-0.071828
30
0.0
11
0.093499
21
-0.071048
31
0.0
0
LINE
8
0
6
CONTINUOUS
10
0.107626
20
-0.070754
30
0.0
11
0.110687
21
-0.069506
31
0.0
0
LINE
8
0
6
CONTINUOUS
10
0.110690
20
-0.069799
30
0.0
11
0.107629
21
-0.071048
31
0.0
0
LINE
8
0
6
CONTINUOUS
10
0.096932
20
-0.071534
30
0.0
11
0.100564
21
-0.071800
31
0.0
0
LINE
8
0
6
CONTINUOUS
10
0.100564
20
-0.072094
30
0.0
11
0.096931
21
-0.071828
31
0.0
0
LINE
8
0
6
CONTINUOUS
10
0.113233
20
-0.067853
30
0.0
11
0.115142
21
-0.065879
31
0.0
0
LINE
8
0
6
CONTINUOUS
10
0.115145
20
-0.066171
30
0.0
11
0.113236
21
-0.068146
31
0.0
0
LINE
8
0
6
CONTINUOUS
10
0.087894
20
-0.067853
30
0.0
11
0.090440
21
-0.069506
31
0.0
0
LINE
8
0
6
CONTINUOUS
10
0.090437
20
-0.069799
30
0.0
11
0.087891
21
-0.068146
31
0.0
0
LINE
8
0
6
CONTINUOUS
10
0.110687
20
-0.069506
30
0.0
11
0.113233
21
-0.067853
31
0.0
0
LINE
8
0
6
CONTINUOUS
10
0.113236
20
-0.068146
30
0.0
11
0.110690
21
-0.069799
31
0.0
0
LINE
8
0
6
CONTINUOUS
10
0.115142
20
-0.065879
30
0.0
11
0.116324
21
-0.063683
31
0.0
0
LINE
8
0
6
CONTINUOUS
10
0.116327
20
-0.063975
30
0.0
11
0.115145
21
-0.066171
31
0.0
0
LINE
8
0
6
CONTINUOUS
10
0.104317
20
-0.099127
30
0.0
11
0.100564
21
-0.099127
31
0.0
0
LINE
8
0
6
CONTINUOUS
10
0.104592
20
-0.100470
30
0.0
11
0.100564
21
-0.100470
31
0.0
0
LINE
8
0
6
CONTINUOUS
10
0.085647
20
-0.099127
30
0.0
11
0.084447
21
-0.099127
31
0.0
0
LINE
8
0
6
CONTINUOUS
10
0.083711
20
-0.100470
30
0.0
11
0.084933
21
-0.100470
31
0.0
0
LINE
8
0
6
CONTINUOUS
10
0.115481
20
-0.099127
30
0.0
11
0.113544
21
-0.099127
31
0.0
0
LINE
8
0
6
CONTINUOUS
10
0.116195
20
-0.100470
30
0.0
11
0.114216
21
-0.100470
31
0.0
0
LINE
8
0
6
CONTINUOUS
10
0.093288
20
-0.099127
30
0.0
11
0.090168
21
-0.099127
31
0.0
0
LINE
8
0
6
CONTINUOUS
10
0.092814
20
-0.100470
30
0.0
11
0.089570
21
-0.100470
31
0.0
0
LINE
8
0
6
CONTINUOUS
10
0.090168
20
-0.099127
30
0.0
11
0.087583
21
-0.099127
31
0.0
0
LINE
8
0
6
CONTINUOUS
10
0.089570
20
-0.100470
30
0.0
11
0.086912
21
-0.100470
31
0.0
0
LINE
8
0
6
CONTINUOUS
10
0.096536
20
-0.100470
30
0.0
11
0.100564
21
-0.100470
31
0.0
0
LINE
8
0
6
CONTINUOUS
10
0.107839
20
-0.099127
30
0.0
11
0.104317
21
-0.099127
31
0.0
0
LINE
8
0
6
CONTINUOUS
10
0.108314
20
-0.100470
30
0.0
11
0.104592
21
-0.100470
31
0.0
0
LINE
8
0
6
CONTINUOUS
10
0.087583
20
-0.099127
30
0.0
11
0.085647
21
-0.099127
31
0.0
0
LINE
8
0
6
CONTINUOUS
10
0.086912
20
-0.100470
30
0.0
11
0.084933
21
-0.100470
31
0.0
0
LINE
8
0
6
CONTINUOUS
10
0.096536
20
-0.100470
30
0.0
11
0.092814
21
-0.100470
31
0.0
0
LINE
8
0
6
CONTINUOUS
10
0.084041
20
-0.099127
30
0.0
11
0.083640
21
-0.100066
31
0.0
0
LINE
8
0
6
CONTINUOUS
10
0.083640
20
-0.100066
30
0.0
11
0.083297
21
-0.100470
31
0.0
0
LINE
8
0
6
CONTINUOUS
10
0.083297
20
-0.100470
30
0.0
11
0.082365
21
-0.100852
31
0.0
0
LINE
8
0
6
CONTINUOUS
10
0.083711
20
-0.100470
30
0.0
11
0.083297
21
-0.100470
31
0.0
0
LINE
8
0
6
CONTINUOUS
10
0.110959
20
-0.099127
30
0.0
11
0.107839
21
-0.099127
31
0.0
0
LINE
8
0
6
CONTINUOUS
10
0.111557
20
-0.100470
30
0.0
11
0.108314
21
-0.100470
31
0.0
0
LINE
8
0
6
CONTINUOUS
10
0.117487
20
-0.100066
30
0.0
11
0.117086
21
-0.099127
31
0.0
0
LINE
8
0
6
CONTINUOUS
10
0.117830
20
-0.100470
30
0.0
11
0.117487
21
-0.100066
31
0.0
0
LINE
8
0
6
CONTINUOUS
10
0.117830
20
-0.100470
30
0.0
11
0.117417
21
-0.100470
31
0.0
0
LINE
8
0
6
CONTINUOUS
10
0.118763
20
-0.100852
30
0.0
11
0.117830
21
-0.100470
31
0.0
0
LINE
8
0
6
CONTINUOUS
10
0.114216
20
-0.100470
30
0.0
11
0.111557
21
-0.100470
31
0.0
0
LINE
8
0
6
CONTINUOUS
10
0.116680
20
-0.099127
30
0.0
11
0.115481
21
-0.099127
31
0.0
0
LINE
8
0
6
CONTINUOUS
10
0.117417
20
-0.100470
30
0.0
11
0.116195
21
-0.100470
31
0.0
0
LINE
8
0
6
CONTINUOUS
10
0.093288
20
-0.099127
30
0.0
11
0.096811
21
-0.099127
31
0.0
0
LINE
8
0
6
CONTINUOUS
10
0.096811
20
-0.099127
30
0.0
11
0.100564
21
-0.099127
31
0.0
0
LINE
8
0
6
CONTINUOUS
10
0.084041
20
-0.099127
30
0.0
11
0.084447
21
-0.099127
31
0.0
0
LINE
8
0
6
CONTINUOUS
10
0.084404
20
-0.061811
30
0.0
11
0.084041
21
-0.099127
31
0.0
0
LINE
8
0
6
CONTINUOUS
10
0.110959
20
-0.099127
30
0.0
11
0.113544
21
-0.099127
31
0.0
0
LINE
8
0
6
CONTINUOUS
10
0.117086
20
-0.099127
30
0.0
11
0.116724
21
-0.061811
31
0.0
0
LINE
8
0
6
CONTINUOUS
10
0.116680
20
-0.099127
30
0.0
11
0.117086
21
-0.099127
31
0.0
0
LINE
8
0
6
CONTINUOUS
10
0.084563
20
-0.045475
30
0.0
11
0.084409
21
-0.061228
31
0.0
0
LINE
8
0
6
CONTINUOUS
10
0.116718
20
-0.061228
30
0.0
11
0.116565
21
-0.045475
31
0.0
0
LINE
8
0
6
CONTINUOUS
10
0.113903
20
-0.044125
30
0.0
11
0.113569
21
-0.042223
31
0.0
0
LINE
8
0
6
CONTINUOUS
10
0.087558
20
-0.042223
30
0.0
11
0.087224
21
-0.044125
31
0.0
0
LINE
8
0
6
CONTINUOUS
10
0.094776
20
-0.051827
30
0.0
11
0.092246
21
-0.050809
31
0.0
0
LINE
8
0
6
CONTINUOUS
10
0.092246
20
-0.051221
30
0.0
11
0.094776
21
-0.052240
31
0.0
0
LINE
8
0
6
CONTINUOUS
10
0.087224
20
-0.044125
30
0.0
11
0.087224
21
-0.044538
31
0.0
0
LINE
8
0
6
CONTINUOUS
10
0.087558
20
-0.046027
30
0.0
11
0.087224
21
-0.044125
31
0.0
0
LINE
8
0
6
CONTINUOUS
10
0.087224
20
-0.044538
30
0.0
11
0.087558
21
-0.046440
31
0.0
0
LINE
8
0
6
CONTINUOUS
10
0.113569
20
-0.046027
30
0.0
11
0.112582
21
-0.047834
31
0.0
0
LINE
8
0
6
CONTINUOUS
10
0.112582
20
-0.048247
30
0.0
11
0.113569
21
-0.046440
31
0.0
0
LINE
8
0
6
CONTINUOUS
10
0.106352
20
-0.051827
30
0.0
11
0.103532
21
-0.052459
31
0.0
0
LINE
8
0
6
CONTINUOUS
10
0.103532
20
-0.052872
30
0.0
11
0.106352
21
-0.052240
31
0.0
0
LINE
8
0
6
CONTINUOUS
10
0.097595
20
-0.052459
30
0.0
11
0.094776
21
-0.051827
31
0.0
0
LINE
8
0
6
CONTINUOUS
10
0.094776
20
-0.052240
30
0.0
11
0.097595
21
-0.052872
31
0.0
0
LINE
8
0
6
CONTINUOUS
10
0.088545
20
-0.047834
30
0.0
11
0.087558
21
-0.046027
31
0.0
0
LINE
8
0
6
CONTINUOUS
10
0.087558
20
-0.046440
30
0.0
11
0.088545
21
-0.048247
31
0.0
0
LINE
8
0
6
CONTINUOUS
10
0.113903
20
-0.044125
30
0.0
11
0.113569
21
-0.046027
31
0.0
0
LINE
8
0
6
CONTINUOUS
10
0.113903
20
-0.044538
30
0.0
11
0.113903
21
-0.044125
31
0.0
0
LINE
8
0
6
CONTINUOUS
10
0.113569
20
-0.046440
30
0.0
11
0.113903
21
-0.044538
31
0.0
0
LINE
8
0
6
CONTINUOUS
10
0.108881
20
-0.050809
30
0.0
11
0.106352
21
-0.051827
31
0.0
0
LINE
8
0
6
CONTINUOUS
10
0.106352
20
-0.052240
30
0.0
11
0.108881
21
-0.051221
31
0.0
0
LINE
8
0
6
CONTINUOUS
10
0.100564
20
-0.052674
30
0.0
11
0.097595
21
-0.052459
31
0.0
0
LINE
8
0
6
CONTINUOUS
10
0.097595
20
-0.052872
30
0.0
11
0.100564
21
-0.053086
31
0.0
0
LINE
8
0
6
CONTINUOUS
10
0.090134
20
-0.049455
30
0.0
11
0.088545
21
-0.047834
31
0.0
0
LINE
8
0
6
CONTINUOUS
10
0.088545
20
-0.048247
30
0.0
11
0.090134
21
-0.049868
31
0.0
0
LINE
8
0
6
CONTINUOUS
10
0.110993
20
-0.049455
30
0.0
11
0.108881
21
-0.050809
31
0.0
0
LINE
8
0
6
CONTINUOUS
10
0.108881
20
-0.051221
30
0.0
11
0.110993
21
-0.049868
31
0.0
0
LINE
8
0
6
CONTINUOUS
10
0.092246
20
-0.050809
30
0.0
11
0.090134
21
-0.049455
31
0.0
0
LINE
8
0
6
CONTINUOUS
10
0.090134
20
-0.049868
30
0.0
11
0.092246
21
-0.051221
31
0.0
0
LINE
8
0
6
CONTINUOUS
10
0.112582
20
-0.047834
30
0.0
11
0.110993
21
-0.049455
31
0.0
0
LINE
8
0
6
CONTINUOUS
10
0.110993
20
-0.049868
30
0.0
11
0.112582
21
-0.048247
31
0.0
0
LINE
8
0
6
CONTINUOUS
10
0.104124
20
-0.054535
30
0.0
11
0.100564
21
-0.054792
31
0.0
0
LINE
8
0
6
CONTINUOUS
10
0.107506
20
-0.053776
30
0.0
11
0.104124
21
-0.054535
31
0.0
0
LINE
8
0
6
CONTINUOUS
10
0.110540
20
-0.052555
30
0.0
11
0.107506
21
-0.053776
31
0.0
0
LINE
8
0
6
CONTINUOUS
10
0.113074
20
-0.050931
30
0.0
11
0.110540
21
-0.052555
31
0.0
0
LINE
8
0
6
CONTINUOUS
10
0.114980
20
-0.048987
30
0.0
11
0.113074
21
-0.050931
31
0.0
0
LINE
8
0
6
CONTINUOUS
10
0.116164
20
-0.046819
30
0.0
11
0.114980
21
-0.048987
31
0.0
0
LINE
8
0
6
CONTINUOUS
10
0.116565
20
-0.044538
30
0.0
11
0.116164
21
-0.046819
31
0.0
0
LINE
8
0
6
CONTINUOUS
10
0.116565
20
-0.045475
30
0.0
11
0.116565
21
-0.044538
31
0.0
0
LINE
8
0
6
CONTINUOUS
10
0.116565
20
-0.044538
30
0.0
11
0.116164
21
-0.042256
31
0.0
0
LINE
8
0
6
CONTINUOUS
10
0.116164
20
-0.042256
30
0.0
11
0.114980
21
-0.040089
31
0.0
0
LINE
8
0
6
CONTINUOUS
10
0.114980
20
-0.040089
30
0.0
11
0.113498
21
-0.038577
31
0.0
0
LINE
8
0
6
CONTINUOUS
10
0.087629
20
-0.038577
30
0.0
11
0.086147
21
-0.040089
31
0.0
0
LINE
8
0
6
CONTINUOUS
10
0.086147
20
-0.040089
30
0.0
11
0.084964
21
-0.042256
31
0.0
0
LINE
8
0
6
CONTINUOUS
10
0.084964
20
-0.042256
30
0.0
11
0.084563
21
-0.044538
31
0.0
0
LINE
8
0
6
CONTINUOUS
10
0.084563
20
-0.044538
30
0.0
11
0.084563
21
-0.045475
31
0.0
0
LINE
8
0
6
CONTINUOUS
10
0.084964
20
-0.046819
30
0.0
11
0.084563
21
-0.044538
31
0.0
0
LINE
8
0
6
CONTINUOUS
10
0.086147
20
-0.048987
30
0.0
11
0.084964
21
-0.046819
31
0.0
0
LINE
8
0
6
CONTINUOUS
10
0.088053
20
-0.050931
30
0.0
11
0.086147
21
-0.048987
31
0.0
0
LINE
8
0
6
CONTINUOUS
10
0.090587
20
-0.052555
30
0.0
11
0.088053
21
-0.050931
31
0.0
0
LINE
8
0
6
CONTINUOUS
10
0.093621
20
-0.053776
30
0.0
11
0.090587
21
-0.052555
31
0.0
0
LINE
8
0
6
CONTINUOUS
10
0.097003
20
-0.054535
30
0.0
11
0.093621
21
-0.053776
31
0.0
0
LINE
8
0
6
CONTINUOUS
10
0.100564
20
-0.054792
30
0.0
11
0.097003
21
-0.054535
31
0.0
0
LINE
8
0
6
CONTINUOUS
10
0.103532
20
-0.052459
30
0.0
11
0.100564
21
-0.052674
31
0.0
0
LINE
8
0
6
CONTINUOUS
10
0.100564
20
-0.053086
30
0.0
11
0.103532
21
-0.052872
31
0.0
0
LINE
8
0
6
CONTINUOUS
10
0.051332
20
0.060418
30
0.0
11
0.057976
21
0.055338
31
0.0
0
LINE
8
0
6
CONTINUOUS
10
0.057976
20
0.055338
30
0.0
11
0.062189
21
0.053167
31
0.0
0
LINE
8
0
6
CONTINUOUS
10
0.087758
20
-0.040721
30
0.0
11
0.087765
21
-0.040834
31
0.0
0
LINE
8
0
6
CONTINUOUS
10
0.087765
20
-0.040834
30
0.0
11
0.087966
21
-0.043634
31
0.0
0
LINE
8
0
6
CONTINUOUS
10
0.089825
20
-0.047241
30
0.0
11
0.090139
21
-0.047709
31
0.0
0
LINE
8
0
6
CONTINUOUS
10
0.090139
20
-0.047709
30
0.0
11
0.092040
21
-0.049294
31
0.0
0
LINE
8
0
6
CONTINUOUS
10
0.087966
20
-0.043634
30
0.0
11
0.088431
21
-0.044755
31
0.0
0
LINE
8
0
6
CONTINUOUS
10
0.088880
20
-0.045836
30
0.0
11
0.089510
21
-0.046773
31
0.0
0
LINE
8
0
6
CONTINUOUS
10
0.092040
20
-0.049294
30
0.0
11
0.094518
21
-0.050509
31
0.0
0
LINE
8
0
6
CONTINUOUS
10
0.088431
20
-0.044755
30
0.0
11
0.088880
21
-0.045836
31
0.0
0
LINE
8
0
6
CONTINUOUS
10
0.097416
20
-0.051272
30
0.0
11
0.094518
21
-0.050509
31
0.0
0
LINE
8
0
6
CONTINUOUS
10
0.094682
20
-0.050570
30
0.0
11
0.097500
21
-0.051314
31
0.0
0
LINE
8
0
6
CONTINUOUS
10
0.100564
20
-0.051532
30
0.0
11
0.097416
21
-0.051272
31
0.0
0
LINE
8
0
6
CONTINUOUS
10
0.097500
20
-0.051314
30
0.0
11
0.100564
21
-0.051568
31
0.0
0
LINE
8
0
6
CONTINUOUS
10
0.047667
20
0.067534
30
0.0
11
0.047691
21
0.067321
31
0.0
0
LINE
8
0
6
CONTINUOUS
10
0.089510
20
-0.046773
30
0.0
11
0.089825
21
-0.047241
31
0.0
0
LINE
8
0
6
CONTINUOUS
10
0.082673
20
0.039309
30
0.0
11
0.083279
21
0.032968
31
0.0
0
LINE
8
0
6
CONTINUOUS
10
0.056629
20
0.097206
30
0.0
11
0.051466
21
0.093237
31
0.0
0
LINE
8
0
6
CONTINUOUS
10
0.051466
20
0.093237
30
0.0
11
0.051008
21
0.092627
31
0.0
0
LINE
8
0
6
CONTINUOUS
10
0.048056
20
0.066048
30
0.0
11
0.051332
21
0.060418
31
0.0
0
LINE
8
0
6
CONTINUOUS
10
0.100564
20
0.106852
30
0.0
11
0.087501
21
0.106225
31
0.0
0
LINE
8
0
6
CONTINUOUS
10
0.062189
20
0.053167
30
0.0
11
0.066837
21
0.051088
31
0.0
0
LINE
8
0
6
CONTINUOUS
10
0.070279
20
0.049564
30
0.0
11
0.072000
21
0.048802
31
0.0
0
LINE
8
0
6
CONTINUOUS
10
0.074607
20
0.088226
30
0.0
11
0.087356
21
0.090358
31
0.0
0
LINE
8
0
6
CONTINUOUS
10
0.068558
20
0.050326
30
0.0
11
0.070279
21
0.049564
31
0.0
0
LINE
8
0
6
CONTINUOUS
10
0.083279
20
0.032968
30
0.0
11
0.084309
21
0.016064
31
0.0
0
LINE
8
0
6
CONTINUOUS
10
0.086562
20
0.010983
30
0.0
11
0.087892
21
-0.009722
31
0.0
0
LINE
8
0
6
CONTINUOUS
10
0.076683
20
0.046255
30
0.0
11
0.080603
21
0.042790
31
0.0
0
LINE
8
0
6
CONTINUOUS
10
0.046691
20
0.079960
30
0.0
11
0.046719
21
0.079399
31
0.0
0
LINE
8
0
6
CONTINUOUS
10
0.046774
20
0.086109
30
0.0
11
0.046691
21
0.079960
31
0.0
0
LINE
8
0
6
CONTINUOUS
10
0.047024
20
0.073283
30
0.0
11
0.047667
21
0.067534
31
0.0
0
LINE
8
0
6
CONTINUOUS
10
0.055556
20
0.095981
30
0.0
11
0.062412
21
0.099490
31
0.0
0
LINE
8
0
6
CONTINUOUS
10
0.085290
20
0.027452
30
0.0
11
0.083884
21
0.037273
31
0.0
0
LINE
8
0
6
CONTINUOUS
10
0.072000
20
0.048802
30
0.0
11
0.076528
21
0.046192
31
0.0
0
LINE
8
0
6
CONTINUOUS
10
0.046719
20
0.079399
30
0.0
11
0.047024
21
0.073283
31
0.0
0
LINE
8
0
6
CONTINUOUS
10
0.086672
20
0.105311
30
0.0
11
0.100564
21
0.106120
31
0.0
0
LINE
8
0
6
CONTINUOUS
10
0.062412
20
0.099490
30
0.0
11
0.073939
21
0.103226
31
0.0
0
LINE
8
0
6
CONTINUOUS
10
0.080603
20
0.042790
30
0.0
11
0.083884
21
0.037273
31
0.0
0
LINE
8
0
6
CONTINUOUS
10
0.050549
20
0.092017
30
0.0
11
0.047218
21
0.086829
31
0.0
0
LINE
8
0
6
CONTINUOUS
10
0.046774
20
0.086109
30
0.0
11
0.050549
21
0.092017
31
0.0
0
LINE
8
0
6
CONTINUOUS
10
0.047218
20
0.086829
30
0.0
11
0.046774
21
0.086109
31
0.0
0
LINE
8
0
6
CONTINUOUS
10
0.087501
20
0.106225
30
0.0
11
0.075132
21
0.104238
31
0.0
0
LINE
8
0
6
CONTINUOUS
10
0.084309
20
0.016064
30
0.0
11
0.085570
21
-0.004807
31
0.0
0
LINE
8
0
6
CONTINUOUS
10
0.063900
20
0.100831
30
0.0
11
0.056629
21
0.097206
31
0.0
0
LINE
8
0
6
CONTINUOUS
10
0.090464
20
-0.011412
30
0.0
11
0.091486
21
-0.037609
31
0.0
0
LINE
8
0
6
CONTINUOUS
10
0.048056
20
0.066048
30
0.0
11
0.048332
21
0.071751
31
0.0
0
LINE
8
0
6
CONTINUOUS
10
0.047691
20
0.067321
30
0.0
11
0.048056
21
0.066048
31
0.0
0
LINE
8
0
6
CONTINUOUS
10
0.051976
20
0.077480
30
0.0
11
0.056877
21
0.081211
31
0.0
0
LINE
8
0
6
CONTINUOUS
10
0.087356
20
0.090358
30
0.0
11
0.100564
21
0.091061
31
0.0
0
LINE
8
0
6
CONTINUOUS
10
0.056877
20
0.081211
30
0.0
11
0.063389
21
0.084456
31
0.0
0
LINE
8
0
6
CONTINUOUS
10
0.087027
20
-0.028556
30
0.0
11
0.087758
21
-0.040721
31
0.0
0
LINE
8
0
6
CONTINUOUS
10
0.089441
20
0.009222
30
0.0
11
0.088513
21
0.026142
31
0.0
0
LINE
8
0
6
CONTINUOUS
10
0.085290
20
0.027452
30
0.0
11
0.086562
21
0.010983
31
0.0
0
LINE
8
0
6
CONTINUOUS
10
0.075132
20
0.104238
30
0.0
11
0.063900
21
0.100831
31
0.0
0
LINE
8
0
6
CONTINUOUS
10
0.050549
20
0.092017
30
0.0
11
0.055556
21
0.095981
31
0.0
0
LINE
8
0
6
CONTINUOUS
10
0.051008
20
0.092627
30
0.0
11
0.050549
21
0.092017
31
0.0
0
LINE
8
0
6
CONTINUOUS
10
0.066837
20
0.051088
30
0.0
11
0.068558
21
0.050326
31
0.0
0
LINE
8
0
6
CONTINUOUS
10
0.085570
20
-0.004807
30
0.0
11
0.087204
21
-0.031483
31
0.0
0
LINE
8
0
6
CONTINUOUS
10
0.089441
20
0.009222
30
0.0
11
0.090464
21
-0.011412
31
0.0
0
LINE
8
0
6
CONTINUOUS
10
0.047662
20
0.087550
30
0.0
11
0.047218
21
0.086829
31
0.0
0
LINE
8
0
6
CONTINUOUS
10
0.063389
20
0.084456
30
0.0
11
0.074607
21
0.088226
31
0.0
0
LINE
8
0
6
CONTINUOUS
10
0.073939
20
0.103226
30
0.0
11
0.086672
21
0.105311
31
0.0
0
LINE
8
0
6
CONTINUOUS
10
0.048332
20
0.071751
30
0.0
11
0.051976
21
0.077480
31
0.0
0
LINE
8
0
6
CONTINUOUS
10
0.143151
20
0.055338
30
0.0
11
0.149795
21
0.060418
31
0.0
0
LINE
8
0
6
CONTINUOUS
10
0.138938
20
0.053167
30
0.0
11
0.143151
21
0.055338
31
0.0
0
LINE
8
0
6
CONTINUOUS
10
0.113161
20
-0.043634
30
0.0
11
0.113363
21
-0.040834
31
0.0
0
LINE
8
0
6
CONTINUOUS
10
0.113363
20
-0.040834
30
0.0
11
0.113369
21
-0.040721
31
0.0
0
LINE
8
0
6
CONTINUOUS
10
0.110988
20
-0.047709
30
0.0
11
0.111302
21
-0.047241
31
0.0
0
LINE
8
0
6
CONTINUOUS
10
0.109087
20
-0.049294
30
0.0
11
0.110988
21
-0.047709
31
0.0
0
LINE
8
0
6
CONTINUOUS
10
0.112696
20
-0.044755
30
0.0
11
0.113161
21
-0.043634
31
0.0
0
LINE
8
0
6
CONTINUOUS
10
0.111617
20
-0.046773
30
0.0
11
0.112247
21
-0.045836
31
0.0
0
LINE
8
0
6
CONTINUOUS
10
0.106610
20
-0.050509
30
0.0
11
0.109087
21
-0.049294
31
0.0
0
LINE
8
0
6
CONTINUOUS
10
0.112247
20
-0.045836
30
0.0
11
0.112696
21
-0.044755
31
0.0
0
LINE
8
0
6
CONTINUOUS
10
0.103627
20
-0.051314
30
0.0
11
0.106445
21
-0.050570
31
0.0
0
LINE
8
0
6
CONTINUOUS
10
0.106610
20
-0.050509
30
0.0
11
0.103711
21
-0.051272
31
0.0
0
LINE
8
0
6
CONTINUOUS
10
0.100564
20
-0.051568
30
0.0
11
0.103627
21
-0.051314
31
0.0
0
LINE
8
0
6
CONTINUOUS
10
0.103711
20
-0.051272
30
0.0
11
0.100564
21
-0.051532
31
0.0
0
LINE
8
0
6
CONTINUOUS
10
0.153436
20
0.067321
30
0.0
11
0.153460
21
0.067534
31
0.0
0
LINE
8
0
6
CONTINUOUS
10
0.111302
20
-0.047241
30
0.0
11
0.111617
21
-0.046773
31
0.0
0
LINE
8
0
6
CONTINUOUS
10
0.117848
20
0.032968
30
0.0
11
0.118454
21
0.039309
31
0.0
0
LINE
8
0
6
CONTINUOUS
10
0.150119
20
0.092627
30
0.0
11
0.149661
21
0.093237
31
0.0
0
LINE
8
0
6
CONTINUOUS
10
0.149661
20
0.093237
30
0.0
11
0.144498
21
0.097206
31
0.0
0
LINE
8
0
6
CONTINUOUS
10
0.149795
20
0.060418
30
0.0
11
0.153071
21
0.066048
31
0.0
0
LINE
8
0
6
CONTINUOUS
10
0.113626
20
0.106225
30
0.0
11
0.100564
21
0.106852
31
0.0
0
LINE
8
0
6
CONTINUOUS
10
0.134290
20
0.051088
30
0.0
11
0.138938
21
0.053167
31
0.0
0
LINE
8
0
6
CONTINUOUS
10
0.129128
20
0.048802
30
0.0
11
0.130848
21
0.049564
31
0.0
0
LINE
8
0
6
CONTINUOUS
10
0.113771
20
0.090358
30
0.0
11
0.126521
21
0.088226
31
0.0
0
LINE
8
0
6
CONTINUOUS
10
0.130848
20
0.049564
30
0.0
11
0.132569
21
0.050326
31
0.0
0
LINE
8
0
6
CONTINUOUS
10
0.116819
20
0.016064
30
0.0
11
0.117848
21
0.032968
31
0.0
0
LINE
8
0
6
CONTINUOUS
10
0.113235
20
-0.009722
30
0.0
11
0.114565
21
0.010983
31
0.0
0
LINE
8
0
6
CONTINUOUS
10
0.120524
20
0.042790
30
0.0
11
0.124444
21
0.046255
31
0.0
0
LINE
8
0
6
CONTINUOUS
10
0.154436
20
0.079960
30
0.0
11
0.154353
21
0.086109
31
0.0
0
LINE
8
0
6
CONTINUOUS
10
0.154408
20
0.079399
30
0.0
11
0.154436
21
0.079960
31
0.0
0
LINE
8
0
6
CONTINUOUS
10
0.153460
20
0.067534
30
0.0
11
0.154103
21
0.073283
31
0.0
0
LINE
8
0
6
CONTINUOUS
10
0.138715
20
0.099490
30
0.0
11
0.145571
21
0.095981
31
0.0
0
LINE
8
0
6
CONTINUOUS
10
0.117243
20
0.037273
30
0.0
11
0.115837
21
0.027452
31
0.0
0
LINE
8
0
6
CONTINUOUS
10
0.124600
20
0.046192
30
0.0
11
0.129128
21
0.048802
31
0.0
0
LINE
8
0
6
CONTINUOUS
10
0.154103
20
0.073283
30
0.0
11
0.154408
21
0.079399
31
0.0
0
LINE
8
0
6
CONTINUOUS
10
0.100564
20
0.106120
30
0.0
11
0.114455
21
0.105311
31
0.0
0
LINE
8
0
6
CONTINUOUS
10
0.127188
20
0.103226
30
0.0
11
0.138715
21
0.099490
31
0.0
0
LINE
8
0
6
CONTINUOUS
10
0.117243
20
0.037273
30
0.0
11
0.120524
21
0.042790
31
0.0
0
LINE
8
0
6
CONTINUOUS
10
0.153909
20
0.086829
30
0.0
11
0.150578
21
0.092017
31
0.0
0
LINE
8
0
6
CONTINUOUS
10
0.154353
20
0.086109
30
0.0
11
0.153909
21
0.086829
31
0.0
0
LINE
8
0
6
CONTINUOUS
10
0.150578
20
0.092017
30
0.0
11
0.154353
21
0.086109
31
0.0
0
LINE
8
0
6
CONTINUOUS
10
0.125995
20
0.104238
30
0.0
11
0.113626
21
0.106225
31
0.0
0
LINE
8
0
6
CONTINUOUS
10
0.115558
20
-0.004807
30
0.0
11
0.116819
21
0.016064
31
0.0
0
LINE
8
0
6
CONTINUOUS
10
0.144498
20
0.097206
30
0.0
11
0.137227
21
0.100831
31
0.0
0
LINE
8
0
6
CONTINUOUS
10
0.109641
20
-0.037609
30
0.0
11
0.110664
21
-0.011412
31
0.0
0
LINE
8
0
6
CONTINUOUS
10
0.153071
20
0.066048
30
0.0
11
0.153436
21
0.067321
31
0.0
0
LINE
8
0
6
CONTINUOUS
10
0.152795
20
0.071751
30
0.0
11
0.153071
21
0.066048
31
0.0
0
LINE
8
0
6
CONTINUOUS
10
0.144250
20
0.081211
30
0.0
11
0.149151
21
0.077480
31
0.0
0
LINE
8
0
6
CONTINUOUS
10
0.100564
20
0.091061
30
0.0
11
0.113771
21
0.090358
31
0.0
0
LINE
8
0
6
CONTINUOUS
10
0.137739
20
0.084456
30
0.0
11
0.144250
21
0.081211
31
0.0
0
LINE
8
0
6
CONTINUOUS
10
0.113369
20
-0.040721
30
0.0
11
0.114100
21
-0.028556
31
0.0
0
LINE
8
0
6
CONTINUOUS
10
0.114565
20
0.010983
30
0.0
11
0.115837
21
0.027452
31
0.0
0
LINE
8
0
6
CONTINUOUS
10
0.112614
20
0.026142
30
0.0
11
0.111686
21
0.009222
31
0.0
0
LINE
8
0
6
CONTINUOUS
10
0.137227
20
0.100831
30
0.0
11
0.125995
21
0.104238
31
0.0
0
LINE
8
0
6
CONTINUOUS
10
0.150578
20
0.092017
30
0.0
11
0.150119
21
0.092627
31
0.0
0
LINE
8
0
6
CONTINUOUS
10
0.145571
20
0.095981
30
0.0
11
0.150578
21
0.092017
31
0.0
0
LINE
8
0
6
CONTINUOUS
10
0.132569
20
0.050326
30
0.0
11
0.134290
21
0.051088
31
0.0
0
LINE
8
0
6
CONTINUOUS
10
0.113923
20
-0.031483
30
0.0
11
0.115558
21
-0.004807
31
0.0
0
LINE
8
0
6
CONTINUOUS
10
0.110664
20
-0.011412
30
0.0
11
0.111686
21
0.009222
31
0.0
0
LINE
8
0
6
CONTINUOUS
10
0.153909
20
0.086829
30
0.0
11
0.153466
21
0.087550
31
0.0
0
LINE
8
0
6
CONTINUOUS
10
0.126521
20
0.088226
30
0.0
11
0.137739
21
0.084456
31
0.0
0
LINE
8
0
6
CONTINUOUS
10
0.114455
20
0.105311
30
0.0
11
0.127188
21
0.103226
31
0.0
0
LINE
8
0
6
CONTINUOUS
10
0.149151
20
0.077480
30
0.0
11
0.152795
21
0.071751
31
0.0
0
LINE
8
0
6
CONTINUOUS
10
-0.085629
20
-0.106352
30
0.0
11
-0.084436
21
-0.106352
31
0.0
0
LINE
8
0
6
CONTINUOUS
10
-0.084436
20
-0.106352
30
0.0
11
-0.084436
21
-0.105405
31
0.0
0
LINE
8
0
6
CONTINUOUS
10
-0.089126
20
-0.106352
30
0.0
11
-0.085629
21
-0.106352
31
0.0
0
LINE
8
0
6
CONTINUOUS
10
-0.094688
20
-0.106352
30
0.0
11
-0.089126
21
-0.106352
31
0.0
0
LINE
8
0
6
CONTINUOUS
10
-0.101936
20
-0.106352
30
0.0
11
-0.094688
21
-0.106352
31
0.0
0
LINE
8
0
6
CONTINUOUS
10
-0.110378
20
-0.106352
30
0.0
11
-0.101936
21
-0.106352
31
0.0
0
LINE
8
0
6
CONTINUOUS
10
-0.119436
20
-0.106352
30
0.0
11
-0.110378
21
-0.106352
31
0.0
0
LINE
8
0
6
CONTINUOUS
10
-0.128495
20
-0.106352
30
0.0
11
-0.119436
21
-0.106352
31
0.0
0
LINE
8
0
6
CONTINUOUS
10
-0.136936
20
-0.106352
30
0.0
11
-0.128495
21
-0.106352
31
0.0
0
LINE
8
0
6
CONTINUOUS
10
-0.144185
20
-0.106352
30
0.0
11
-0.136936
21
-0.106352
31
0.0
0
LINE
8
0
6
CONTINUOUS
10
-0.149747
20
-0.106352
30
0.0
11
-0.144185
21
-0.106352
31
0.0
0
LINE
8
0
6
CONTINUOUS
10
-0.153244
20
-0.106352
30
0.0
11
-0.149747
21
-0.106352
31
0.0
0
LINE
8
0
6
CONTINUOUS
10
-0.154436
20
-0.106352
30
0.0
11
-0.153244
21
-0.106352
31
0.0
0
LINE
8
0
6
CONTINUOUS
10
-0.154436
20
-0.105405
30
0.0
11
-0.154436
21
-0.106352
31
0.0
0
LINE
8
0
6
CONTINUOUS
10
-0.154436
20
-0.101299
30
0.0
11
-0.154436
21
-0.105405
31
0.0
0
LINE
8
0
6
CONTINUOUS
10
-0.084436
20
-0.105405
30
0.0
11
-0.084436
21
-0.101299
31
0.0
0
LINE
8
0
6
CONTINUOUS
10
-0.084436
20
-0.101299
30
0.0
11
-0.084436
21
-0.100352
31
0.0
0
LINE
8
0
6
CONTINUOUS
10
-0.084436
20
-0.100352
30
0.0
11
-0.085629
21
-0.100352
31
0.0
0
LINE
8
0
6
CONTINUOUS
10
-0.085629
20
-0.100352
30
0.0
11
-0.089126
21
-0.100352
31
0.0
0
LINE
8
0
6
CONTINUOUS
10
-0.089126
20
-0.100352
30
0.0
11
-0.094688
21
-0.100352
31
0.0
0
LINE
8
0
6
CONTINUOUS
10
-0.094688
20
-0.100352
30
0.0
11
-0.101936
21
-0.100352
31
0.0
0
LINE
8
0
6
CONTINUOUS
10
-0.101936
20
-0.100352
30
0.0
11
-0.110378
21
-0.100352
31
0.0
0
LINE
8
0
6
CONTINUOUS
10
-0.110378
20
-0.100352
30
0.0
11
-0.119436
21
-0.100352
31
0.0
0
LINE
8
0
6
CONTINUOUS
10
-0.119436
20
-0.100352
30
0.0
11
-0.128495
21
-0.100352
31
0.0
0
LINE
8
0
6
CONTINUOUS
10
-0.128495
20
-0.100352
30
0.0
11
-0.136936
21
-0.100352
31
0.0
0
LINE
8
0
6
CONTINUOUS
10
-0.136936
20
-0.100352
30
0.0
11
-0.144185
21
-0.100352
31
0.0
0
LINE
8
0
6
CONTINUOUS
10
-0.144185
20
-0.100352
30
0.0
11
-0.149747
21
-0.100352
31
0.0
0
LINE
8
0
6
CONTINUOUS
10
-0.149747
20
-0.100352
30
0.0
11
-0.153244
21
-0.100352
31
0.0
0
LINE
8
0
6
CONTINUOUS
10
-0.154436
20
-0.100352
30
0.0
11
-0.154436
21
-0.101299
31
0.0
0
LINE
8
0
6
CONTINUOUS
10
-0.153244
20
-0.100352
30
0.0
11
-0.154436
21
-0.100352
31
0.0
0
LINE
8
0
6
CONTINUOUS
10
-0.143436
20
-0.045856
30
0.0
11
-0.143436
21
-0.100352
31
0.0
0
LINE
8
0
6
CONTINUOUS
10
-0.095436
20
-0.100352
30
0.0
11
-0.095436
21
-0.045856
31
0.0
0
LINE
8
0
6
CONTINUOUS
10
-0.104936
20
-0.043951
30
0.0
11
-0.104936
21
-0.018865
31
0.0
0
LINE
8
0
6
CONTINUOUS
10
-0.133936
20
-0.018865
30
0.0
11
-0.133936
21
-0.043951
31
0.0
0
LINE
8
0
6
CONTINUOUS
10
-0.133936
20
-0.008347
30
0.0
11
-0.133933
21
-0.013606
31
0.0
0
LINE
8
0
6
CONTINUOUS
10
-0.104940
20
-0.013606
30
0.0
11
-0.104936
21
-0.008347
31
0.0
0
LINE
8
0
6
CONTINUOUS
10
-0.133936
20
0.001463
30
0.0
11
-0.133943
21
-0.003442
31
0.0
0
LINE
8
0
6
CONTINUOUS
10
-0.104929
20
-0.003442
30
0.0
11
-0.104936
21
0.001463
31
0.0
0
LINE
8
0
6
CONTINUOUS
10
-0.133936
20
0.009686
30
0.0
11
-0.133937
21
0.005575
31
0.0
0
LINE
8
0
6
CONTINUOUS
10
-0.104936
20
0.005575
30
0.0
11
-0.104936
21
0.009686
31
0.0
0
LINE
8
0
6
CONTINUOUS
10
-0.133936
20
0.015583
30
0.0
11
-0.133938
21
0.012634
31
0.0
0
LINE
8
0
6
CONTINUOUS
10
-0.104934
20
0.012634
30
0.0
11
-0.104936
21
0.015583
31
0.0
0
LINE
8
0
6
CONTINUOUS
10
-0.133936
20
0.018623
30
0.0
11
-0.133936
21
0.017103
31
0.0
0
LINE
8
0
6
CONTINUOUS
10
-0.104937
20
0.017103
30
0.0
11
-0.104936
21
0.018623
31
0.0
0
LINE
8
0
6
CONTINUOUS
10
-0.133936
20
0.019016
30
0.0
11
-0.133936
21
0.018623
31
0.0
0
LINE
8
0
6
CONTINUOUS
10
-0.104936
20
0.018623
30
0.0
11
-0.104936
21
0.019016
31
0.0
0
LINE
8
0
6
CONTINUOUS
10
-0.133936
20
0.024144
30
0.0
11
-0.133936
21
0.019016
31
0.0
0
LINE
8
0
6
CONTINUOUS
10
-0.104936
20
0.019016
30
0.0
11
-0.104936
21
0.024144
31
0.0
0
LINE
8
0
6
CONTINUOUS
10
-0.123917
20
0.037940
30
0.0
11
-0.127959
21
0.035885
31
0.0
0
LINE
8
0
6
CONTINUOUS
10
-0.127959
20
0.035885
30
0.0
11
-0.131167
21
0.032684
31
0.0
0
LINE
8
0
6
CONTINUOUS
10
-0.131167
20
0.032684
30
0.0
11
-0.133227
21
0.028651
31
0.0
0
LINE
8
0
6
CONTINUOUS
10
-0.133227
20
0.028651
30
0.0
11
-0.133936
21
0.024180
31
0.0
0
LINE
8
0
6
CONTINUOUS
10
-0.133227
20
0.019710
30
0.0
11
-0.133936
21
0.024180
31
0.0
0
LINE
8
0
6
CONTINUOUS
10
-0.131167
20
0.015677
30
0.0
11
-0.133227
21
0.019710
31
0.0
0
LINE
8
0
6
CONTINUOUS
10
-0.127959
20
0.012476
30
0.0
11
-0.131167
21
0.015677
31
0.0
0
LINE
8
0
6
CONTINUOUS
10
-0.123917
20
0.010421
30
0.0
11
-0.127959
21
0.012476
31
0.0
0
LINE
8
0
6
CONTINUOUS
10
-0.119436
20
0.009713
30
0.0
11
-0.123917
21
0.010421
31
0.0
0
LINE
8
0
6
CONTINUOUS
10
-0.114956
20
0.010421
30
0.0
11
-0.119436
21
0.009713
31
0.0
0
LINE
8
0
6
CONTINUOUS
10
-0.110914
20
0.012476
30
0.0
11
-0.114956
21
0.010421
31
0.0
0
LINE
8
0
6
CONTINUOUS
10
-0.107706
20
0.015677
30
0.0
11
-0.110914
21
0.012476
31
0.0
0
LINE
8
0
6
CONTINUOUS
10
-0.105646
20
0.019710
30
0.0
11
-0.107706
21
0.015677
31
0.0
0
LINE
8
0
6
CONTINUOUS
10
-0.104936
20
0.024180
30
0.0
11
-0.105646
21
0.019710
31
0.0
0
LINE
8
0
6
CONTINUOUS
10
-0.104936
20
0.024180
30
0.0
11
-0.105646
21
0.028651
31
0.0
0
LINE
8
0
6
CONTINUOUS
10
-0.105646
20
0.028651
30
0.0
11
-0.107706
21
0.032684
31
0.0
0
LINE
8
0
6
CONTINUOUS
10
-0.107706
20
0.032684
30
0.0
11
-0.110914
21
0.035885
31
0.0
0
LINE
8
0
6
CONTINUOUS
10
-0.110914
20
0.035885
30
0.0
11
-0.114956
21
0.037940
31
0.0
0
LINE
8
0
6
CONTINUOUS
10
-0.114956
20
0.037940
30
0.0
11
-0.119436
21
0.038648
31
0.0
0
LINE
8
0
6
CONTINUOUS
10
-0.119436
20
0.038648
30
0.0
11
-0.123917
21
0.037940
31
0.0
0
LINE
8
0
6
CONTINUOUS
10
-0.127294
20
-0.001692
30
0.0
11
-0.123568
21
-0.001335
31
0.0
0
LINE
8
0
6
CONTINUOUS
10
-0.130252
20
-0.002249
30
0.0
11
-0.127294
21
-0.001692
31
0.0
0
LINE
8
0
6
CONTINUOUS
10
-0.132151
20
-0.002950
30
0.0
11
-0.130252
21
-0.002249
31
0.0
0
LINE
8
0
6
CONTINUOUS
10
-0.132805
20
-0.002785
30
0.0
11
-0.132805
21
-0.003727
31
0.0
0
LINE
8
0
6
CONTINUOUS
10
-0.132805
20
-0.003727
30
0.0
11
-0.132151
21
-0.002950
31
0.0
0
LINE
8
0
6
CONTINUOUS
10
-0.132805
20
-0.003727
30
0.0
11
-0.132151
21
-0.004503
31
0.0
0
LINE
8
0
6
CONTINUOUS
10
-0.132151
20
-0.004503
30
0.0
11
-0.130252
21
-0.005204
31
0.0
0
LINE
8
0
6
CONTINUOUS
10
-0.130252
20
-0.005204
30
0.0
11
-0.127294
21
-0.005761
31
0.0
0
LINE
8
0
6
CONTINUOUS
10
-0.127294
20
-0.005761
30
0.0
11
-0.123568
21
-0.006118
31
0.0
0
LINE
8
0
6
CONTINUOUS
10
-0.123568
20
-0.006118
30
0.0
11
-0.119436
21
-0.006241
31
0.0
0
LINE
8
0
6
CONTINUOUS
10
-0.119436
20
-0.006241
30
0.0
11
-0.115305
21
-0.006118
31
0.0
0
LINE
8
0
6
CONTINUOUS
10
-0.115305
20
-0.006118
30
0.0
11
-0.111578
21
-0.005761
31
0.0
0
LINE
8
0
6
CONTINUOUS
10
-0.111578
20
-0.005761
30
0.0
11
-0.108621
21
-0.005204
31
0.0
0
LINE
8
0
6
CONTINUOUS
10
-0.108621
20
-0.005204
30
0.0
11
-0.106722
21
-0.004503
31
0.0
0
LINE
8
0
6
CONTINUOUS
10
-0.106722
20
-0.004503
30
0.0
11
-0.106068
21
-0.003727
31
0.0
0
LINE
8
0
6
CONTINUOUS
10
-0.106068
20
-0.003727
30
0.0
11
-0.106068
21
-0.002785
31
0.0
0
LINE
8
0
6
CONTINUOUS
10
-0.106722
20
-0.002950
30
0.0
11
-0.106068
21
-0.003727
31
0.0
0
LINE
8
0
6
CONTINUOUS
10
-0.108621
20
-0.002249
30
0.0
11
-0.106722
21
-0.002950
31
0.0
0
LINE
8
0
6
CONTINUOUS
10
-0.111578
20
-0.001692
30
0.0
11
-0.108621
21
-0.002249
31
0.0
0
LINE
8
0
6
CONTINUOUS
10
-0.115305
20
-0.001335
30
0.0
11
-0.111578
21
-0.001692
31
0.0
0
LINE
8
0
6
CONTINUOUS
10
-0.119436
20
-0.001212
30
0.0
11
-0.115305
21
-0.001335
31
0.0
0
LINE
8
0
6
CONTINUOUS
10
-0.123568
20
-0.001335
30
0.0
11
-0.119436
21
-0.001212
31
0.0
0
LINE
8
0
6
CONTINUOUS
10
-0.106068
20
0.017016
30
0.0
11
-0.106722
21
0.017793
31
0.0
0
LINE
8
0
6
CONTINUOUS
10
-0.106068
20
-0.002785
30
0.0
11
-0.106068
21
0.017016
31
0.0
0
LINE
8
0
6
CONTINUOUS
10
-0.132805
20
0.017016
30
0.0
11
-0.132805
21
-0.002785
31
0.0
0
LINE
8
0
6
CONTINUOUS
10
-0.132151
20
0.017793
30
0.0
11
-0.132805
21
0.017016
31
0.0
0
LINE
8
0
6
CONTINUOUS
10
-0.125413
20
-0.002180
30
0.0
11
-0.122579
21
-0.001908
31
0.0
0
LINE
8
0
6
CONTINUOUS
10
-0.127662
20
-0.002603
30
0.0
11
-0.125413
21
-0.002180
31
0.0
0
LINE
8
0
6
CONTINUOUS
10
-0.129106
20
-0.003136
30
0.0
11
-0.127662
21
-0.002603
31
0.0
0
LINE
8
0
6
CONTINUOUS
10
-0.129604
20
-0.003727
30
0.0
11
-0.129106
21
-0.003136
31
0.0
0
LINE
8
0
6
CONTINUOUS
10
-0.109766
20
-0.003136
30
0.0
11
-0.109269
21
-0.003727
31
0.0
0
LINE
8
0
6
CONTINUOUS
10
-0.111210
20
-0.002603
30
0.0
11
-0.109766
21
-0.003136
31
0.0
0
LINE
8
0
6
CONTINUOUS
10
-0.113460
20
-0.002180
30
0.0
11
-0.111210
21
-0.002603
31
0.0
0
LINE
8
0
6
CONTINUOUS
10
-0.116294
20
-0.001908
30
0.0
11
-0.113460
21
-0.002180
31
0.0
0
LINE
8
0
6
CONTINUOUS
10
-0.119436
20
-0.001815
30
0.0
11
-0.116294
21
-0.001908
31
0.0
0
LINE
8
0
6
CONTINUOUS
10
-0.122579
20
-0.001908
30
0.0
11
-0.119436
21
-0.001815
31
0.0
0
LINE
8
0
6
CONTINUOUS
10
-0.127662
20
-0.004850
30
0.0
11
-0.125413
21
-0.005273
31
0.0
0
LINE
8
0
6
CONTINUOUS
10
-0.116294
20
-0.005545
30
0.0
11
-0.113459
21
-0.005273
31
0.0
0
LINE
8
0
6
CONTINUOUS
10
-0.113459
20
-0.005273
30
0.0
11
-0.111210
21
-0.004850
31
0.0
0
LINE
8
0
6
CONTINUOUS
10
-0.125413
20
-0.005273
30
0.0
11
-0.122579
21
-0.005545
31
0.0
0
LINE
8
0
6
CONTINUOUS
10
-0.111210
20
-0.004850
30
0.0
11
-0.109766
21
-0.004317
31
0.0
0
LINE
8
0
6
CONTINUOUS
10
-0.122579
20
-0.005545
30
0.0
11
-0.119436
21
-0.005638
31
0.0
0
LINE
8
0
6
CONTINUOUS
10
-0.129604
20
-0.003727
30
0.0
11
-0.129106
21
-0.004317
31
0.0
0
LINE
8
0
6
CONTINUOUS
10
-0.109766
20
-0.004317
30
0.0
11
-0.109269
21
-0.003727
31
0.0
0
LINE
8
0
6
CONTINUOUS
10
-0.119436
20
-0.005638
30
0.0
11
-0.116294
21
-0.005545
31
0.0
0
LINE
8
0
6
CONTINUOUS
10
-0.129106
20
-0.004317
30
0.0
11
-0.127662
21
-0.004850
31
0.0
0
LINE
8
0
6
CONTINUOUS
10
-0.133936
20
-0.043951
30
0.0
11
-0.133936
21
-0.044856
31
0.0
0
LINE
8
0
6
CONTINUOUS
10
-0.133227
20
-0.044856
30
0.0
11
-0.133936
21
-0.044856
31
0.0
0
LINE
8
0
6
CONTINUOUS
10
-0.127959
20
-0.044856
30
0.0
11
-0.131167
21
-0.044856
31
0.0
0
LINE
8
0
6
CONTINUOUS
10
-0.131167
20
-0.044856
30
0.0
11
-0.133227
21
-0.044856
31
0.0
0
LINE
8
0
6
CONTINUOUS
10
-0.123917
20
-0.044856
30
0.0
11
-0.127959
21
-0.044856
31
0.0
0
LINE
8
0
6
CONTINUOUS
10
-0.119436
20
-0.044856
30
0.0
11
-0.123917
21
-0.044856
31
0.0
0
LINE
8
0
6
CONTINUOUS
10
-0.114956
20
-0.044856
30
0.0
11
-0.119436
21
-0.044856
31
0.0
0
LINE
8
0
6
CONTINUOUS
10
-0.110913
20
-0.044856
30
0.0
11
-0.114956
21
-0.044856
31
0.0
0
LINE
8
0
6
CONTINUOUS
10
-0.107706
20
-0.044856
30
0.0
11
-0.110913
21
-0.044856
31
0.0
0
LINE
8
0
6
CONTINUOUS
10
-0.105646
20
-0.044856
30
0.0
11
-0.107706
21
-0.044856
31
0.0
0
LINE
8
0
6
CONTINUOUS
10
-0.104936
20
-0.044856
30
0.0
11
-0.104936
21
-0.043951
31
0.0
0
LINE
8
0
6
CONTINUOUS
10
-0.104936
20
-0.044856
30
0.0
11
-0.105646
21
-0.044856
31
0.0
0
LINE
8
0
6
CONTINUOUS
10
-0.143436
20
-0.044856
30
0.0
11
-0.143436
21
-0.045856
31
0.0
0
LINE
8
0
6
CONTINUOUS
10
-0.142619
20
-0.044856
30
0.0
11
-0.143436
21
-0.044856
31
0.0
0
LINE
8
0
6
CONTINUOUS
10
-0.140221
20
-0.044856
30
0.0
11
-0.142619
21
-0.044856
31
0.0
0
LINE
8
0
6
CONTINUOUS
10
-0.136407
20
-0.044856
30
0.0
11
-0.140221
21
-0.044856
31
0.0
0
LINE
8
0
6
CONTINUOUS
10
-0.131436
20
-0.044856
30
0.0
11
-0.136407
21
-0.044856
31
0.0
0
LINE
8
0
6
CONTINUOUS
10
-0.125648
20
-0.044856
30
0.0
11
-0.131436
21
-0.044856
31
0.0
0
LINE
8
0
6
CONTINUOUS
10
-0.119436
20
-0.044856
30
0.0
11
-0.125648
21
-0.044856
31
0.0
0
LINE
8
0
6
CONTINUOUS
10
-0.113225
20
-0.044856
30
0.0
11
-0.119436
21
-0.044856
31
0.0
0
LINE
8
0
6
CONTINUOUS
10
-0.107436
20
-0.044856
30
0.0
11
-0.113225
21
-0.044856
31
0.0
0
LINE
8
0
6
CONTINUOUS
10
-0.102466
20
-0.044856
30
0.0
11
-0.107436
21
-0.044856
31
0.0
0
LINE
8
0
6
CONTINUOUS
10
-0.098652
20
-0.044856
30
0.0
11
-0.102466
21
-0.044856
31
0.0
0
LINE
8
0
6
CONTINUOUS
10
-0.096254
20
-0.044856
30
0.0
11
-0.098652
21
-0.044856
31
0.0
0
LINE
8
0
6
CONTINUOUS
10
-0.095436
20
-0.044856
30
0.0
11
-0.096254
21
-0.044856
31
0.0
0
LINE
8
0
6
CONTINUOUS
10
-0.095436
20
-0.045856
30
0.0
11
-0.095436
21
-0.044856
31
0.0
0
LINE
8
0
6
CONTINUOUS
10
-0.129604
20
-0.003153
30
0.0
11
-0.129106
21
-0.003743
31
0.0
0
LINE
8
0
6
CONTINUOUS
10
-0.109766
20
-0.003744
30
0.0
11
-0.109269
21
-0.003153
31
0.0
0
LINE
8
0
6
CONTINUOUS
10
-0.129106
20
-0.003743
30
0.0
11
-0.127662
21
-0.004276
31
0.0
0
LINE
8
0
6
CONTINUOUS
10
-0.111210
20
-0.004276
30
0.0
11
-0.109766
21
-0.003744
31
0.0
0
LINE
8
0
6
CONTINUOUS
10
-0.127662
20
-0.004276
30
0.0
11
-0.125413
21
-0.004699
31
0.0
0
LINE
8
0
6
CONTINUOUS
10
-0.113459
20
-0.004699
30
0.0
11
-0.111210
21
-0.004276
31
0.0
0
LINE
8
0
6
CONTINUOUS
10
-0.125413
20
-0.004699
30
0.0
11
-0.122579
21
-0.004971
31
0.0
0
LINE
8
0
6
CONTINUOUS
10
-0.122579
20
-0.004971
30
0.0
11
-0.119436
21
-0.005065
31
0.0
0
LINE
8
0
6
CONTINUOUS
10
-0.116294
20
-0.004971
30
0.0
11
-0.113459
21
-0.004699
31
0.0
0
LINE
8
0
6
CONTINUOUS
10
-0.119436
20
-0.005065
30
0.0
11
-0.116294
21
-0.004971
31
0.0
0
LINE
8
0
6
CONTINUOUS
10
-0.104936
20
-0.008347
30
0.0
11
-0.104929
21
-0.003442
31
0.0
0
LINE
8
0
6
CONTINUOUS
10
-0.133943
20
-0.003442
30
0.0
11
-0.133936
21
-0.008347
31
0.0
0
LINE
8
0
6
CONTINUOUS
10
-0.104936
20
0.001463
30
0.0
11
-0.104936
21
0.005575
31
0.0
0
LINE
8
0
6
CONTINUOUS
10
-0.133937
20
0.005575
30
0.0
11
-0.133936
21
0.001463
31
0.0
0
LINE
8
0
6
CONTINUOUS
10
-0.104936
20
-0.018865
30
0.0
11
-0.104940
21
-0.013606
31
0.0
0
LINE
8
0
6
CONTINUOUS
10
-0.133933
20
-0.013606
30
0.0
11
-0.133936
21
-0.018865
31
0.0
0
LINE
8
0
6
CONTINUOUS
10
-0.104936
20
0.009686
30
0.0
11
-0.104934
21
0.012634
31
0.0
0
LINE
8
0
6
CONTINUOUS
10
-0.133938
20
0.012634
30
0.0
11
-0.133936
21
0.009686
31
0.0
0
LINE
8
0
6
CONTINUOUS
10
-0.104936
20
0.015583
30
0.0
11
-0.104937
21
0.017103
31
0.0
0
LINE
8
0
6
CONTINUOUS
10
-0.133936
20
0.017103
30
0.0
11
-0.133936
21
0.015583
31
0.0
0
LINE
8
0
6
CONTINUOUS
10
-0.015109
20
-0.042383
30
0.0
11
-0.015109
21
-0.051176
31
0.0
0
LINE
8
0
6
CONTINUOUS
10
-0.011607
20
-0.047823
30
0.0
11
-0.011607
21
-0.056730
31
0.0
0
LINE
8
0
6
CONTINUOUS
10
-0.012309
20
-0.061055
30
0.0
11
-0.013447
21
-0.057949
31
0.0
0
LINE
8
0
6
CONTINUOUS
10
-0.031936
20
-0.056530
30
0.0
11
-0.031936
21
-0.059877
31
0.0
0
LINE
8
0
6
CONTINUOUS
10
-0.031936
20
-0.059877
30
0.0
11
-0.031936
21
-0.063225
31
0.0
0
LINE
8
0
6
CONTINUOUS
10
-0.031936
20
-0.053182
30
0.0
11
-0.031936
21
-0.056530
31
0.0
0
LINE
8
0
6
CONTINUOUS
10
-0.031936
20
-0.063225
30
0.0
11
-0.031936
21
-0.066572
31
0.0
0
LINE
8
0
6
CONTINUOUS
10
-0.031936
20
-0.066572
30
0.0
11
-0.031936
21
-0.069646
31
0.0
0
LINE
8
0
6
CONTINUOUS
10
-0.013447
20
-0.057949
30
0.0
11
-0.011607
21
-0.059324
31
0.0
0
LINE
8
0
6
CONTINUOUS
10
-0.015430
20
-0.053517
30
0.0
11
-0.015026
21
-0.052257
31
0.0
0
LINE
8
0
6
CONTINUOUS
10
-0.015109
20
-0.051176
30
0.0
11
-0.015026
21
-0.052257
31
0.0
0
LINE
8
0
6
CONTINUOUS
10
-0.011607
20
-0.057533
30
0.0
11
-0.011607
21
-0.056730
31
0.0
0
LINE
8
0
6
CONTINUOUS
10
-0.015437
20
-0.066828
30
0.0
11
-0.014536
21
-0.065415
31
0.0
0
LINE
8
0
6
CONTINUOUS
10
-0.030466
20
-0.085863
30
0.0
11
-0.030466
21
-0.100852
31
0.0
0
LINE
8
0
6
CONTINUOUS
10
-0.015649
20
-0.053936
30
0.0
11
-0.015430
21
-0.053517
31
0.0
0
LINE
8
0
6
CONTINUOUS
10
-0.013372
20
-0.063369
30
0.0
11
-0.014536
21
-0.065415
31
0.0
0
LINE
8
0
6
CONTINUOUS
10
-0.015649
20
-0.053936
30
0.0
11
-0.016348
21
-0.055041
31
0.0
0
LINE
8
0
6
CONTINUOUS
10
-0.013372
20
-0.063369
30
0.0
11
-0.012309
21
-0.061055
31
0.0
0
LINE
8
0
6
CONTINUOUS
10
-0.009436
20
-0.036352
30
0.0
11
-0.011607
21
-0.036800
31
0.0
0
LINE
8
0
6
CONTINUOUS
10
-0.014019
20
-0.038964
30
0.0
11
-0.014677
21
-0.039986
31
0.0
0
LINE
8
0
6
CONTINUOUS
10
-0.011607
20
-0.036800
30
0.0
11
-0.012527
21
-0.037438
31
0.0
0
LINE
8
0
6
CONTINUOUS
10
-0.014677
20
-0.039986
30
0.0
11
-0.015109
21
-0.042240
31
0.0
0
LINE
8
0
6
CONTINUOUS
10
-0.015109
20
-0.042240
30
0.0
11
-0.015109
21
-0.042383
31
0.0
0
LINE
8
0
6
CONTINUOUS
10
-0.015109
20
-0.042240
30
0.0
11
-0.014677
21
-0.044493
31
0.0
0
LINE
8
0
6
CONTINUOUS
10
-0.014677
20
-0.044493
30
0.0
11
-0.013447
21
-0.046403
31
0.0
0
LINE
8
0
6
CONTINUOUS
10
-0.013447
20
-0.046403
30
0.0
11
-0.011607
21
-0.047679
31
0.0
0
LINE
8
0
6
CONTINUOUS
10
-0.011607
20
-0.047679
30
0.0
11
-0.011607
21
-0.047823
31
0.0
0
LINE
8
0
6
CONTINUOUS
10
-0.011607
20
-0.047679
30
0.0
11
-0.009436
21
-0.048127
31
0.0
0
LINE
8
0
6
CONTINUOUS
10
-0.031936
20
-0.049834
30
0.0
11
-0.031936
21
-0.050857
31
0.0
0
LINE
8
0
6
CONTINUOUS
10
-0.031126
20
-0.049834
30
0.0
11
-0.031936
21
-0.049834
31
0.0
0
LINE
8
0
6
CONTINUOUS
10
-0.025366
20
-0.049834
30
0.0
11
-0.028966
21
-0.049834
31
0.0
0
LINE
8
0
6
CONTINUOUS
10
-0.028966
20
-0.049834
30
0.0
11
-0.031126
21
-0.049834
31
0.0
0
LINE
8
0
6
CONTINUOUS
10
-0.020596
20
-0.049834
30
0.0
11
-0.025366
21
-0.049834
31
0.0
0
LINE
8
0
6
CONTINUOUS
10
-0.016553
20
-0.049834
30
0.0
11
-0.017562
21
-0.049834
31
0.0
0
LINE
8
0
6
CONTINUOUS
10
-0.017562
20
-0.049834
30
0.0
11
-0.020596
21
-0.049834
31
0.0
0
LINE
8
0
6
CONTINUOUS
10
-0.015324
20
-0.049398
30
0.0
11
-0.016553
21
-0.049834
31
0.0
0
LINE
8
0
6
CONTINUOUS
10
-0.016769
20
-0.050632
30
0.0
11
-0.017218
21
-0.052846
31
0.0
0
LINE
8
0
6
CONTINUOUS
10
-0.031936
20
-0.050857
30
0.0
11
-0.031936
21
-0.053182
31
0.0
0
LINE
8
0
6
CONTINUOUS
10
-0.013447
20
-0.038076
30
0.0
11
-0.014019
21
-0.038964
31
0.0
0
LINE
8
0
6
CONTINUOUS
10
-0.012527
20
-0.037438
30
0.0
11
-0.013447
21
-0.038076
31
0.0
0
LINE
8
0
6
CONTINUOUS
10
-0.031936
20
-0.069646
30
0.0
11
-0.031936
21
-0.085351
31
0.0
0
LINE
8
0
6
CONTINUOUS
10
-0.003764
20
-0.051176
30
0.0
11
-0.003764
21
-0.042383
31
0.0
0
LINE
8
0
6
CONTINUOUS
10
-0.009436
20
-0.059759
30
0.0
11
-0.009436
21
-0.061107
31
0.0
0
LINE
8
0
6
CONTINUOUS
10
-0.007266
20
-0.056730
30
0.0
11
-0.007266
21
-0.047823
31
0.0
0
LINE
8
0
6
CONTINUOUS
10
-0.009436
20
-0.048271
30
0.0
11
-0.009436
21
-0.057153
31
0.0
0
LINE
8
0
6
CONTINUOUS
10
-0.006564
20
-0.061055
30
0.0
11
-0.005425
21
-0.057949
31
0.0
0
LINE
8
0
6
CONTINUOUS
10
0.013064
20
-0.059877
30
0.0
11
0.013064
21
-0.056530
31
0.0
0
LINE
8
0
6
CONTINUOUS
10
0.013064
20
-0.063225
30
0.0
11
0.013064
21
-0.059877
31
0.0
0
LINE
8
0
6
CONTINUOUS
10
0.013064
20
-0.056530
30
0.0
11
0.013064
21
-0.053182
31
0.0
0
LINE
8
0
6
CONTINUOUS
10
0.013064
20
-0.066572
30
0.0
11
0.013064
21
-0.063225
31
0.0
0
LINE
8
0
6
CONTINUOUS
10
0.013064
20
-0.069646
30
0.0
11
0.013064
21
-0.066572
31
0.0
0
LINE
8
0
6
CONTINUOUS
10
-0.007266
20
-0.059324
30
0.0
11
-0.005425
21
-0.057949
31
0.0
0
LINE
8
0
6
CONTINUOUS
10
-0.009436
20
-0.057954
30
0.0
11
-0.009436
21
-0.059759
31
0.0
0
LINE
8
0
6
CONTINUOUS
10
-0.003847
20
-0.052257
30
0.0
11
-0.003443
21
-0.053517
31
0.0
0
LINE
8
0
6
CONTINUOUS
10
-0.003847
20
-0.052257
30
0.0
11
-0.003764
21
-0.051176
31
0.0
0
LINE
8
0
6
CONTINUOUS
10
-0.009436
20
-0.057153
30
0.0
11
-0.009436
21
-0.057954
31
0.0
0
LINE
8
0
6
CONTINUOUS
10
-0.007266
20
-0.056730
30
0.0
11
-0.007266
21
-0.057533
31
0.0
0
LINE
8
0
6
CONTINUOUS
10
-0.004337
20
-0.065415
30
0.0
11
-0.003436
21
-0.066828
31
0.0
0
LINE
8
0
6
CONTINUOUS
10
0.011593
20
-0.100852
30
0.0
11
0.011593
21
-0.085863
31
0.0
0
LINE
8
0
6
CONTINUOUS
10
-0.003443
20
-0.053517
30
0.0
11
-0.003224
21
-0.053936
31
0.0
0
LINE
8
0
6
CONTINUOUS
10
-0.004337
20
-0.065415
30
0.0
11
-0.005500
21
-0.063369
31
0.0
0
LINE
8
0
6
CONTINUOUS
10
-0.002525
20
-0.055041
30
0.0
11
-0.003224
21
-0.053936
31
0.0
0
LINE
8
0
6
CONTINUOUS
10
-0.006564
20
-0.061055
30
0.0
11
-0.005500
21
-0.063369
31
0.0
0
LINE
8
0
6
CONTINUOUS
10
-0.007266
20
-0.036800
30
0.0
11
-0.009436
21
-0.036352
31
0.0
0
LINE
8
0
6
CONTINUOUS
10
-0.004196
20
-0.039986
30
0.0
11
-0.004854
21
-0.038964
31
0.0
0
LINE
8
0
6
CONTINUOUS
10
-0.006346
20
-0.037438
30
0.0
11
-0.007266
21
-0.036800
31
0.0
0
LINE
8
0
6
CONTINUOUS
10
-0.003764
20
-0.042240
30
0.0
11
-0.004196
21
-0.039986
31
0.0
0
LINE
8
0
6
CONTINUOUS
10
-0.003764
20
-0.042383
30
0.0
11
-0.003764
21
-0.042240
31
0.0
0
LINE
8
0
6
CONTINUOUS
10
-0.004196
20
-0.044493
30
0.0
11
-0.003764
21
-0.042240
31
0.0
0
LINE
8
0
6
CONTINUOUS
10
-0.005425
20
-0.046403
30
0.0
11
-0.004196
21
-0.044493
31
0.0
0
LINE
8
0
6
CONTINUOUS
10
-0.007266
20
-0.047679
30
0.0
11
-0.005425
21
-0.046403
31
0.0
0
LINE
8
0
6
CONTINUOUS
10
-0.009436
20
-0.048127
30
0.0
11
-0.009436
21
-0.048271
31
0.0
0
LINE
8
0
6
CONTINUOUS
10
-0.007266
20
-0.047823
30
0.0
11
-0.007266
21
-0.047679
31
0.0
0
LINE
8
0
6
CONTINUOUS
10
-0.009436
20
-0.048127
30
0.0
11
-0.007266
21
-0.047679
31
0.0
0
LINE
8
0
6
CONTINUOUS
10
0.013064
20
-0.049834
30
0.0
11
0.012254
21
-0.049834
31
0.0
0
LINE
8
0
6
CONTINUOUS
10
0.013064
20
-0.050857
30
0.0
11
0.013064
21
-0.049834
31
0.0
0
LINE
8
0
6
CONTINUOUS
10
0.010094
20
-0.049834
30
0.0
11
0.006494
21
-0.049834
31
0.0
0
LINE
8
0
6
CONTINUOUS
10
0.012254
20
-0.049834
30
0.0
11
0.010094
21
-0.049834
31
0.0
0
LINE
8
0
6
CONTINUOUS
10
0.006494
20
-0.049834
30
0.0
11
0.001724
21
-0.049834
31
0.0
0
LINE
8
0
6
CONTINUOUS
10
-0.001311
20
-0.049834
30
0.0
11
-0.002320
21
-0.049834
31
0.0
0
LINE
8
0
6
CONTINUOUS
10
0.001724
20
-0.049834
30
0.0
11
-0.001311
21
-0.049834
31
0.0
0
LINE
8
0
6
CONTINUOUS
10
-0.002320
20
-0.049834
30
0.0
11
-0.003549
21
-0.049398
31
0.0
0
LINE
8
0
6
CONTINUOUS
10
-0.001655
20
-0.052846
30
0.0
11
-0.002103
21
-0.050632
31
0.0
0
LINE
8
0
6
CONTINUOUS
10
0.013064
20
-0.053182
30
0.0
11
0.013064
21
-0.050857
31
0.0
0
LINE
8
0
6
CONTINUOUS
10
-0.004854
20
-0.038964
30
0.0
11
-0.005425
21
-0.038076
31
0.0
0
LINE
8
0
6
CONTINUOUS
10
-0.005425
20
-0.038076
30
0.0
11
-0.006346
21
-0.037438
31
0.0
0
LINE
8
0
6
CONTINUOUS
10
0.013064
20
-0.085351
30
0.0
11
0.013064
21
-0.069646
31
0.0
0
LINE
8
0
6
CONTINUOUS
10
-0.028966
20
-0.085863
30
0.0
11
-0.025366
21
-0.085863
31
0.0
0
LINE
8
0
6
CONTINUOUS
10
-0.031126
20
-0.085863
30
0.0
11
-0.028966
21
-0.085863
31
0.0
0
LINE
8
0
6
CONTINUOUS
10
-0.031936
20
-0.085351
30
0.0
11
-0.031936
21
-0.085863
31
0.0
0
LINE
8
0
6
CONTINUOUS
10
-0.031936
20
-0.085863
30
0.0
11
-0.031126
21
-0.085863
31
0.0
0
LINE
8
0
6
CONTINUOUS
10
-0.025366
20
-0.085863
30
0.0
11
-0.020596
21
-0.085863
31
0.0
0
LINE
8
0
6
CONTINUOUS
10
-0.020596
20
-0.085863
30
0.0
11
-0.015196
21
-0.085863
31
0.0
0
LINE
8
0
6
CONTINUOUS
10
-0.015196
20
-0.085863
30
0.0
11
-0.009436
21
-0.085863
31
0.0
0
LINE
8
0
6
CONTINUOUS
10
0.006494
20
-0.085863
30
0.0
11
0.010094
21
-0.085863
31
0.0
0
LINE
8
0
6
CONTINUOUS
10
0.010094
20
-0.085863
30
0.0
11
0.012254
21
-0.085863
31
0.0
0
LINE
8
0
6
CONTINUOUS
10
0.012254
20
-0.085863
30
0.0
11
0.013064
21
-0.085863
31
0.0
0
LINE
8
0
6
CONTINUOUS
10
0.013064
20
-0.085863
30
0.0
11
0.013064
21
-0.085351
31
0.0
0
LINE
8
0
6
CONTINUOUS
10
0.001724
20
-0.085863
30
0.0
11
0.006494
21
-0.085863
31
0.0
0
LINE
8
0
6
CONTINUOUS
10
-0.003676
20
-0.085863
30
0.0
11
0.001724
21
-0.085863
31
0.0
0
LINE
8
0
6
CONTINUOUS
10
-0.009436
20
-0.085863
30
0.0
11
-0.003676
21
-0.085863
31
0.0
0
LINE
8
0
6
CONTINUOUS
10
0.024371
20
-0.106852
30
0.0
11
0.025564
21
-0.106852
31
0.0
0
LINE
8
0
6
CONTINUOUS
10
0.025564
20
-0.106852
30
0.0
11
0.025564
21
-0.105905
31
0.0
0
LINE
8
0
6
CONTINUOUS
10
0.020874
20
-0.106852
30
0.0
11
0.024371
21
-0.106852
31
0.0
0
LINE
8
0
6
CONTINUOUS
10
0.015312
20
-0.106852
30
0.0
11
0.020874
21
-0.106852
31
0.0
0
LINE
8
0
6
CONTINUOUS
10
0.008064
20
-0.106852
30
0.0
11
0.015312
21
-0.106852
31
0.0
0
LINE
8
0
6
CONTINUOUS
10
-0.000378
20
-0.106852
30
0.0
11
0.008064
21
-0.106852
31
0.0
0
LINE
8
0
6
CONTINUOUS
10
-0.009436
20
-0.106852
30
0.0
11
-0.000378
21
-0.106852
31
0.0
0
LINE
8
0
6
CONTINUOUS
10
-0.018495
20
-0.106852
30
0.0
11
-0.009436
21
-0.106852
31
0.0
0
LINE
8
0
6
CONTINUOUS
10
-0.026936
20
-0.106852
30
0.0
11
-0.018495
21
-0.106852
31
0.0
0
LINE
8
0
6
CONTINUOUS
10
-0.034185
20
-0.106852
30
0.0
11
-0.026936
21
-0.106852
31
0.0
0
LINE
8
0
6
CONTINUOUS
10
-0.039747
20
-0.106852
30
0.0
11
-0.034185
21
-0.106852
31
0.0
0
LINE
8
0
6
CONTINUOUS
10
-0.043244
20
-0.106852
30
0.0
11
-0.039747
21
-0.106852
31
0.0
0
LINE
8
0
6
CONTINUOUS
10
-0.044436
20
-0.106852
30
0.0
11
-0.043244
21
-0.106852
31
0.0
0
LINE
8
0
6
CONTINUOUS
10
-0.044436
20
-0.105905
30
0.0
11
-0.044436
21
-0.106852
31
0.0
0
LINE
8
0
6
CONTINUOUS
10
-0.044436
20
-0.101799
30
0.0
11
-0.044436
21
-0.105905
31
0.0
0
LINE
8
0
6
CONTINUOUS
10
0.025564
20
-0.105905
30
0.0
11
0.025564
21
-0.101799
31
0.0
0
LINE
8
0
6
CONTINUOUS
10
0.025564
20
-0.101799
30
0.0
11
0.025564
21
-0.100852
31
0.0
0
LINE
8
0
6
CONTINUOUS
10
0.025564
20
-0.100852
30
0.0
11
0.024371
21
-0.100852
31
0.0
0
LINE
8
0
6
CONTINUOUS
10
0.024371
20
-0.100852
30
0.0
11
0.020874
21
-0.100852
31
0.0
0
LINE
8
0
6
CONTINUOUS
10
0.020874
20
-0.100852
30
0.0
11
0.015312
21
-0.100852
31
0.0
0
LINE
8
0
6
CONTINUOUS
10
0.015312
20
-0.100852
30
0.0
11
0.008064
21
-0.100852
31
0.0
0
LINE
8
0
6
CONTINUOUS
10
0.008064
20
-0.100852
30
0.0
11
-0.000378
21
-0.100852
31
0.0
0
LINE
8
0
6
CONTINUOUS
10
-0.000378
20
-0.100852
30
0.0
11
-0.009436
21
-0.100852
31
0.0
0
LINE
8
0
6
CONTINUOUS
10
-0.009436
20
-0.100852
30
0.0
11
-0.018495
21
-0.100852
31
0.0
0
LINE
8
0
6
CONTINUOUS
10
-0.018495
20
-0.100852
30
0.0
11
-0.026936
21
-0.100852
31
0.0
0
LINE
8
0
6
CONTINUOUS
10
-0.026936
20
-0.100852
30
0.0
11
-0.034185
21
-0.100852
31
0.0
0
LINE
8
0
6
CONTINUOUS
10
-0.034185
20
-0.100852
30
0.0
11
-0.039747
21
-0.100852
31
0.0
0
LINE
8
0
6
CONTINUOUS
10
-0.039747
20
-0.100852
30
0.0
11
-0.043244
21
-0.100852
31
0.0
0
LINE
8
0
6
CONTINUOUS
10
-0.044436
20
-0.100852
30
0.0
11
-0.044436
21
-0.101799
31
0.0
0
LINE
8
0
6
CONTINUOUS
10
-0.043244
20
-0.100852
30
0.0
11
-0.044436
21
-0.100852
31
0.0
0
LINE
8
0
6
CONTINUOUS
10
0.056138
20
0.064185
30
0.0
11
0.057395
21
0.063504
31
0.0
0
LINE
8
0
6
CONTINUOUS
10
0.099385
20
0.070808
30
0.0
11
0.100563
21
0.070734
31
0.0
0
LINE
8
0
6
CONTINUOUS
10
0.100563
20
0.070734
30
0.0
11
0.101029
21
0.070743
31
0.0
0
LINE
8
0
6
CONTINUOUS
10
0.054590
20
0.064342
30
0.0
11
0.054298
21
0.063819
31
0.0
0
LINE
8
0
6
CONTINUOUS
10
0.127705
20
0.063718
30
0.0
11
0.128715
21
0.063560
31
0.0
0
LINE
8
0
6
CONTINUOUS
10
0.131050
20
0.057434
30
0.0
11
0.132599
21
0.057502
31
0.0
0
LINE
8
0
6
CONTINUOUS
10
0.121135
20
0.052094
30
0.0
11
0.122332
21
0.052164
31
0.0
0
LINE
8
0
6
CONTINUOUS
10
0.062119
20
0.057303
30
0.0
11
0.062543
21
0.057085
31
0.0
0
LINE
8
0
6
CONTINUOUS
10
0.061286
20
0.057706
30
0.0
11
0.062119
21
0.057303
31
0.0
0
LINE
8
0
6
CONTINUOUS
10
0.137484
20
0.076245
30
0.0
11
0.137547
21
0.076272
31
0.0
0
LINE
8
0
6
CONTINUOUS
10
0.069241
20
0.057573
30
0.0
11
0.070498
21
0.057003
31
0.0
0
LINE
8
0
6
CONTINUOUS
10
0.139005
20
0.057515
30
0.0
11
0.140554
21
0.057700
31
0.0
0
LINE
8
0
6
CONTINUOUS
10
0.107971
20
0.077526
30
0.0
11
0.108852
21
0.077445
31
0.0
0
LINE
8
0
6
CONTINUOUS
10
0.112988
20
0.074052
30
0.0
11
0.112911
21
0.073979
31
0.0
0
LINE
8
0
6
CONTINUOUS
10
0.113925
20
0.079531
30
0.0
11
0.113041
21
0.078698
31
0.0
0
LINE
8
0
6
CONTINUOUS
10
0.112988
20
0.074052
30
0.0
11
0.114601
21
0.074056
31
0.0
0
LINE
8
0
6
CONTINUOUS
10
0.113925
20
0.079531
30
0.0
11
0.114100
21
0.079531
31
0.0
0
LINE
8
0
6
CONTINUOUS
10
0.112799
20
0.076680
30
0.0
11
0.114406
21
0.076188
31
0.0
0
LINE
8
0
6
CONTINUOUS
10
0.108852
20
0.077445
30
0.0
11
0.112799
21
0.076680
31
0.0
0
LINE
8
0
6
CONTINUOUS
10
0.126997
20
0.075834
30
0.0
11
0.128187
21
0.075904
31
0.0
0
LINE
8
0
6
CONTINUOUS
10
0.074678
20
0.072314
30
0.0
11
0.074422
21
0.072076
31
0.0
0
LINE
8
0
6
CONTINUOUS
10
0.099049
20
0.086441
30
0.0
11
0.098557
21
0.085369
31
0.0
0
LINE
8
0
6
CONTINUOUS
10
0.114481
20
0.058327
30
0.0
11
0.114190
21
0.057613
31
0.0
0
LINE
8
0
6
CONTINUOUS
10
0.125909
20
0.063377
30
0.0
11
0.127457
21
0.063777
31
0.0
0
LINE
8
0
6
CONTINUOUS
10
0.104633
20
0.077786
30
0.0
11
0.107971
21
0.077526
31
0.0
0
LINE
8
0
6
CONTINUOUS
10
0.100563
20
0.075548
30
0.0
11
0.100875
21
0.075528
31
0.0
0
LINE
8
0
6
CONTINUOUS
10
0.100563
20
0.077704
30
0.0
11
0.104633
21
0.077786
31
0.0
0
LINE
8
0
6
CONTINUOUS
10
0.127646
20
0.071016
30
0.0
11
0.128162
21
0.070831
31
0.0
0
LINE
8
0
6
CONTINUOUS
10
0.105715
20
0.055159
30
0.0
11
0.106774
21
0.055331
31
0.0
0
LINE
8
0
6
CONTINUOUS
10
0.105225
20
0.055078
30
0.0
11
0.105715
21
0.055159
31
0.0
0
LINE
8
0
6
CONTINUOUS
10
0.134716
20
0.063147
30
0.0
11
0.136265
21
0.063622
31
0.0
0
LINE
8
0
6
CONTINUOUS
10
0.077115
20
0.057825
30
0.0
11
0.078373
21
0.057314
31
0.0
0
LINE
8
0
6
CONTINUOUS
10
0.137547
20
0.076272
30
0.0
11
0.138861
21
0.077076
31
0.0
0
LINE
8
0
6
CONTINUOUS
10
0.130090
20
0.082210
30
0.0
11
0.130182
21
0.082002
31
0.0
0
LINE
8
0
6
CONTINUOUS
10
0.130182
20
0.082002
30
0.0
11
0.130526
21
0.081278
31
0.0
0
LINE
8
0
6
CONTINUOUS
10
0.059961
20
0.077242
30
0.0
11
0.059875
21
0.076504
31
0.0
0
LINE
8
0
6
CONTINUOUS
10
0.139983
20
0.077072
30
0.0
11
0.140331
21
0.077061
31
0.0
0
LINE
8
0
6
CONTINUOUS
10
0.138861
20
0.077076
30
0.0
11
0.139983
21
0.077072
31
0.0
0
LINE
8
0
6
CONTINUOUS
10
0.112409
20
0.053095
30
0.0
11
0.113957
21
0.053426
31
0.0
0
LINE
8
0
6
CONTINUOUS
10
0.126594
20
0.075862
30
0.0
11
0.126997
21
0.075834
31
0.0
0
LINE
8
0
6
CONTINUOUS
10
0.115638
20
0.048028
30
0.0
11
0.115709
21
0.048020
31
0.0
0
LINE
8
0
6
CONTINUOUS
10
0.123405
20
0.069999
30
0.0
11
0.124874
21
0.069773
31
0.0
0
LINE
8
0
6
CONTINUOUS
10
0.134531
20
0.070356
30
0.0
11
0.136000
21
0.070236
31
0.0
0
LINE
8
0
6
CONTINUOUS
10
0.110262
20
0.068466
30
0.0
11
0.111419
21
0.069101
31
0.0
0
LINE
8
0
6
CONTINUOUS
10
0.111419
20
0.069101
30
0.0
11
0.113011
21
0.068938
31
0.0
0
LINE
8
0
6
CONTINUOUS
10
0.083308
20
0.085019
30
0.0
11
0.084359
21
0.085779
31
0.0
0
LINE
8
0
6
CONTINUOUS
10
0.064291
20
0.070360
30
0.0
11
0.064199
21
0.069626
31
0.0
0
LINE
8
0
6
CONTINUOUS
10
0.088805
20
0.064516
30
0.0
11
0.088695
21
0.064373
31
0.0
0
LINE
8
0
6
CONTINUOUS
10
0.090843
20
0.063865
30
0.0
11
0.090751
21
0.063172
31
0.0
0
LINE
8
0
6
CONTINUOUS
10
0.080833
20
0.064003
30
0.0
11
0.080740
21
0.063337
31
0.0
0
LINE
8
0
6
CONTINUOUS
10
0.075417
20
0.069848
30
0.0
11
0.075325
21
0.069062
31
0.0
0
LINE
8
0
6
CONTINUOUS
10
0.111718
20
0.058801
30
0.0
11
0.111490
21
0.058657
31
0.0
0
LINE
8
0
6
CONTINUOUS
10
0.113911
20
0.047432
30
0.0
11
0.113826
21
0.047300
31
0.0
0
LINE
8
0
6
CONTINUOUS
10
0.114481
20
0.058327
30
0.0
11
0.116029
21
0.058750
31
0.0
0
LINE
8
0
6
CONTINUOUS
10
0.117989
20
0.064053
30
0.0
11
0.119458
21
0.063911
31
0.0
0
LINE
8
0
6
CONTINUOUS
10
0.122028
20
0.069439
30
0.0
11
0.123405
21
0.069999
31
0.0
0
LINE
8
0
6
CONTINUOUS
10
0.114100
20
0.079531
30
0.0
11
0.115569
21
0.079670
31
0.0
0
LINE
8
0
6
CONTINUOUS
10
0.114090
20
0.047723
30
0.0
11
0.113911
21
0.047432
31
0.0
0
LINE
8
0
6
CONTINUOUS
10
0.113826
20
0.047300
30
0.0
11
0.113798
21
0.047255
31
0.0
0
LINE
8
0
6
CONTINUOUS
10
0.114090
20
0.047723
30
0.0
11
0.115332
21
0.047969
31
0.0
0
LINE
8
0
6
CONTINUOUS
10
0.115332
20
0.047969
30
0.0
11
0.115638
21
0.048028
31
0.0
0
LINE
8
0
6
CONTINUOUS
10
0.108550
20
0.060220
30
0.0
11
0.109808
21
0.059814
31
0.0
0
LINE
8
0
6
CONTINUOUS
10
0.127341
20
0.081214
30
0.0
11
0.128498
21
0.082205
31
0.0
0
LINE
8
0
6
CONTINUOUS
10
0.072104
20
0.076077
30
0.0
11
0.071668
21
0.075265
31
0.0
0
LINE
8
0
6
CONTINUOUS
10
0.114406
20
0.076188
30
0.0
11
0.116548
21
0.075913
31
0.0
0
LINE
8
0
6
CONTINUOUS
10
0.116548
20
0.075913
30
0.0
11
0.120056
21
0.075025
31
0.0
0
LINE
8
0
6
CONTINUOUS
10
0.106288
20
0.049024
30
0.0
11
0.105997
21
0.048541
31
0.0
0
LINE
8
0
6
CONTINUOUS
10
0.106774
20
0.055331
30
0.0
11
0.108031
21
0.055012
31
0.0
0
LINE
8
0
6
CONTINUOUS
10
0.119526
20
0.051621
30
0.0
11
0.120783
21
0.052105
31
0.0
0
LINE
8
0
6
CONTINUOUS
10
0.125438
20
0.075122
30
0.0
11
0.126594
21
0.075862
31
0.0
0
LINE
8
0
6
CONTINUOUS
10
0.112505
20
0.059469
30
0.0
11
0.111718
21
0.058801
31
0.0
0
LINE
8
0
6
CONTINUOUS
10
0.108454
20
0.060202
30
0.0
11
0.108550
21
0.060220
31
0.0
0
LINE
8
0
6
CONTINUOUS
10
0.107002
20
0.059921
30
0.0
11
0.108454
21
0.060202
31
0.0
0
LINE
8
0
6
CONTINUOUS
10
0.100246
20
0.077741
30
0.0
11
0.100563
21
0.077704
31
0.0
0
ENDSEC
0
EOF
