999
Erzeugt mit innoplus bad 
0
SECTION
2
HEADER
9
$ACADVER
1
AC1009
9
$DWGCODEPAGE
3
ISO8859-1
0
ENDSEC
0
SECTION
2
TABLES
0
TABLE
2
LAYER
70
1
0
LAYER
2
0
70
0
62
7
6
CONTINUOUS
0
ENDTAB
0
ENDSEC
0
SECTION
2
ENTITIES
0
LINE
8
0
6
CONTINUOUS
10
-0.092235
20
0.120478
30
0.0
11
-0.100000
21
0.121500
31
0.0
0
LINE
8
0
6
CONTINUOUS
10
-0.085000
20
0.117481
30
0.0
11
-0.092235
21
0.120478
31
0.0
0
LINE
8
0
6
CONTINUOUS
10
-0.078787
20
0.112713
30
0.0
11
-0.085000
21
0.117481
31
0.0
0
LINE
8
0
6
CONTINUOUS
10
-0.074019
20
0.106500
30
0.0
11
-0.078787
21
0.112713
31
0.0
0
LINE
8
0
6
CONTINUOUS
10
-0.071022
20
0.099265
30
0.0
11
-0.074019
21
0.106500
31
0.0
0
LINE
8
0
6
CONTINUOUS
10
-0.070000
20
0.091500
30
0.0
11
-0.071022
21
0.099265
31
0.0
0
LINE
8
0
6
CONTINUOUS
10
-0.071022
20
0.083735
30
0.0
11
-0.070000
21
0.091500
31
0.0
0
LINE
8
0
6
CONTINUOUS
10
-0.074019
20
0.076500
30
0.0
11
-0.071022
21
0.083735
31
0.0
0
LINE
8
0
6
CONTINUOUS
10
-0.078787
20
0.070287
30
0.0
11
-0.074019
21
0.076500
31
0.0
0
LINE
8
0
6
CONTINUOUS
10
-0.092235
20
0.062522
30
0.0
11
-0.085000
21
0.065519
31
0.0
0
LINE
8
0
6
CONTINUOUS
10
-0.100000
20
0.061500
30
0.0
11
-0.092235
21
0.062522
31
0.0
0
LINE
8
0
6
CONTINUOUS
10
-0.107765
20
0.062522
30
0.0
11
-0.100000
21
0.061500
31
0.0
0
LINE
8
0
6
CONTINUOUS
10
-0.115000
20
0.065519
30
0.0
11
-0.107765
21
0.062522
31
0.0
0
LINE
8
0
6
CONTINUOUS
10
-0.121213
20
0.070287
30
0.0
11
-0.115000
21
0.065519
31
0.0
0
LINE
8
0
6
CONTINUOUS
10
-0.125981
20
0.076500
30
0.0
11
-0.121213
21
0.070287
31
0.0
0
LINE
8
0
6
CONTINUOUS
10
-0.128978
20
0.083735
30
0.0
11
-0.125981
21
0.076500
31
0.0
0
LINE
8
0
6
CONTINUOUS
10
-0.129535
20
0.087970
30
0.0
11
-0.128978
21
0.083735
31
0.0
0
LINE
8
0
6
CONTINUOUS
10
-0.128978
20
0.099265
30
0.0
11
-0.129535
21
0.095030
31
0.0
0
LINE
8
0
6
CONTINUOUS
10
-0.125981
20
0.106500
30
0.0
11
-0.128978
21
0.099265
31
0.0
0
LINE
8
0
6
CONTINUOUS
10
-0.121213
20
0.112713
30
0.0
11
-0.125981
21
0.106500
31
0.0
0
LINE
8
0
6
CONTINUOUS
10
-0.115000
20
0.117481
30
0.0
11
-0.121213
21
0.112713
31
0.0
0
LINE
8
0
6
CONTINUOUS
10
-0.107765
20
0.120478
30
0.0
11
-0.115000
21
0.117481
31
0.0
0
LINE
8
0
6
CONTINUOUS
10
-0.100000
20
0.121500
30
0.0
11
-0.107765
21
0.120478
31
0.0
0
LINE
8
0
6
CONTINUOUS
10
-0.085000
20
0.065519
30
0.0
11
-0.078787
21
0.070287
31
0.0
0
LINE
8
0
6
CONTINUOUS
10
-0.113456
20
0.096342
30
0.0
11
-0.114195
21
0.095786
31
0.0
0
LINE
8
0
6
CONTINUOUS
10
-0.110011
20
0.091500
30
0.0
11
-0.112912
21
0.091500
31
0.0
0
LINE
8
0
6
CONTINUOUS
10
-0.112153
20
0.098444
30
0.0
11
-0.113043
21
0.096855
31
0.0
0
LINE
8
0
6
CONTINUOUS
10
-0.116007
20
0.095030
30
0.0
11
-0.118272
21
0.095030
31
0.0
0
LINE
8
0
6
CONTINUOUS
10
-0.114447
20
0.093012
30
0.0
11
-0.116330
21
0.092851
31
0.0
0
LINE
8
0
6
CONTINUOUS
10
-0.116330
20
0.092851
30
0.0
11
-0.119158
21
0.092851
31
0.0
0
LINE
8
0
6
CONTINUOUS
10
-0.118272
20
0.095030
30
0.0
11
-0.121022
21
0.095030
31
0.0
0
LINE
8
0
6
CONTINUOUS
10
-0.113043
20
0.096855
30
0.0
11
-0.113456
21
0.096342
31
0.0
0
LINE
8
0
6
CONTINUOUS
10
-0.115189
20
0.087934
30
0.0
11
-0.115938
21
0.088239
31
0.0
0
LINE
8
0
6
CONTINUOUS
10
-0.116007
20
0.087970
30
0.0
11
-0.115257
21
0.087767
31
0.0
0
LINE
8
0
6
CONTINUOUS
10
-0.114195
20
0.087214
30
0.0
11
-0.113468
21
0.086690
31
0.0
0
LINE
8
0
6
CONTINUOUS
10
-0.113456
20
0.086658
30
0.0
11
-0.113043
21
0.086145
31
0.0
0
LINE
8
0
6
CONTINUOUS
10
-0.118272
20
0.087970
30
0.0
11
-0.116007
21
0.087970
31
0.0
0
LINE
8
0
6
CONTINUOUS
10
-0.112912
20
0.091500
30
0.0
11
-0.115801
21
0.091500
31
0.0
0
LINE
8
0
6
CONTINUOUS
10
-0.116330
20
0.090149
30
0.0
11
-0.114426
21
0.090050
31
0.0
0
LINE
8
0
6
CONTINUOUS
10
-0.156661
20
0.087970
30
0.0
11
-0.121022
21
0.087970
31
0.0
0
LINE
8
0
6
CONTINUOUS
10
-0.115801
20
0.091500
30
0.0
11
-0.118662
21
0.091500
31
0.0
0
LINE
8
0
6
CONTINUOUS
10
-0.121022
20
0.087970
30
0.0
11
-0.118272
21
0.087970
31
0.0
0
LINE
8
0
6
CONTINUOUS
10
-0.116330
20
0.090149
30
0.0
11
-0.119158
21
0.090149
31
0.0
0
LINE
8
0
6
CONTINUOUS
10
-0.113043
20
0.086145
30
0.0
11
-0.112153
21
0.084556
31
0.0
0
LINE
8
0
6
CONTINUOUS
10
-0.114169
20
0.087267
30
0.0
11
-0.113456
21
0.086658
31
0.0
0
LINE
8
0
6
CONTINUOUS
10
-0.115257
20
0.095233
30
0.0
11
-0.116007
21
0.095030
31
0.0
0
LINE
8
0
6
CONTINUOUS
10
-0.115938
20
0.094761
30
0.0
11
-0.115189
21
0.095066
31
0.0
0
LINE
8
0
6
CONTINUOUS
10
-0.114195
20
0.095786
30
0.0
11
-0.115257
21
0.095233
31
0.0
0
LINE
8
0
6
CONTINUOUS
10
-0.107098
20
0.091500
30
0.0
11
-0.110011
21
0.091500
31
0.0
0
LINE
8
0
6
CONTINUOUS
10
-0.115257
20
0.087767
30
0.0
11
-0.114195
21
0.087214
31
0.0
0
LINE
8
0
6
CONTINUOUS
10
-0.115189
20
0.087934
30
0.0
11
-0.114169
21
0.087267
31
0.0
0
LINE
8
0
6
CONTINUOUS
10
-0.156661
20
0.095030
30
0.0
11
-0.157075
21
0.095030
31
0.0
0
LINE
8
0
6
CONTINUOUS
10
-0.096416
20
0.104997
30
0.0
11
-0.100000
21
0.105501
31
0.0
0
LINE
8
0
6
CONTINUOUS
10
-0.100000
20
0.105501
30
0.0
11
-0.103584
21
0.104997
31
0.0
0
LINE
8
0
6
CONTINUOUS
10
-0.087848
20
0.098444
30
0.0
11
-0.090088
21
0.101412
31
0.0
0
LINE
8
0
6
CONTINUOUS
10
-0.086503
20
0.095084
30
0.0
11
-0.087848
21
0.098444
31
0.0
0
LINE
8
0
6
CONTINUOUS
10
-0.085999
20
0.091500
30
0.0
11
-0.086503
21
0.095084
31
0.0
0
LINE
8
0
6
CONTINUOUS
10
-0.090088
20
0.101412
30
0.0
11
-0.093056
21
0.103652
31
0.0
0
LINE
8
0
6
CONTINUOUS
10
-0.106944
20
0.103652
30
0.0
11
-0.109912
21
0.101412
31
0.0
0
LINE
8
0
6
CONTINUOUS
10
-0.103584
20
0.104997
30
0.0
11
-0.106944
21
0.103652
31
0.0
0
LINE
8
0
6
CONTINUOUS
10
-0.109912
20
0.101412
30
0.0
11
-0.112153
21
0.098444
31
0.0
0
LINE
8
0
6
CONTINUOUS
10
-0.093056
20
0.103652
30
0.0
11
-0.096416
21
0.104997
31
0.0
0
LINE
8
0
6
CONTINUOUS
10
-0.117998
20
0.094024
30
0.0
11
-0.120721
21
0.094022
31
0.0
0
LINE
8
0
6
CONTINUOUS
10
-0.113523
20
0.095928
30
0.0
11
-0.113079
21
0.096556
31
0.0
0
LINE
8
0
6
CONTINUOUS
10
-0.112153
20
0.098444
30
0.0
11
-0.113079
21
0.096556
31
0.0
0
LINE
8
0
6
CONTINUOUS
10
-0.112153
20
0.098444
30
0.0
11
-0.113068
21
0.096647
31
0.0
0
LINE
8
0
6
CONTINUOUS
10
-0.100000
20
0.077499
30
0.0
11
-0.096416
21
0.078003
31
0.0
0
LINE
8
0
6
CONTINUOUS
10
-0.103584
20
0.078003
30
0.0
11
-0.100000
21
0.077499
31
0.0
0
LINE
8
0
6
CONTINUOUS
10
-0.090088
20
0.081588
30
0.0
11
-0.087848
21
0.084556
31
0.0
0
LINE
8
0
6
CONTINUOUS
10
-0.087848
20
0.084556
30
0.0
11
-0.086503
21
0.087916
31
0.0
0
LINE
8
0
6
CONTINUOUS
10
-0.086503
20
0.087916
30
0.0
11
-0.085999
21
0.091500
31
0.0
0
LINE
8
0
6
CONTINUOUS
10
-0.093056
20
0.079347
30
0.0
11
-0.090088
21
0.081588
31
0.0
0
LINE
8
0
6
CONTINUOUS
10
-0.109912
20
0.081588
30
0.0
11
-0.106944
21
0.079347
31
0.0
0
LINE
8
0
6
CONTINUOUS
10
-0.106944
20
0.079347
30
0.0
11
-0.103584
21
0.078003
31
0.0
0
LINE
8
0
6
CONTINUOUS
10
-0.112153
20
0.084556
30
0.0
11
-0.109912
21
0.081588
31
0.0
0
LINE
8
0
6
CONTINUOUS
10
-0.096416
20
0.078003
30
0.0
11
-0.093056
21
0.079347
31
0.0
0
LINE
8
0
6
CONTINUOUS
10
-0.117998
20
0.088976
30
0.0
11
-0.120721
21
0.088978
31
0.0
0
LINE
8
0
6
CONTINUOUS
10
-0.113523
20
0.087072
30
0.0
11
-0.113079
21
0.086444
31
0.0
0
LINE
8
0
6
CONTINUOUS
10
-0.113068
20
0.086353
30
0.0
11
-0.112153
21
0.084556
31
0.0
0
LINE
8
0
6
CONTINUOUS
10
-0.113079
20
0.086444
30
0.0
11
-0.112153
21
0.084556
31
0.0
0
LINE
8
0
6
CONTINUOUS
10
-0.114219
20
0.095181
30
0.0
11
-0.113523
21
0.095928
31
0.0
0
LINE
8
0
6
CONTINUOUS
10
-0.115164
20
0.094438
30
0.0
11
-0.114219
21
0.095181
31
0.0
0
LINE
8
0
6
CONTINUOUS
10
-0.114219
20
0.087819
30
0.0
11
-0.115164
21
0.088562
31
0.0
0
LINE
8
0
6
CONTINUOUS
10
-0.113523
20
0.087072
30
0.0
11
-0.114219
21
0.087819
31
0.0
0
LINE
8
0
6
CONTINUOUS
10
-0.115933
20
0.094395
30
0.0
11
-0.115928
21
0.094038
31
0.0
0
LINE
8
0
6
CONTINUOUS
10
-0.115164
20
0.094438
30
0.0
11
-0.115928
21
0.094038
31
0.0
0
LINE
8
0
6
CONTINUOUS
10
-0.115928
20
0.088961
30
0.0
11
-0.115933
21
0.088605
31
0.0
0
LINE
8
0
6
CONTINUOUS
10
-0.115928
20
0.088961
30
0.0
11
-0.115164
21
0.088562
31
0.0
0
LINE
8
0
6
CONTINUOUS
10
-0.107098
20
0.091500
30
0.0
11
-0.104172
21
0.091500
31
0.0
0
LINE
8
0
6
CONTINUOUS
10
-0.119158
20
0.092851
30
0.0
11
-0.155801
21
0.092851
31
0.0
0
LINE
8
0
6
CONTINUOUS
10
-0.156719
20
0.094761
30
0.0
11
-0.157075
21
0.095030
31
0.0
0
LINE
8
0
6
CONTINUOUS
10
-0.157075
20
0.095030
30
0.0
11
-0.157429
21
0.094761
31
0.0
0
LINE
8
0
6
CONTINUOUS
10
-0.157429
20
0.094761
30
0.0
11
-0.157729
21
0.093996
31
0.0
0
LINE
8
0
6
CONTINUOUS
10
-0.157729
20
0.093996
30
0.0
11
-0.157929
21
0.092851
31
0.0
0
LINE
8
0
6
CONTINUOUS
10
-0.157929
20
0.092851
30
0.0
11
-0.158000
21
0.091500
31
0.0
0
LINE
8
0
6
CONTINUOUS
10
-0.156216
20
0.090149
30
0.0
11
-0.156145
21
0.091500
31
0.0
0
LINE
8
0
6
CONTINUOUS
10
-0.157429
20
0.088239
30
0.0
11
-0.157075
21
0.087970
31
0.0
0
LINE
8
0
6
CONTINUOUS
10
-0.157729
20
0.089004
30
0.0
11
-0.157429
21
0.088239
31
0.0
0
LINE
8
0
6
CONTINUOUS
10
-0.157929
20
0.090149
30
0.0
11
-0.157729
21
0.089004
31
0.0
0
LINE
8
0
6
CONTINUOUS
10
-0.158000
20
0.091500
30
0.0
11
-0.157929
21
0.090149
31
0.0
0
LINE
8
0
6
CONTINUOUS
10
-0.156330
20
0.093500
30
0.0
11
-0.156417
21
0.093996
31
0.0
0
LINE
8
0
6
CONTINUOUS
10
-0.156587
20
0.088576
30
0.0
11
-0.156417
21
0.089004
31
0.0
0
LINE
8
0
6
CONTINUOUS
10
-0.156145
20
0.091500
30
0.0
11
-0.155731
21
0.091500
31
0.0
0
LINE
8
0
6
CONTINUOUS
10
-0.156216
20
0.092851
30
0.0
11
-0.156145
21
0.091500
31
0.0
0
LINE
8
0
6
CONTINUOUS
10
-0.156719
20
0.094761
30
0.0
11
-0.156587
21
0.094424
31
0.0
0
LINE
8
0
6
CONTINUOUS
10
-0.156330
20
0.089500
30
0.0
11
-0.156417
21
0.089004
31
0.0
0
LINE
8
0
6
CONTINUOUS
10
-0.120721
20
0.088978
30
0.0
11
-0.156003
21
0.089004
31
0.0
0
LINE
8
0
6
CONTINUOUS
10
-0.120721
20
0.094022
30
0.0
11
-0.156003
21
0.093996
31
0.0
0
LINE
8
0
6
CONTINUOUS
10
-0.121022
20
0.095030
30
0.0
11
-0.156661
21
0.095030
31
0.0
0
LINE
8
0
6
CONTINUOUS
10
-0.157075
20
0.087970
30
0.0
11
-0.156661
21
0.087970
31
0.0
0
LINE
8
0
6
CONTINUOUS
10
-0.156719
20
0.088239
30
0.0
11
-0.157075
21
0.087970
31
0.0
0
LINE
8
0
6
CONTINUOUS
10
-0.156587
20
0.088576
30
0.0
11
-0.156719
21
0.088239
31
0.0
0
LINE
8
0
6
CONTINUOUS
10
-0.156587
20
0.094424
30
0.0
11
-0.156417
21
0.093996
31
0.0
0
LINE
8
0
6
CONTINUOUS
10
-0.155801
20
0.090149
30
0.0
11
-0.156216
21
0.090149
31
0.0
0
LINE
8
0
6
CONTINUOUS
10
-0.156216
20
0.090149
30
0.0
11
-0.156330
21
0.089500
31
0.0
0
LINE
8
0
6
CONTINUOUS
10
-0.156216
20
0.092851
30
0.0
11
-0.155801
21
0.092851
31
0.0
0
LINE
8
0
6
CONTINUOUS
10
-0.156330
20
0.093500
30
0.0
11
-0.156216
21
0.092851
31
0.0
0
LINE
8
0
6
CONTINUOUS
10
-0.155801
20
0.090149
30
0.0
11
-0.119158
21
0.090149
31
0.0
0
LINE
8
0
6
CONTINUOUS
10
-0.118662
20
0.091500
30
0.0
11
-0.155731
21
0.091500
31
0.0
0
LINE
8
0
6
CONTINUOUS
10
0.113456
20
0.086658
30
0.0
11
0.114195
21
0.087214
31
0.0
0
LINE
8
0
6
CONTINUOUS
10
0.110011
20
0.091500
30
0.0
11
0.112912
21
0.091500
31
0.0
0
LINE
8
0
6
CONTINUOUS
10
0.112153
20
0.084556
30
0.0
11
0.113043
21
0.086145
31
0.0
0
LINE
8
0
6
CONTINUOUS
10
0.116007
20
0.087970
30
0.0
11
0.118272
21
0.087970
31
0.0
0
LINE
8
0
6
CONTINUOUS
10
0.114447
20
0.089988
30
0.0
11
0.116330
21
0.090149
31
0.0
0
LINE
8
0
6
CONTINUOUS
10
0.116330
20
0.090149
30
0.0
11
0.119158
21
0.090149
31
0.0
0
LINE
8
0
6
CONTINUOUS
10
0.118272
20
0.087970
30
0.0
11
0.121022
21
0.087970
31
0.0
0
LINE
8
0
6
CONTINUOUS
10
0.113043
20
0.086145
30
0.0
11
0.113456
21
0.086658
31
0.0
0
LINE
8
0
6
CONTINUOUS
10
0.115189
20
0.095066
30
0.0
11
0.115938
21
0.094761
31
0.0
0
LINE
8
0
6
CONTINUOUS
10
0.116007
20
0.095030
30
0.0
11
0.115257
21
0.095233
31
0.0
0
LINE
8
0
6
CONTINUOUS
10
0.114195
20
0.095786
30
0.0
11
0.113468
21
0.096310
31
0.0
0
LINE
8
0
6
CONTINUOUS
10
0.113456
20
0.096342
30
0.0
11
0.113043
21
0.096855
31
0.0
0
LINE
8
0
6
CONTINUOUS
10
0.118272
20
0.095030
30
0.0
11
0.116007
21
0.095030
31
0.0
0
LINE
8
0
6
CONTINUOUS
10
0.112912
20
0.091500
30
0.0
11
0.115801
21
0.091500
31
0.0
0
LINE
8
0
6
CONTINUOUS
10
0.116330
20
0.092851
30
0.0
11
0.114426
21
0.092950
31
0.0
0
LINE
8
0
6
CONTINUOUS
10
0.156661
20
0.095030
30
0.0
11
0.121022
21
0.095030
31
0.0
0
LINE
8
0
6
CONTINUOUS
10
0.115801
20
0.091500
30
0.0
11
0.118662
21
0.091500
31
0.0
0
LINE
8
0
6
CONTINUOUS
10
0.121022
20
0.095030
30
0.0
11
0.118272
21
0.095030
31
0.0
0
LINE
8
0
6
CONTINUOUS
10
0.116330
20
0.092851
30
0.0
11
0.119158
21
0.092851
31
0.0
0
LINE
8
0
6
CONTINUOUS
10
0.113043
20
0.096855
30
0.0
11
0.112153
21
0.098444
31
0.0
0
LINE
8
0
6
CONTINUOUS
10
0.114169
20
0.095733
30
0.0
11
0.113456
21
0.096342
31
0.0
0
LINE
8
0
6
CONTINUOUS
10
0.115257
20
0.087767
30
0.0
11
0.116007
21
0.087970
31
0.0
0
LINE
8
0
6
CONTINUOUS
10
0.115938
20
0.088239
30
0.0
11
0.115189
21
0.087934
31
0.0
0
LINE
8
0
6
CONTINUOUS
10
0.114195
20
0.087214
30
0.0
11
0.115257
21
0.087767
31
0.0
0
LINE
8
0
6
CONTINUOUS
10
0.107098
20
0.091500
30
0.0
11
0.110011
21
0.091500
31
0.0
0
LINE
8
0
6
CONTINUOUS
10
0.115257
20
0.095233
30
0.0
11
0.114195
21
0.095786
31
0.0
0
LINE
8
0
6
CONTINUOUS
10
0.115189
20
0.095066
30
0.0
11
0.114169
21
0.095733
31
0.0
0
LINE
8
0
6
CONTINUOUS
10
0.156661
20
0.087970
30
0.0
11
0.157075
21
0.087970
31
0.0
0
LINE
8
0
6
CONTINUOUS
10
0.096416
20
0.078003
30
0.0
11
0.100000
21
0.077499
31
0.0
0
LINE
8
0
6
CONTINUOUS
10
0.100000
20
0.077499
30
0.0
11
0.103584
21
0.078003
31
0.0
0
LINE
8
0
6
CONTINUOUS
10
0.087848
20
0.084556
30
0.0
11
0.090088
21
0.081588
31
0.0
0
LINE
8
0
6
CONTINUOUS
10
0.086503
20
0.087916
30
0.0
11
0.087848
21
0.084556
31
0.0
0
LINE
8
0
6
CONTINUOUS
10
0.085999
20
0.091500
30
0.0
11
0.086503
21
0.087916
31
0.0
0
LINE
8
0
6
CONTINUOUS
10
0.090088
20
0.081588
30
0.0
11
0.093056
21
0.079348
31
0.0
0
LINE
8
0
6
CONTINUOUS
10
0.106944
20
0.079348
30
0.0
11
0.109912
21
0.081588
31
0.0
0
LINE
8
0
6
CONTINUOUS
10
0.103584
20
0.078003
30
0.0
11
0.106944
21
0.079348
31
0.0
0
LINE
8
0
6
CONTINUOUS
10
0.109912
20
0.081588
30
0.0
11
0.112153
21
0.084556
31
0.0
0
LINE
8
0
6
CONTINUOUS
10
0.093056
20
0.079348
30
0.0
11
0.096416
21
0.078003
31
0.0
0
LINE
8
0
6
CONTINUOUS
10
0.117998
20
0.088976
30
0.0
11
0.120721
21
0.088978
31
0.0
0
LINE
8
0
6
CONTINUOUS
10
0.113523
20
0.087072
30
0.0
11
0.113079
21
0.086444
31
0.0
0
LINE
8
0
6
CONTINUOUS
10
0.112153
20
0.084556
30
0.0
11
0.113079
21
0.086444
31
0.0
0
LINE
8
0
6
CONTINUOUS
10
0.112153
20
0.084556
30
0.0
11
0.113068
21
0.086353
31
0.0
0
LINE
8
0
6
CONTINUOUS
10
0.100000
20
0.105501
30
0.0
11
0.096416
21
0.104997
31
0.0
0
LINE
8
0
6
CONTINUOUS
10
0.103584
20
0.104997
30
0.0
11
0.100000
21
0.105501
31
0.0
0
LINE
8
0
6
CONTINUOUS
10
0.090088
20
0.101412
30
0.0
11
0.087848
21
0.098444
31
0.0
0
LINE
8
0
6
CONTINUOUS
10
0.087848
20
0.098444
30
0.0
11
0.086503
21
0.095084
31
0.0
0
LINE
8
0
6
CONTINUOUS
10
0.086503
20
0.095084
30
0.0
11
0.085999
21
0.091500
31
0.0
0
LINE
8
0
6
CONTINUOUS
10
0.093056
20
0.103653
30
0.0
11
0.090088
21
0.101412
31
0.0
0
LINE
8
0
6
CONTINUOUS
10
0.109912
20
0.101412
30
0.0
11
0.106944
21
0.103653
31
0.0
0
LINE
8
0
6
CONTINUOUS
10
0.106944
20
0.103653
30
0.0
11
0.103584
21
0.104997
31
0.0
0
LINE
8
0
6
CONTINUOUS
10
0.112153
20
0.098444
30
0.0
11
0.109912
21
0.101412
31
0.0
0
LINE
8
0
6
CONTINUOUS
10
0.096416
20
0.104997
30
0.0
11
0.093056
21
0.103653
31
0.0
0
LINE
8
0
6
CONTINUOUS
10
0.117998
20
0.094024
30
0.0
11
0.120721
21
0.094022
31
0.0
0
LINE
8
0
6
CONTINUOUS
10
0.113523
20
0.095928
30
0.0
11
0.113079
21
0.096556
31
0.0
0
LINE
8
0
6
CONTINUOUS
10
0.113068
20
0.096647
30
0.0
11
0.112153
21
0.098444
31
0.0
0
LINE
8
0
6
CONTINUOUS
10
0.113079
20
0.096556
30
0.0
11
0.112153
21
0.098444
31
0.0
0
LINE
8
0
6
CONTINUOUS
10
0.114219
20
0.087819
30
0.0
11
0.113523
21
0.087072
31
0.0
0
LINE
8
0
6
CONTINUOUS
10
0.115164
20
0.088562
30
0.0
11
0.114219
21
0.087819
31
0.0
0
LINE
8
0
6
CONTINUOUS
10
0.114219
20
0.095181
30
0.0
11
0.115164
21
0.094438
31
0.0
0
LINE
8
0
6
CONTINUOUS
10
0.113523
20
0.095928
30
0.0
11
0.114219
21
0.095181
31
0.0
0
LINE
8
0
6
CONTINUOUS
10
0.115933
20
0.088605
30
0.0
11
0.115928
21
0.088962
31
0.0
0
LINE
8
0
6
CONTINUOUS
10
0.115164
20
0.088562
30
0.0
11
0.115928
21
0.088962
31
0.0
0
LINE
8
0
6
CONTINUOUS
10
0.115928
20
0.094039
30
0.0
11
0.115933
21
0.094395
31
0.0
0
LINE
8
0
6
CONTINUOUS
10
0.115928
20
0.094039
30
0.0
11
0.115164
21
0.094438
31
0.0
0
LINE
8
0
6
CONTINUOUS
10
0.107098
20
0.091500
30
0.0
11
0.104172
21
0.091500
31
0.0
0
LINE
8
0
6
CONTINUOUS
10
0.119158
20
0.090149
30
0.0
11
0.155801
21
0.090149
31
0.0
0
LINE
8
0
6
CONTINUOUS
10
0.156719
20
0.088239
30
0.0
11
0.157075
21
0.087970
31
0.0
0
LINE
8
0
6
CONTINUOUS
10
0.157075
20
0.087970
30
0.0
11
0.157429
21
0.088239
31
0.0
0
LINE
8
0
6
CONTINUOUS
10
0.157429
20
0.088239
30
0.0
11
0.157729
21
0.089004
31
0.0
0
LINE
8
0
6
CONTINUOUS
10
0.157729
20
0.089004
30
0.0
11
0.157929
21
0.090149
31
0.0
0
LINE
8
0
6
CONTINUOUS
10
0.157929
20
0.090149
30
0.0
11
0.158000
21
0.091500
31
0.0
0
LINE
8
0
6
CONTINUOUS
10
0.156216
20
0.092851
30
0.0
11
0.156145
21
0.091500
31
0.0
0
LINE
8
0
6
CONTINUOUS
10
0.157429
20
0.094761
30
0.0
11
0.157075
21
0.095030
31
0.0
0
LINE
8
0
6
CONTINUOUS
10
0.157729
20
0.093996
30
0.0
11
0.157429
21
0.094761
31
0.0
0
LINE
8
0
6
CONTINUOUS
10
0.157929
20
0.092851
30
0.0
11
0.157729
21
0.093996
31
0.0
0
LINE
8
0
6
CONTINUOUS
10
0.158000
20
0.091500
30
0.0
11
0.157929
21
0.092851
31
0.0
0
LINE
8
0
6
CONTINUOUS
10
0.156330
20
0.089500
30
0.0
11
0.156417
21
0.089004
31
0.0
0
LINE
8
0
6
CONTINUOUS
10
0.156587
20
0.094424
30
0.0
11
0.156417
21
0.093996
31
0.0
0
LINE
8
0
6
CONTINUOUS
10
0.156145
20
0.091500
30
0.0
11
0.155731
21
0.091500
31
0.0
0
LINE
8
0
6
CONTINUOUS
10
0.156216
20
0.090149
30
0.0
11
0.156145
21
0.091500
31
0.0
0
LINE
8
0
6
CONTINUOUS
10
0.156719
20
0.088239
30
0.0
11
0.156587
21
0.088576
31
0.0
0
LINE
8
0
6
CONTINUOUS
10
0.156330
20
0.093500
30
0.0
11
0.156417
21
0.093996
31
0.0
0
LINE
8
0
6
CONTINUOUS
10
0.120721
20
0.094022
30
0.0
11
0.156003
21
0.093996
31
0.0
0
LINE
8
0
6
CONTINUOUS
10
0.120721
20
0.088978
30
0.0
11
0.156003
21
0.089004
31
0.0
0
LINE
8
0
6
CONTINUOUS
10
0.121022
20
0.087970
30
0.0
11
0.156661
21
0.087970
31
0.0
0
LINE
8
0
6
CONTINUOUS
10
0.157075
20
0.095030
30
0.0
11
0.156661
21
0.095030
31
0.0
0
LINE
8
0
6
CONTINUOUS
10
0.156719
20
0.094761
30
0.0
11
0.157075
21
0.095030
31
0.0
0
LINE
8
0
6
CONTINUOUS
10
0.156587
20
0.094424
30
0.0
11
0.156719
21
0.094761
31
0.0
0
LINE
8
0
6
CONTINUOUS
10
0.156587
20
0.088576
30
0.0
11
0.156417
21
0.089004
31
0.0
0
LINE
8
0
6
CONTINUOUS
10
0.155801
20
0.092851
30
0.0
11
0.156216
21
0.092851
31
0.0
0
LINE
8
0
6
CONTINUOUS
10
0.156216
20
0.092851
30
0.0
11
0.156330
21
0.093500
31
0.0
0
LINE
8
0
6
CONTINUOUS
10
0.156216
20
0.090149
30
0.0
11
0.155801
21
0.090149
31
0.0
0
LINE
8
0
6
CONTINUOUS
10
0.156330
20
0.089500
30
0.0
11
0.156216
21
0.090149
31
0.0
0
LINE
8
0
6
CONTINUOUS
10
0.155801
20
0.092851
30
0.0
11
0.119158
21
0.092851
31
0.0
0
LINE
8
0
6
CONTINUOUS
10
0.118662
20
0.091500
30
0.0
11
0.155731
21
0.091500
31
0.0
0
LINE
8
0
6
CONTINUOUS
10
0.107765
20
0.120478
30
0.0
11
0.100000
21
0.121500
31
0.0
0
LINE
8
0
6
CONTINUOUS
10
0.115000
20
0.117481
30
0.0
11
0.107765
21
0.120478
31
0.0
0
LINE
8
0
6
CONTINUOUS
10
0.121213
20
0.112713
30
0.0
11
0.115000
21
0.117481
31
0.0
0
LINE
8
0
6
CONTINUOUS
10
0.125981
20
0.106500
30
0.0
11
0.121213
21
0.112713
31
0.0
0
LINE
8
0
6
CONTINUOUS
10
0.128978
20
0.099265
30
0.0
11
0.125981
21
0.106500
31
0.0
0
LINE
8
0
6
CONTINUOUS
10
0.129535
20
0.095030
30
0.0
11
0.128978
21
0.099265
31
0.0
0
LINE
8
0
6
CONTINUOUS
10
0.128978
20
0.083735
30
0.0
11
0.129535
21
0.087970
31
0.0
0
LINE
8
0
6
CONTINUOUS
10
0.125981
20
0.076500
30
0.0
11
0.128978
21
0.083735
31
0.0
0
LINE
8
0
6
CONTINUOUS
10
0.121213
20
0.070287
30
0.0
11
0.125981
21
0.076500
31
0.0
0
LINE
8
0
6
CONTINUOUS
10
0.107765
20
0.062522
30
0.0
11
0.115000
21
0.065519
31
0.0
0
LINE
8
0
6
CONTINUOUS
10
0.100000
20
0.061500
30
0.0
11
0.107765
21
0.062522
31
0.0
0
LINE
8
0
6
CONTINUOUS
10
0.092235
20
0.062522
30
0.0
11
0.100000
21
0.061500
31
0.0
0
LINE
8
0
6
CONTINUOUS
10
0.085000
20
0.065519
30
0.0
11
0.092235
21
0.062522
31
0.0
0
LINE
8
0
6
CONTINUOUS
10
0.078787
20
0.070287
30
0.0
11
0.085000
21
0.065519
31
0.0
0
LINE
8
0
6
CONTINUOUS
10
0.074019
20
0.076500
30
0.0
11
0.078787
21
0.070287
31
0.0
0
LINE
8
0
6
CONTINUOUS
10
0.071022
20
0.083735
30
0.0
11
0.074019
21
0.076500
31
0.0
0
LINE
8
0
6
CONTINUOUS
10
0.070000
20
0.091500
30
0.0
11
0.071022
21
0.083735
31
0.0
0
LINE
8
0
6
CONTINUOUS
10
0.071022
20
0.099265
30
0.0
11
0.070000
21
0.091500
31
0.0
0
LINE
8
0
6
CONTINUOUS
10
0.074019
20
0.106500
30
0.0
11
0.071022
21
0.099265
31
0.0
0
LINE
8
0
6
CONTINUOUS
10
0.078787
20
0.112713
30
0.0
11
0.074019
21
0.106500
31
0.0
0
LINE
8
0
6
CONTINUOUS
10
0.085000
20
0.117481
30
0.0
11
0.078787
21
0.112713
31
0.0
0
LINE
8
0
6
CONTINUOUS
10
0.092235
20
0.120478
30
0.0
11
0.085000
21
0.117481
31
0.0
0
LINE
8
0
6
CONTINUOUS
10
0.100000
20
0.121500
30
0.0
11
0.092235
21
0.120478
31
0.0
0
LINE
8
0
6
CONTINUOUS
10
0.115000
20
0.065519
30
0.0
11
0.121213
21
0.070287
31
0.0
0
LINE
8
0
6
CONTINUOUS
10
-0.014497
20
0.091104
30
0.0
11
-0.014500
21
0.090708
31
0.0
0
LINE
8
0
6
CONTINUOUS
10
0.014497
20
0.091104
30
0.0
11
0.013863
21
0.095508
31
0.0
0
LINE
8
0
6
CONTINUOUS
10
0.014500
20
0.090708
30
0.0
11
0.014497
21
0.091104
31
0.0
0
LINE
8
0
6
CONTINUOUS
10
-0.014507
20
0.088771
30
0.0
11
-0.014500
21
0.086835
31
0.0
0
LINE
8
0
6
CONTINUOUS
10
0.014500
20
0.086835
30
0.0
11
0.014507
21
0.088771
31
0.0
0
LINE
8
0
6
CONTINUOUS
10
-0.014500
20
0.083532
30
0.0
11
-0.014500
21
0.080229
31
0.0
0
LINE
8
0
6
CONTINUOUS
10
0.014500
20
0.080229
30
0.0
11
0.014500
21
0.083532
31
0.0
0
LINE
8
0
6
CONTINUOUS
10
-0.014502
20
0.075856
30
0.0
11
-0.014500
21
0.071484
31
0.0
0
LINE
8
0
6
CONTINUOUS
10
0.014500
20
0.071484
30
0.0
11
0.014502
21
0.075856
31
0.0
0
LINE
8
0
6
CONTINUOUS
10
-0.014500
20
0.066434
30
0.0
11
-0.014500
21
0.061384
31
0.0
0
LINE
8
0
6
CONTINUOUS
10
0.014500
20
0.061384
30
0.0
11
0.014500
21
0.066434
31
0.0
0
LINE
8
0
6
CONTINUOUS
10
0.014500
20
0.053410
30
0.0
11
0.014500
21
0.061384
31
0.0
0
LINE
8
0
6
CONTINUOUS
10
-0.014500
20
0.061384
30
0.0
11
-0.014500
21
0.053410
31
0.0
0
LINE
8
0
6
CONTINUOUS
10
0.014500
20
-0.124625
30
0.0
11
0.014500
21
0.053410
31
0.0
0
LINE
8
0
6
CONTINUOUS
10
-0.014500
20
0.053410
30
0.0
11
-0.014500
21
-0.124625
31
0.0
0
LINE
8
0
6
CONTINUOUS
10
-0.008523
20
-0.124981
30
0.0
11
-0.004481
21
-0.124862
31
0.0
0
LINE
8
0
6
CONTINUOUS
10
-0.011731
20
-0.125167
30
0.0
11
-0.008523
21
-0.124981
31
0.0
0
LINE
8
0
6
CONTINUOUS
10
-0.013790
20
-0.125401
30
0.0
11
-0.011731
21
-0.125167
31
0.0
0
LINE
8
0
6
CONTINUOUS
10
-0.014500
20
-0.124625
30
0.0
11
-0.014500
21
-0.125661
31
0.0
0
LINE
8
0
6
CONTINUOUS
10
-0.014500
20
-0.125661
30
0.0
11
-0.013790
21
-0.125401
31
0.0
0
LINE
8
0
6
CONTINUOUS
10
-0.014500
20
-0.125661
30
0.0
11
-0.013790
21
-0.125920
31
0.0
0
LINE
8
0
6
CONTINUOUS
10
-0.013790
20
-0.125920
30
0.0
11
-0.011731
21
-0.126154
31
0.0
0
LINE
8
0
6
CONTINUOUS
10
-0.011731
20
-0.126154
30
0.0
11
-0.008523
21
-0.126340
31
0.0
0
LINE
8
0
6
CONTINUOUS
10
-0.008523
20
-0.126340
30
0.0
11
-0.004481
21
-0.126459
31
0.0
0
LINE
8
0
6
CONTINUOUS
10
-0.004481
20
-0.126459
30
0.0
11
-0.000000
21
-0.126500
31
0.0
0
LINE
8
0
6
CONTINUOUS
10
-0.000000
20
-0.126500
30
0.0
11
0.004481
21
-0.126459
31
0.0
0
LINE
8
0
6
CONTINUOUS
10
0.004481
20
-0.126459
30
0.0
11
0.008523
21
-0.126340
31
0.0
0
LINE
8
0
6
CONTINUOUS
10
0.008523
20
-0.126340
30
0.0
11
0.011731
21
-0.126154
31
0.0
0
LINE
8
0
6
CONTINUOUS
10
0.011731
20
-0.126154
30
0.0
11
0.013790
21
-0.125920
31
0.0
0
LINE
8
0
6
CONTINUOUS
10
0.013790
20
-0.125920
30
0.0
11
0.014500
21
-0.125661
31
0.0
0
LINE
8
0
6
CONTINUOUS
10
0.014500
20
-0.125661
30
0.0
11
0.014500
21
-0.124625
31
0.0
0
LINE
8
0
6
CONTINUOUS
10
0.013790
20
-0.125401
30
0.0
11
0.014500
21
-0.125661
31
0.0
0
LINE
8
0
6
CONTINUOUS
10
0.011731
20
-0.125167
30
0.0
11
0.013790
21
-0.125401
31
0.0
0
LINE
8
0
6
CONTINUOUS
10
0.008523
20
-0.124981
30
0.0
11
0.011731
21
-0.125167
31
0.0
0
LINE
8
0
6
CONTINUOUS
10
0.004481
20
-0.124862
30
0.0
11
0.008523
21
-0.124981
31
0.0
0
LINE
8
0
6
CONTINUOUS
10
-0.000000
20
-0.124821
30
0.0
11
0.004481
21
-0.124862
31
0.0
0
LINE
8
0
6
CONTINUOUS
10
-0.004481
20
-0.124862
30
0.0
11
-0.000000
21
-0.124821
31
0.0
0
LINE
8
0
6
CONTINUOUS
10
-0.000000
20
0.115500
30
0.0
11
-0.006212
21
0.114682
31
0.0
0
LINE
8
0
6
CONTINUOUS
10
-0.006212
20
0.114682
30
0.0
11
-0.012000
21
0.112285
31
0.0
0
LINE
8
0
6
CONTINUOUS
10
-0.012000
20
0.112285
30
0.0
11
-0.016971
21
0.108471
31
0.0
0
LINE
8
0
6
CONTINUOUS
10
-0.016971
20
0.108471
30
0.0
11
-0.020785
21
0.103500
31
0.0
0
LINE
8
0
6
CONTINUOUS
10
-0.020785
20
0.103500
30
0.0
11
-0.023182
21
0.097712
31
0.0
0
LINE
8
0
6
CONTINUOUS
10
-0.023182
20
0.097712
30
0.0
11
-0.024000
21
0.091500
31
0.0
0
LINE
8
0
6
CONTINUOUS
10
-0.024000
20
0.091500
30
0.0
11
-0.023182
21
0.085288
31
0.0
0
LINE
8
0
6
CONTINUOUS
10
-0.023182
20
0.085288
30
0.0
11
-0.020785
21
0.079500
31
0.0
0
LINE
8
0
6
CONTINUOUS
10
-0.020785
20
0.079500
30
0.0
11
-0.016971
21
0.074529
31
0.0
0
LINE
8
0
6
CONTINUOUS
10
-0.016971
20
0.074529
30
0.0
11
-0.014501
21
0.072634
31
0.0
0
LINE
8
0
6
CONTINUOUS
10
0.014501
20
0.072634
30
0.0
11
0.016971
21
0.074529
31
0.0
0
LINE
8
0
6
CONTINUOUS
10
0.016971
20
0.074529
30
0.0
11
0.020785
21
0.079500
31
0.0
0
LINE
8
0
6
CONTINUOUS
10
0.020785
20
0.079500
30
0.0
11
0.023182
21
0.085288
31
0.0
0
LINE
8
0
6
CONTINUOUS
10
0.023182
20
0.085288
30
0.0
11
0.024000
21
0.091500
31
0.0
0
LINE
8
0
6
CONTINUOUS
10
0.024000
20
0.091500
30
0.0
11
0.023182
21
0.097712
31
0.0
0
LINE
8
0
6
CONTINUOUS
10
0.023182
20
0.097712
30
0.0
11
0.020785
21
0.103500
31
0.0
0
LINE
8
0
6
CONTINUOUS
10
0.020785
20
0.103500
30
0.0
11
0.016971
21
0.108471
31
0.0
0
LINE
8
0
6
CONTINUOUS
10
0.016971
20
0.108471
30
0.0
11
0.012000
21
0.112285
31
0.0
0
LINE
8
0
6
CONTINUOUS
10
0.012000
20
0.112285
30
0.0
11
0.006212
21
0.114682
31
0.0
0
LINE
8
0
6
CONTINUOUS
10
0.006212
20
0.114682
30
0.0
11
-0.000000
21
0.115500
31
0.0
0
LINE
8
0
6
CONTINUOUS
10
0.014507
20
0.088771
30
0.0
11
0.014500
21
0.090708
31
0.0
0
LINE
8
0
6
CONTINUOUS
10
-0.014500
20
0.090708
30
0.0
11
-0.014507
21
0.088771
31
0.0
0
LINE
8
0
6
CONTINUOUS
10
0.014500
20
0.083532
30
0.0
11
0.014500
21
0.086835
31
0.0
0
LINE
8
0
6
CONTINUOUS
10
-0.014500
20
0.086835
30
0.0
11
-0.014500
21
0.083532
31
0.0
0
LINE
8
0
6
CONTINUOUS
10
-0.004481
20
0.105290
30
0.0
11
-0.008523
21
0.103231
31
0.0
0
LINE
8
0
6
CONTINUOUS
10
-0.000000
20
0.106000
30
0.0
11
-0.004481
21
0.105290
31
0.0
0
LINE
8
0
6
CONTINUOUS
10
0.004481
20
0.105290
30
0.0
11
-0.000000
21
0.106000
31
0.0
0
LINE
8
0
6
CONTINUOUS
10
0.008523
20
0.103231
30
0.0
11
0.004481
21
0.105290
31
0.0
0
LINE
8
0
6
CONTINUOUS
10
0.011731
20
0.100023
30
0.0
11
0.008523
21
0.103231
31
0.0
0
LINE
8
0
6
CONTINUOUS
10
0.013790
20
0.095981
30
0.0
11
0.011731
21
0.100023
31
0.0
0
LINE
8
0
6
CONTINUOUS
10
0.013863
20
0.095508
30
0.0
11
0.013790
21
0.095981
31
0.0
0
LINE
8
0
6
CONTINUOUS
10
0.014500
20
0.091500
30
0.0
11
0.013790
21
0.095981
31
0.0
0
LINE
8
0
6
CONTINUOUS
10
0.014497
20
0.091104
30
0.0
11
0.014500
21
0.091500
31
0.0
0
LINE
8
0
6
CONTINUOUS
10
-0.013790
20
0.095981
30
0.0
11
-0.014500
21
0.091500
31
0.0
0
LINE
8
0
6
CONTINUOUS
10
-0.014500
20
0.091500
30
0.0
11
-0.014497
21
0.091104
31
0.0
0
LINE
8
0
6
CONTINUOUS
10
-0.011731
20
0.100023
30
0.0
11
-0.013790
21
0.095981
31
0.0
0
LINE
8
0
6
CONTINUOUS
10
-0.008523
20
0.103231
30
0.0
11
-0.011731
21
0.100023
31
0.0
0
LINE
8
0
6
CONTINUOUS
10
0.014502
20
0.075856
30
0.0
11
0.014500
21
0.080229
31
0.0
0
LINE
8
0
6
CONTINUOUS
10
-0.014500
20
0.080229
30
0.0
11
-0.014502
21
0.075856
31
0.0
0
LINE
8
0
6
CONTINUOUS
10
0.014500
20
0.066434
30
0.0
11
0.014500
21
0.071484
31
0.0
0
LINE
8
0
6
CONTINUOUS
10
-0.014500
20
0.071484
30
0.0
11
-0.014500
21
0.066434
31
0.0
0
LINE
8
0
6
CONTINUOUS
10
0.009059
20
0.125307
30
0.0
11
-0.000000
21
0.126500
31
0.0
0
LINE
8
0
6
CONTINUOUS
10
0.017500
20
0.121811
30
0.0
11
0.009059
21
0.125307
31
0.0
0
LINE
8
0
6
CONTINUOUS
10
0.024749
20
0.116249
30
0.0
11
0.017500
21
0.121811
31
0.0
0
LINE
8
0
6
CONTINUOUS
10
0.030311
20
0.109000
30
0.0
11
0.024749
21
0.116249
31
0.0
0
LINE
8
0
6
CONTINUOUS
10
0.033807
20
0.100559
30
0.0
11
0.030311
21
0.109000
31
0.0
0
LINE
8
0
6
CONTINUOUS
10
0.035000
20
0.091500
30
0.0
11
0.033807
21
0.100559
31
0.0
0
LINE
8
0
6
CONTINUOUS
10
0.033807
20
0.082441
30
0.0
11
0.035000
21
0.091500
31
0.0
0
LINE
8
0
6
CONTINUOUS
10
0.030311
20
0.074000
30
0.0
11
0.033807
21
0.082441
31
0.0
0
LINE
8
0
6
CONTINUOUS
10
0.024749
20
0.066751
30
0.0
11
0.030311
21
0.074000
31
0.0
0
LINE
8
0
6
CONTINUOUS
10
0.014500
20
0.059946
30
0.0
11
0.017500
21
0.061189
31
0.0
0
LINE
8
0
6
CONTINUOUS
10
-0.017500
20
0.061189
30
0.0
11
-0.014500
21
0.059946
31
0.0
0
LINE
8
0
6
CONTINUOUS
10
-0.024749
20
0.066751
30
0.0
11
-0.017500
21
0.061189
31
0.0
0
LINE
8
0
6
CONTINUOUS
10
-0.030311
20
0.074000
30
0.0
11
-0.024749
21
0.066751
31
0.0
0
LINE
8
0
6
CONTINUOUS
10
-0.033807
20
0.082441
30
0.0
11
-0.030311
21
0.074000
31
0.0
0
LINE
8
0
6
CONTINUOUS
10
-0.035000
20
0.091500
30
0.0
11
-0.033807
21
0.082441
31
0.0
0
LINE
8
0
6
CONTINUOUS
10
-0.033807
20
0.100559
30
0.0
11
-0.035000
21
0.091500
31
0.0
0
LINE
8
0
6
CONTINUOUS
10
-0.030311
20
0.109000
30
0.0
11
-0.033807
21
0.100559
31
0.0
0
LINE
8
0
6
CONTINUOUS
10
-0.024749
20
0.116249
30
0.0
11
-0.030311
21
0.109000
31
0.0
0
LINE
8
0
6
CONTINUOUS
10
-0.017500
20
0.121811
30
0.0
11
-0.024749
21
0.116249
31
0.0
0
LINE
8
0
6
CONTINUOUS
10
-0.009059
20
0.125307
30
0.0
11
-0.017500
21
0.121811
31
0.0
0
LINE
8
0
6
CONTINUOUS
10
-0.000000
20
0.126500
30
0.0
11
-0.009059
21
0.125307
31
0.0
0
LINE
8
0
6
CONTINUOUS
10
0.017500
20
0.061189
30
0.0
11
0.024749
21
0.066751
31
0.0
0
ENDSEC
0
EOF
