999
Erzeugt mit innoplus bad 
0
SECTION
2
HEADER
9
$ACADVER
1
AC1009
9
$DWGCODEPAGE
3
ISO8859-1
0
ENDSEC
0
SECTION
2
TABLES
0
TABLE
2
LAYER
70
1
0
LAYER
2
0
70
0
62
7
6
CONTINUOUS
0
ENDTAB
0
ENDSEC
0
SECTION
2
ENTITIES
0
LINE
8
0
6
CONTINUOUS
10
0.008412
20
0.031393
30
0.0
11
0.000000
21
0.032500
31
0.0
0
LINE
8
0
6
CONTINUOUS
10
0.016250
20
0.028146
30
0.0
11
0.008412
21
0.031393
31
0.0
0
LINE
8
0
6
CONTINUOUS
10
0.022981
20
0.022981
30
0.0
11
0.016250
21
0.028146
31
0.0
0
LINE
8
0
6
CONTINUOUS
10
0.028146
20
0.016250
30
0.0
11
0.022981
21
0.022981
31
0.0
0
LINE
8
0
6
CONTINUOUS
10
0.031393
20
0.008412
30
0.0
11
0.028146
21
0.016250
31
0.0
0
LINE
8
0
6
CONTINUOUS
10
0.032500
20
-0.000000
30
0.0
11
0.031393
21
0.008412
31
0.0
0
LINE
8
0
6
CONTINUOUS
10
0.031393
20
-0.008412
30
0.0
11
0.032500
21
-0.000000
31
0.0
0
LINE
8
0
6
CONTINUOUS
10
0.028146
20
-0.016250
30
0.0
11
0.031393
21
-0.008412
31
0.0
0
LINE
8
0
6
CONTINUOUS
10
0.022981
20
-0.022981
30
0.0
11
0.028146
21
-0.016250
31
0.0
0
LINE
8
0
6
CONTINUOUS
10
0.016250
20
-0.028146
30
0.0
11
0.022981
21
-0.022981
31
0.0
0
LINE
8
0
6
CONTINUOUS
10
0.008412
20
-0.031393
30
0.0
11
0.016250
21
-0.028146
31
0.0
0
LINE
8
0
6
CONTINUOUS
10
-0.000000
20
-0.032500
30
0.0
11
0.008412
21
-0.031393
31
0.0
0
LINE
8
0
6
CONTINUOUS
10
-0.008412
20
-0.031393
30
0.0
11
-0.000000
21
-0.032500
31
0.0
0
LINE
8
0
6
CONTINUOUS
10
-0.016250
20
-0.028146
30
0.0
11
-0.008412
21
-0.031393
31
0.0
0
LINE
8
0
6
CONTINUOUS
10
-0.022981
20
-0.022981
30
0.0
11
-0.016250
21
-0.028146
31
0.0
0
LINE
8
0
6
CONTINUOUS
10
-0.028146
20
-0.016250
30
0.0
11
-0.022981
21
-0.022981
31
0.0
0
LINE
8
0
6
CONTINUOUS
10
-0.031393
20
-0.008412
30
0.0
11
-0.028146
21
-0.016250
31
0.0
0
LINE
8
0
6
CONTINUOUS
10
-0.032500
20
0.000000
30
0.0
11
-0.031393
21
-0.008412
31
0.0
0
LINE
8
0
6
CONTINUOUS
10
-0.031393
20
0.008412
30
0.0
11
-0.032500
21
0.000000
31
0.0
0
LINE
8
0
6
CONTINUOUS
10
-0.028146
20
0.016250
30
0.0
11
-0.031393
21
0.008412
31
0.0
0
LINE
8
0
6
CONTINUOUS
10
-0.022981
20
0.022981
30
0.0
11
-0.028146
21
0.016250
31
0.0
0
LINE
8
0
6
CONTINUOUS
10
-0.016250
20
0.028146
30
0.0
11
-0.022981
21
0.022981
31
0.0
0
LINE
8
0
6
CONTINUOUS
10
-0.008412
20
0.031393
30
0.0
11
-0.016250
21
0.028146
31
0.0
0
LINE
8
0
6
CONTINUOUS
10
0.000000
20
0.032500
30
0.0
11
-0.008412
21
0.031393
31
0.0
0
LINE
8
0
6
CONTINUOUS
10
0.000000
20
0.014300
30
0.0
11
-0.005472
21
0.013211
31
0.0
0
LINE
8
0
6
CONTINUOUS
10
-0.005472
20
0.013211
30
0.0
11
-0.010112
21
0.010112
31
0.0
0
LINE
8
0
6
CONTINUOUS
10
-0.010112
20
0.010112
30
0.0
11
-0.013211
21
0.005472
31
0.0
0
LINE
8
0
6
CONTINUOUS
10
-0.013211
20
0.005472
30
0.0
11
-0.014300
21
0.000000
31
0.0
0
LINE
8
0
6
CONTINUOUS
10
-0.014300
20
0.000000
30
0.0
11
-0.013211
21
-0.005472
31
0.0
0
LINE
8
0
6
CONTINUOUS
10
-0.013211
20
-0.005472
30
0.0
11
-0.010112
21
-0.010112
31
0.0
0
LINE
8
0
6
CONTINUOUS
10
-0.005472
20
-0.013211
30
0.0
11
-0.010112
21
-0.010112
31
0.0
0
LINE
8
0
6
CONTINUOUS
10
0.000000
20
-0.014300
30
0.0
11
-0.005472
21
-0.013211
31
0.0
0
LINE
8
0
6
CONTINUOUS
10
0.000000
20
-0.014300
30
0.0
11
0.005472
21
-0.013211
31
0.0
0
LINE
8
0
6
CONTINUOUS
10
0.005472
20
-0.013211
30
0.0
11
0.010112
21
-0.010112
31
0.0
0
LINE
8
0
6
CONTINUOUS
10
0.010112
20
-0.010112
30
0.0
11
0.013211
21
-0.005472
31
0.0
0
LINE
8
0
6
CONTINUOUS
10
0.013211
20
-0.005472
30
0.0
11
0.014300
21
0.000000
31
0.0
0
LINE
8
0
6
CONTINUOUS
10
0.014300
20
0.000000
30
0.0
11
0.013211
21
0.005472
31
0.0
0
LINE
8
0
6
CONTINUOUS
10
0.013211
20
0.005472
30
0.0
11
0.010112
21
0.010112
31
0.0
0
LINE
8
0
6
CONTINUOUS
10
0.010112
20
0.010112
30
0.0
11
0.005472
21
0.013211
31
0.0
0
LINE
8
0
6
CONTINUOUS
10
0.005472
20
0.013211
30
0.0
11
0.000000
21
0.014300
31
0.0
0
LINE
8
0
6
CONTINUOUS
10
0.013550
20
-0.022053
30
0.0
11
0.013550
21
-0.003772
31
0.0
0
LINE
8
0
6
CONTINUOUS
10
-0.013550
20
-0.003772
30
0.0
11
-0.013550
21
-0.022053
31
0.0
0
LINE
8
0
6
CONTINUOUS
10
0.011734
20
-0.022053
30
0.0
11
0.011734
21
-0.007683
31
0.0
0
LINE
8
0
6
CONTINUOUS
10
0.006775
20
-0.022053
30
0.0
11
0.006775
21
-0.012341
31
0.0
0
LINE
8
0
6
CONTINUOUS
10
0.000000
20
-0.022053
30
0.0
11
0.000000
21
-0.014300
31
0.0
0
LINE
8
0
6
CONTINUOUS
10
-0.011734
20
-0.007683
30
0.0
11
-0.011734
21
-0.022053
31
0.0
0
LINE
8
0
6
CONTINUOUS
10
-0.006775
20
-0.022053
30
0.0
11
-0.006775
21
-0.012341
31
0.0
0
LINE
8
0
6
CONTINUOUS
10
-0.013550
20
-0.022711
30
0.0
11
-0.011734
21
-0.022711
31
0.0
0
LINE
8
0
6
CONTINUOUS
10
-0.013550
20
-0.022053
30
0.0
11
-0.013550
21
-0.022711
31
0.0
0
LINE
8
0
6
CONTINUOUS
10
-0.011734
20
-0.022711
30
0.0
11
-0.006775
21
-0.022711
31
0.0
0
LINE
8
0
6
CONTINUOUS
10
-0.011734
20
-0.022053
30
0.0
11
-0.011734
21
-0.022711
31
0.0
0
LINE
8
0
6
CONTINUOUS
10
-0.006775
20
-0.022711
30
0.0
11
0.000000
21
-0.022711
31
0.0
0
LINE
8
0
6
CONTINUOUS
10
-0.006775
20
-0.022053
30
0.0
11
-0.006775
21
-0.022711
31
0.0
0
LINE
8
0
6
CONTINUOUS
10
0.000000
20
-0.022711
30
0.0
11
0.006775
21
-0.022711
31
0.0
0
LINE
8
0
6
CONTINUOUS
10
0.000000
20
-0.022053
30
0.0
11
0.000000
21
-0.022711
31
0.0
0
LINE
8
0
6
CONTINUOUS
10
0.006775
20
-0.022711
30
0.0
11
0.011734
21
-0.022711
31
0.0
0
LINE
8
0
6
CONTINUOUS
10
0.006775
20
-0.022053
30
0.0
11
0.006775
21
-0.022711
31
0.0
0
LINE
8
0
6
CONTINUOUS
10
0.013550
20
-0.022711
30
0.0
11
0.013550
21
-0.022053
31
0.0
0
LINE
8
0
6
CONTINUOUS
10
0.011734
20
-0.022711
30
0.0
11
0.013550
21
-0.022711
31
0.0
0
LINE
8
0
6
CONTINUOUS
10
0.011734
20
-0.022053
30
0.0
11
0.011734
21
-0.022711
31
0.0
0
ENDSEC
0
EOF
