999
Erzeugt mit innoplus bad 
0
SECTION
2
HEADER
9
$ACADVER
1
AC1009
9
$DWGCODEPAGE
3
ISO8859-1
0
ENDSEC
0
SECTION
2
TABLES
0
TABLE
2
LAYER
70
1
0
LAYER
2
0
70
0
62
7
6
CONTINUOUS
0
ENDTAB
0
ENDSEC
0
SECTION
2
ENTITIES
0
LINE
8
0
6
CONTINUOUS
10
0.000000
20
0.019500
30
0.0
11
0.016794
21
0.019500
31
0.0
0
LINE
8
0
6
CONTINUOUS
10
0.016794
20
0.019500
30
0.0
11
0.032746
21
0.019500
31
0.0
0
LINE
8
0
6
CONTINUOUS
10
0.032746
20
0.019500
30
0.0
11
0.047057
21
0.019500
31
0.0
0
LINE
8
0
6
CONTINUOUS
10
0.047057
20
0.019500
30
0.0
11
0.059007
21
0.019500
31
0.0
0
LINE
8
0
6
CONTINUOUS
10
0.059007
20
0.019500
30
0.0
11
0.067999
21
0.019500
31
0.0
0
LINE
8
0
6
CONTINUOUS
10
0.067999
20
0.019500
30
0.0
11
0.073581
21
0.019500
31
0.0
0
LINE
8
0
6
CONTINUOUS
10
0.075473
20
0.019500
30
0.0
11
0.075473
21
0.021500
31
0.0
0
LINE
8
0
6
CONTINUOUS
10
0.073581
20
0.019500
30
0.0
11
0.075473
21
0.019500
31
0.0
0
LINE
8
0
6
CONTINUOUS
10
-0.075473
20
0.019500
30
0.0
11
-0.073581
21
0.019500
31
0.0
0
LINE
8
0
6
CONTINUOUS
10
-0.075473
20
0.021500
30
0.0
11
-0.075473
21
0.019500
31
0.0
0
LINE
8
0
6
CONTINUOUS
10
-0.073581
20
0.019500
30
0.0
11
-0.067999
21
0.019500
31
0.0
0
LINE
8
0
6
CONTINUOUS
10
-0.067999
20
0.019500
30
0.0
11
-0.059007
21
0.019500
31
0.0
0
LINE
8
0
6
CONTINUOUS
10
-0.059007
20
0.019500
30
0.0
11
-0.047057
21
0.019500
31
0.0
0
LINE
8
0
6
CONTINUOUS
10
-0.047057
20
0.019500
30
0.0
11
-0.032747
21
0.019500
31
0.0
0
LINE
8
0
6
CONTINUOUS
10
-0.032747
20
0.019500
30
0.0
11
-0.016794
21
0.019500
31
0.0
0
LINE
8
0
6
CONTINUOUS
10
-0.016794
20
0.019500
30
0.0
11
0.000000
21
0.019500
31
0.0
0
LINE
8
0
6
CONTINUOUS
10
-0.075473
20
0.032500
30
0.0
11
-0.075473
21
0.021500
31
0.0
0
LINE
8
0
6
CONTINUOUS
10
0.075473
20
0.021500
30
0.0
11
0.075473
21
0.032500
31
0.0
0
LINE
8
0
6
CONTINUOUS
10
0.016794
20
0.034500
30
0.0
11
0.000000
21
0.034500
31
0.0
0
LINE
8
0
6
CONTINUOUS
10
0.032746
20
0.034500
30
0.0
11
0.016794
21
0.034500
31
0.0
0
LINE
8
0
6
CONTINUOUS
10
0.047057
20
0.034500
30
0.0
11
0.032746
21
0.034500
31
0.0
0
LINE
8
0
6
CONTINUOUS
10
0.059007
20
0.034500
30
0.0
11
0.047057
21
0.034500
31
0.0
0
LINE
8
0
6
CONTINUOUS
10
0.067999
20
0.034500
30
0.0
11
0.059007
21
0.034500
31
0.0
0
LINE
8
0
6
CONTINUOUS
10
0.073581
20
0.034500
30
0.0
11
0.067999
21
0.034500
31
0.0
0
LINE
8
0
6
CONTINUOUS
10
0.075473
20
0.034500
30
0.0
11
0.073581
21
0.034500
31
0.0
0
LINE
8
0
6
CONTINUOUS
10
0.075473
20
0.032500
30
0.0
11
0.075473
21
0.034500
31
0.0
0
LINE
8
0
6
CONTINUOUS
10
-0.075473
20
0.034500
30
0.0
11
-0.075473
21
0.032500
31
0.0
0
LINE
8
0
6
CONTINUOUS
10
-0.073581
20
0.034500
30
0.0
11
-0.075473
21
0.034500
31
0.0
0
LINE
8
0
6
CONTINUOUS
10
-0.067999
20
0.034500
30
0.0
11
-0.073581
21
0.034500
31
0.0
0
LINE
8
0
6
CONTINUOUS
10
-0.059007
20
0.034500
30
0.0
11
-0.067999
21
0.034500
31
0.0
0
LINE
8
0
6
CONTINUOUS
10
-0.047057
20
0.034500
30
0.0
11
-0.059007
21
0.034500
31
0.0
0
LINE
8
0
6
CONTINUOUS
10
-0.032747
20
0.034500
30
0.0
11
-0.047057
21
0.034500
31
0.0
0
LINE
8
0
6
CONTINUOUS
10
-0.016794
20
0.034500
30
0.0
11
-0.032747
21
0.034500
31
0.0
0
LINE
8
0
6
CONTINUOUS
10
0.000000
20
0.034500
30
0.0
11
-0.016794
21
0.034500
31
0.0
0
LINE
8
0
6
CONTINUOUS
10
-0.013423
20
0.019500
30
0.0
11
-0.013423
21
0.016610
31
0.0
0
LINE
8
0
6
CONTINUOUS
10
-0.014643
20
-0.003730
30
0.0
11
-0.014638
21
-0.004021
31
0.0
0
LINE
8
0
6
CONTINUOUS
10
-0.014643
20
-0.003730
30
0.0
11
-0.014116
21
-0.003730
31
0.0
0
LINE
8
0
6
CONTINUOUS
10
-0.013433
20
-0.002117
30
0.0
11
-0.014643
21
-0.003730
31
0.0
0
LINE
8
0
6
CONTINUOUS
10
-0.011138
20
0.012674
30
0.0
11
-0.012370
21
0.012674
31
0.0
0
LINE
8
0
6
CONTINUOUS
10
-0.003749
20
-0.003730
30
0.0
11
0.000000
21
-0.003730
31
0.0
0
LINE
8
0
6
CONTINUOUS
10
-0.014116
20
-0.003730
30
0.0
11
-0.012710
21
-0.003730
31
0.0
0
LINE
8
0
6
CONTINUOUS
10
-0.010368
20
-0.003730
30
0.0
11
-0.007263
21
-0.003730
31
0.0
0
LINE
8
0
6
CONTINUOUS
10
-0.012710
20
-0.003730
30
0.0
11
-0.010368
21
-0.003730
31
0.0
0
LINE
8
0
6
CONTINUOUS
10
0.014643
20
-0.003730
30
0.0
11
0.013433
21
-0.002117
31
0.0
0
LINE
8
0
6
CONTINUOUS
10
-0.012832
20
-0.000522
30
0.0
11
-0.013433
21
-0.002117
31
0.0
0
LINE
8
0
6
CONTINUOUS
10
-0.007263
20
-0.003730
30
0.0
11
-0.003749
21
-0.003730
31
0.0
0
LINE
8
0
6
CONTINUOUS
10
0.000000
20
0.012674
30
0.0
11
-0.003285
21
0.012674
31
0.0
0
LINE
8
0
6
CONTINUOUS
10
0.012832
20
0.012674
30
0.0
11
0.012370
21
0.012674
31
0.0
0
LINE
8
0
6
CONTINUOUS
10
0.012832
20
0.012277
30
0.0
11
0.012832
21
0.012674
31
0.0
0
LINE
8
0
6
CONTINUOUS
10
-0.006365
20
0.012674
30
0.0
11
-0.009085
21
0.012674
31
0.0
0
LINE
8
0
6
CONTINUOUS
10
0.012370
20
0.012674
30
0.0
11
0.011138
21
0.012674
31
0.0
0
LINE
8
0
6
CONTINUOUS
10
-0.009085
20
0.012674
30
0.0
11
-0.011138
21
0.012674
31
0.0
0
LINE
8
0
6
CONTINUOUS
10
0.003285
20
0.012674
30
0.0
11
0.000000
21
0.012674
31
0.0
0
LINE
8
0
6
CONTINUOUS
10
0.009085
20
0.012674
30
0.0
11
0.006365
21
0.012674
31
0.0
0
LINE
8
0
6
CONTINUOUS
10
-0.003285
20
0.012674
30
0.0
11
-0.006365
21
0.012674
31
0.0
0
LINE
8
0
6
CONTINUOUS
10
-0.012832
20
0.012674
30
0.0
11
-0.012832
21
0.012276
31
0.0
0
LINE
8
0
6
CONTINUOUS
10
-0.012370
20
0.012674
30
0.0
11
-0.012832
21
0.012674
31
0.0
0
LINE
8
0
6
CONTINUOUS
10
-0.012832
20
0.012276
30
0.0
11
-0.012832
21
-0.000273
31
0.0
0
LINE
8
0
6
CONTINUOUS
10
0.012832
20
-0.000273
30
0.0
11
0.012832
21
0.012277
31
0.0
0
LINE
8
0
6
CONTINUOUS
10
0.009085
20
0.012674
30
0.0
11
0.011138
21
0.012674
31
0.0
0
LINE
8
0
6
CONTINUOUS
10
0.003285
20
0.012674
30
0.0
11
0.006329
21
0.012674
31
0.0
0
LINE
8
0
6
CONTINUOUS
10
0.013433
20
-0.002117
30
0.0
11
0.012832
21
-0.000522
31
0.0
0
LINE
8
0
6
CONTINUOUS
10
0.014638
20
-0.007012
30
0.0
11
0.014638
21
-0.006605
31
0.0
0
LINE
8
0
6
CONTINUOUS
10
-0.014638
20
-0.004021
30
0.0
11
-0.014638
21
-0.006605
31
0.0
0
LINE
8
0
6
CONTINUOUS
10
-0.014638
20
-0.006605
30
0.0
11
-0.014638
21
-0.007012
31
0.0
0
LINE
8
0
6
CONTINUOUS
10
0.014638
20
-0.006605
30
0.0
11
0.014638
21
-0.004021
31
0.0
0
LINE
8
0
6
CONTINUOUS
10
0.003749
20
-0.003730
30
0.0
11
0.000000
21
-0.003730
31
0.0
0
LINE
8
0
6
CONTINUOUS
10
0.007263
20
-0.003730
30
0.0
11
0.003749
21
-0.003730
31
0.0
0
LINE
8
0
6
CONTINUOUS
10
0.010368
20
-0.003730
30
0.0
11
0.007263
21
-0.003730
31
0.0
0
LINE
8
0
6
CONTINUOUS
10
0.012711
20
-0.003730
30
0.0
11
0.010368
21
-0.003730
31
0.0
0
LINE
8
0
6
CONTINUOUS
10
0.014116
20
-0.003730
30
0.0
11
0.012711
21
-0.003730
31
0.0
0
LINE
8
0
6
CONTINUOUS
10
0.014643
20
-0.003730
30
0.0
11
0.014116
21
-0.003730
31
0.0
0
LINE
8
0
6
CONTINUOUS
10
0.014638
20
-0.004021
30
0.0
11
0.014643
21
-0.003730
31
0.0
0
LINE
8
0
6
CONTINUOUS
10
-0.012832
20
-0.000273
30
0.0
11
-0.012832
21
-0.000522
31
0.0
0
LINE
8
0
6
CONTINUOUS
10
0.012832
20
-0.000522
30
0.0
11
0.012832
21
-0.000273
31
0.0
0
LINE
8
0
6
CONTINUOUS
10
-0.003356
20
-0.008524
30
0.0
11
0.000000
21
-0.008524
31
0.0
0
LINE
8
0
6
CONTINUOUS
10
0.000000
20
-0.007012
30
0.0
11
-0.003747
21
-0.007012
31
0.0
0
LINE
8
0
6
CONTINUOUS
10
-0.003633
20
-0.008081
30
0.0
11
0.000000
21
-0.008081
31
0.0
0
LINE
8
0
6
CONTINUOUS
10
-0.011377
20
-0.008524
30
0.0
11
-0.009284
21
-0.008524
31
0.0
0
LINE
8
0
6
CONTINUOUS
10
-0.012317
20
-0.008081
30
0.0
11
-0.010048
21
-0.008081
31
0.0
0
LINE
8
0
6
CONTINUOUS
10
0.003356
20
-0.008524
30
0.0
11
0.006511
21
-0.008524
31
0.0
0
LINE
8
0
6
CONTINUOUS
10
0.007041
20
-0.008081
30
0.0
11
0.003633
21
-0.008081
31
0.0
0
LINE
8
0
6
CONTINUOUS
10
0.009284
20
-0.008524
30
0.0
11
0.011377
21
-0.008524
31
0.0
0
LINE
8
0
6
CONTINUOUS
10
0.012317
20
-0.008081
30
0.0
11
0.010048
21
-0.008081
31
0.0
0
LINE
8
0
6
CONTINUOUS
10
0.003747
20
-0.007012
30
0.0
11
0.000000
21
-0.007012
31
0.0
0
LINE
8
0
6
CONTINUOUS
10
0.000000
20
-0.008524
30
0.0
11
0.003356
21
-0.008524
31
0.0
0
LINE
8
0
6
CONTINUOUS
10
0.003633
20
-0.008081
30
0.0
11
0.000000
21
-0.008081
31
0.0
0
LINE
8
0
6
CONTINUOUS
10
0.011377
20
-0.008524
30
0.0
11
0.012639
21
-0.008524
31
0.0
0
LINE
8
0
6
CONTINUOUS
10
0.013680
20
-0.008081
30
0.0
11
0.012317
21
-0.008081
31
0.0
0
LINE
8
0
6
CONTINUOUS
10
0.006511
20
-0.008524
30
0.0
11
0.009284
21
-0.008524
31
0.0
0
LINE
8
0
6
CONTINUOUS
10
0.010048
20
-0.008081
30
0.0
11
0.007041
21
-0.008081
31
0.0
0
LINE
8
0
6
CONTINUOUS
10
-0.007041
20
-0.008081
30
0.0
11
-0.003633
21
-0.008081
31
0.0
0
LINE
8
0
6
CONTINUOUS
10
-0.009284
20
-0.008524
30
0.0
11
-0.006511
21
-0.008524
31
0.0
0
LINE
8
0
6
CONTINUOUS
10
-0.010048
20
-0.008081
30
0.0
11
-0.007041
21
-0.008081
31
0.0
0
LINE
8
0
6
CONTINUOUS
10
0.014191
20
-0.008081
30
0.0
11
0.014638
21
-0.007012
31
0.0
0
LINE
8
0
6
CONTINUOUS
10
0.013111
20
-0.008524
30
0.0
11
0.014191
21
-0.008081
31
0.0
0
LINE
8
0
6
CONTINUOUS
10
0.012639
20
-0.008524
30
0.0
11
0.013111
21
-0.008524
31
0.0
0
LINE
8
0
6
CONTINUOUS
10
0.014191
20
-0.008081
30
0.0
11
0.013680
21
-0.008081
31
0.0
0
LINE
8
0
6
CONTINUOUS
10
-0.012639
20
-0.008524
30
0.0
11
-0.011377
21
-0.008524
31
0.0
0
LINE
8
0
6
CONTINUOUS
10
-0.012706
20
-0.007012
30
0.0
11
-0.014111
21
-0.007012
31
0.0
0
LINE
8
0
6
CONTINUOUS
10
-0.013680
20
-0.008081
30
0.0
11
-0.012317
21
-0.008081
31
0.0
0
LINE
8
0
6
CONTINUOUS
10
-0.014191
20
-0.008081
30
0.0
11
-0.013111
21
-0.008524
31
0.0
0
LINE
8
0
6
CONTINUOUS
10
-0.013111
20
-0.008524
30
0.0
11
-0.012639
21
-0.008524
31
0.0
0
LINE
8
0
6
CONTINUOUS
10
-0.014638
20
-0.007012
30
0.0
11
-0.014191
21
-0.008081
31
0.0
0
LINE
8
0
6
CONTINUOUS
10
-0.014111
20
-0.007012
30
0.0
11
-0.014638
21
-0.007012
31
0.0
0
LINE
8
0
6
CONTINUOUS
10
-0.014191
20
-0.008081
30
0.0
11
-0.013680
21
-0.008081
31
0.0
0
LINE
8
0
6
CONTINUOUS
10
0.005187
20
0.012137
30
0.0
11
0.012999
21
0.015805
31
0.0
0
LINE
8
0
6
CONTINUOUS
10
-0.012909
20
0.015805
30
0.0
11
-0.006239
21
0.012674
31
0.0
0
LINE
8
0
6
CONTINUOUS
10
0.013513
20
0.016610
30
0.0
11
0.013513
21
0.019500
31
0.0
0
LINE
8
0
6
CONTINUOUS
10
-0.013423
20
0.016046
30
0.0
11
-0.012909
21
0.015805
31
0.0
0
LINE
8
0
6
CONTINUOUS
10
-0.013423
20
0.016610
30
0.0
11
-0.013423
21
0.016046
31
0.0
0
LINE
8
0
6
CONTINUOUS
10
-0.013423
20
0.016046
30
0.0
11
-0.012938
21
0.016046
31
0.0
0
LINE
8
0
6
CONTINUOUS
10
-0.012938
20
0.016046
30
0.0
11
-0.011645
21
0.016046
31
0.0
0
LINE
8
0
6
CONTINUOUS
10
-0.011645
20
0.016046
30
0.0
11
-0.009490
21
0.016046
31
0.0
0
LINE
8
0
6
CONTINUOUS
10
-0.009490
20
0.016046
30
0.0
11
-0.006635
21
0.016046
31
0.0
0
LINE
8
0
6
CONTINUOUS
10
0.000045
20
0.016046
30
0.0
11
0.003493
21
0.016046
31
0.0
0
LINE
8
0
6
CONTINUOUS
10
-0.003403
20
0.016046
30
0.0
11
0.000045
21
0.016046
31
0.0
0
LINE
8
0
6
CONTINUOUS
10
-0.006635
20
0.016046
30
0.0
11
-0.003403
21
0.016046
31
0.0
0
LINE
8
0
6
CONTINUOUS
10
0.011735
20
0.016046
30
0.0
11
0.013028
21
0.016046
31
0.0
0
LINE
8
0
6
CONTINUOUS
10
0.009580
20
0.016046
30
0.0
11
0.011735
21
0.016046
31
0.0
0
LINE
8
0
6
CONTINUOUS
10
0.006725
20
0.016046
30
0.0
11
0.009580
21
0.016046
31
0.0
0
LINE
8
0
6
CONTINUOUS
10
0.003493
20
0.016046
30
0.0
11
0.006725
21
0.016046
31
0.0
0
LINE
8
0
6
CONTINUOUS
10
0.012999
20
0.015805
30
0.0
11
0.013513
21
0.016046
31
0.0
0
LINE
8
0
6
CONTINUOUS
10
0.013513
20
0.016046
30
0.0
11
0.013513
21
0.016610
31
0.0
0
LINE
8
0
6
CONTINUOUS
10
0.013028
20
0.016046
30
0.0
11
0.013513
21
0.016046
31
0.0
0
LINE
8
0
6
CONTINUOUS
10
-0.022000
20
0.019500
30
0.0
11
-0.022000
21
0.015011
31
0.0
0
LINE
8
0
6
CONTINUOUS
10
-0.005672
20
-0.021018
30
0.0
11
-0.005672
21
-0.028469
31
0.0
0
LINE
8
0
6
CONTINUOUS
10
-0.022500
20
-0.014322
30
0.0
11
-0.022500
21
-0.017670
31
0.0
0
LINE
8
0
6
CONTINUOUS
10
-0.022500
20
-0.010975
30
0.0
11
-0.022500
21
-0.014322
31
0.0
0
LINE
8
0
6
CONTINUOUS
10
-0.022500
20
-0.007627
30
0.0
11
-0.022500
21
-0.010975
31
0.0
0
LINE
8
0
6
CONTINUOUS
10
-0.022500
20
-0.001206
30
0.0
11
-0.022500
21
-0.004279
31
0.0
0
LINE
8
0
6
CONTINUOUS
10
-0.022500
20
-0.004279
30
0.0
11
-0.022500
21
-0.007627
31
0.0
0
LINE
8
0
6
CONTINUOUS
10
-0.022500
20
-0.017670
30
0.0
11
-0.022500
21
-0.019995
31
0.0
0
LINE
8
0
6
CONTINUOUS
10
-0.002171
20
-0.023812
30
0.0
11
-0.002171
21
-0.024647
31
0.0
0
LINE
8
0
6
CONTINUOUS
10
-0.007116
20
-0.021018
30
0.0
11
-0.005888
21
-0.021454
31
0.0
0
LINE
8
0
6
CONTINUOUS
10
-0.003705
20
-0.021079
30
0.0
11
0.000000
21
-0.021018
31
0.0
0
LINE
8
0
6
CONTINUOUS
10
-0.003091
20
-0.033414
30
0.0
11
-0.002171
21
-0.034052
31
0.0
0
LINE
8
0
6
CONTINUOUS
10
-0.002171
20
-0.034052
30
0.0
11
0.000000
21
-0.034500
31
0.0
0
LINE
8
0
6
CONTINUOUS
10
-0.002171
20
-0.033908
30
0.0
11
-0.002171
21
-0.034052
31
0.0
0
LINE
8
0
6
CONTINUOUS
10
-0.005241
20
-0.030865
30
0.0
11
-0.004582
21
-0.031888
31
0.0
0
LINE
8
0
6
CONTINUOUS
10
-0.005672
20
-0.028612
30
0.0
11
-0.005241
21
-0.030865
31
0.0
0
LINE
8
0
6
CONTINUOUS
10
-0.005672
20
-0.028469
30
0.0
11
-0.005672
21
-0.028612
31
0.0
0
LINE
8
0
6
CONTINUOUS
10
-0.002171
20
-0.024647
30
0.0
11
-0.002171
21
-0.033908
31
0.0
0
LINE
8
0
6
CONTINUOUS
10
-0.022500
20
-0.019995
30
0.0
11
-0.022500
21
-0.021018
31
0.0
0
LINE
8
0
6
CONTINUOUS
10
-0.022500
20
-0.021018
30
0.0
11
-0.021690
21
-0.021018
31
0.0
0
LINE
8
0
6
CONTINUOUS
10
-0.015930
20
-0.021018
30
0.0
11
-0.011160
21
-0.021018
31
0.0
0
LINE
8
0
6
CONTINUOUS
10
-0.011160
20
-0.021018
30
0.0
11
-0.005760
21
-0.021018
31
0.0
0
LINE
8
0
6
CONTINUOUS
10
-0.005760
20
-0.021018
30
0.0
11
0.000000
21
-0.021018
31
0.0
0
LINE
8
0
6
CONTINUOUS
10
-0.019530
20
-0.021018
30
0.0
11
-0.015930
21
-0.021018
31
0.0
0
LINE
8
0
6
CONTINUOUS
10
-0.021690
20
-0.021018
30
0.0
11
-0.019530
21
-0.021018
31
0.0
0
LINE
8
0
6
CONTINUOUS
10
-0.004035
20
-0.022815
30
0.0
11
-0.004053
21
-0.023935
31
0.0
0
LINE
8
0
6
CONTINUOUS
10
-0.004643
20
-0.022106
30
0.0
11
-0.004035
21
-0.022815
31
0.0
0
LINE
8
0
6
CONTINUOUS
10
-0.005888
20
-0.021454
30
0.0
11
-0.004968
21
-0.021894
31
0.0
0
LINE
8
0
6
CONTINUOUS
10
-0.004968
20
-0.021894
30
0.0
11
-0.004643
21
-0.022106
31
0.0
0
LINE
8
0
6
CONTINUOUS
10
-0.004582
20
-0.031888
30
0.0
11
-0.004011
21
-0.032776
31
0.0
0
LINE
8
0
6
CONTINUOUS
10
-0.004011
20
-0.032776
30
0.0
11
-0.003091
21
-0.033414
31
0.0
0
LINE
8
0
6
CONTINUOUS
10
-0.004053
20
-0.023935
30
0.0
11
-0.004011
21
-0.032632
31
0.0
0
LINE
8
0
6
CONTINUOUS
10
-0.022500
20
0.014499
30
0.0
11
-0.022500
21
-0.001206
31
0.0
0
LINE
8
0
6
CONTINUOUS
10
0.022000
20
0.015011
30
0.0
11
0.022000
21
0.019500
31
0.0
0
LINE
8
0
6
CONTINUOUS
10
0.005672
20
-0.028469
30
0.0
11
0.005672
21
-0.021018
31
0.0
0
LINE
8
0
6
CONTINUOUS
10
0.022500
20
-0.017670
30
0.0
11
0.022500
21
-0.014322
31
0.0
0
LINE
8
0
6
CONTINUOUS
10
0.022500
20
-0.014322
30
0.0
11
0.022500
21
-0.010975
31
0.0
0
LINE
8
0
6
CONTINUOUS
10
0.000000
20
-0.022408
30
0.0
11
0.000000
21
-0.023151
31
0.0
0
LINE
8
0
6
CONTINUOUS
10
0.022500
20
-0.010975
30
0.0
11
0.022500
21
-0.007627
31
0.0
0
LINE
8
0
6
CONTINUOUS
10
0.022500
20
-0.004279
30
0.0
11
0.022500
21
-0.001206
31
0.0
0
LINE
8
0
6
CONTINUOUS
10
0.022500
20
-0.007627
30
0.0
11
0.022500
21
-0.004279
31
0.0
0
LINE
8
0
6
CONTINUOUS
10
0.022500
20
-0.019995
30
0.0
11
0.022500
21
-0.017670
31
0.0
0
LINE
8
0
6
CONTINUOUS
10
0.000000
20
-0.023151
30
0.0
11
0.000000
21
-0.024044
31
0.0
0
LINE
8
0
6
CONTINUOUS
10
0.000000
20
-0.024044
30
0.0
11
0.000000
21
-0.024897
31
0.0
0
LINE
8
0
6
CONTINUOUS
10
0.002171
20
-0.024647
30
0.0
11
0.002171
21
-0.023812
31
0.0
0
LINE
8
0
6
CONTINUOUS
10
0.005888
20
-0.021454
30
0.0
11
0.007116
21
-0.021018
31
0.0
0
LINE
8
0
6
CONTINUOUS
10
0.000000
20
-0.021018
30
0.0
11
0.003705
21
-0.021079
31
0.0
0
LINE
8
0
6
CONTINUOUS
10
0.000000
20
-0.021656
30
0.0
11
0.000000
21
-0.022408
31
0.0
0
LINE
8
0
6
CONTINUOUS
10
0.002171
20
-0.034052
30
0.0
11
0.003091
21
-0.033414
31
0.0
0
LINE
8
0
6
CONTINUOUS
10
0.002171
20
-0.034052
30
0.0
11
0.002171
21
-0.033908
31
0.0
0
LINE
8
0
6
CONTINUOUS
10
0.000000
20
-0.034500
30
0.0
11
0.002171
21
-0.034052
31
0.0
0
LINE
8
0
6
CONTINUOUS
10
0.000000
20
-0.034356
30
0.0
11
0.000000
21
-0.034500
31
0.0
0
LINE
8
0
6
CONTINUOUS
10
0.004582
20
-0.031888
30
0.0
11
0.005241
21
-0.030865
31
0.0
0
LINE
8
0
6
CONTINUOUS
10
0.005672
20
-0.028612
30
0.0
11
0.005672
21
-0.028469
31
0.0
0
LINE
8
0
6
CONTINUOUS
10
0.005241
20
-0.030865
30
0.0
11
0.005672
21
-0.028612
31
0.0
0
LINE
8
0
6
CONTINUOUS
10
0.000000
20
-0.024897
30
0.0
11
0.000000
21
-0.034356
31
0.0
0
LINE
8
0
6
CONTINUOUS
10
0.002171
20
-0.033908
30
0.0
11
0.002171
21
-0.024647
31
0.0
0
LINE
8
0
6
CONTINUOUS
10
0.021690
20
-0.021018
30
0.0
11
0.022500
21
-0.021018
31
0.0
0
LINE
8
0
6
CONTINUOUS
10
0.022500
20
-0.021018
30
0.0
11
0.022500
21
-0.019995
31
0.0
0
LINE
8
0
6
CONTINUOUS
10
0.011160
20
-0.021018
30
0.0
11
0.015930
21
-0.021018
31
0.0
0
LINE
8
0
6
CONTINUOUS
10
0.005760
20
-0.021018
30
0.0
11
0.011160
21
-0.021018
31
0.0
0
LINE
8
0
6
CONTINUOUS
10
0.000000
20
-0.021018
30
0.0
11
0.005760
21
-0.021018
31
0.0
0
LINE
8
0
6
CONTINUOUS
10
0.015930
20
-0.021018
30
0.0
11
0.019530
21
-0.021018
31
0.0
0
LINE
8
0
6
CONTINUOUS
10
0.019530
20
-0.021018
30
0.0
11
0.021690
21
-0.021018
31
0.0
0
LINE
8
0
6
CONTINUOUS
10
0.004053
20
-0.023935
30
0.0
11
0.004035
21
-0.022815
31
0.0
0
LINE
8
0
6
CONTINUOUS
10
0.004035
20
-0.022815
30
0.0
11
0.004643
21
-0.022106
31
0.0
0
LINE
8
0
6
CONTINUOUS
10
0.004968
20
-0.021894
30
0.0
11
0.005888
21
-0.021454
31
0.0
0
LINE
8
0
6
CONTINUOUS
10
0.004643
20
-0.022106
30
0.0
11
0.004968
21
-0.021894
31
0.0
0
LINE
8
0
6
CONTINUOUS
10
0.004011
20
-0.032776
30
0.0
11
0.004582
21
-0.031888
31
0.0
0
LINE
8
0
6
CONTINUOUS
10
0.003091
20
-0.033414
30
0.0
11
0.004011
21
-0.032776
31
0.0
0
LINE
8
0
6
CONTINUOUS
10
0.004011
20
-0.032632
30
0.0
11
0.004053
21
-0.023935
31
0.0
0
LINE
8
0
6
CONTINUOUS
10
0.022500
20
-0.001206
30
0.0
11
0.022500
21
0.014499
31
0.0
0
LINE
8
0
6
CONTINUOUS
10
0.000000
20
-0.021018
30
0.0
11
0.000000
21
-0.021656
31
0.0
0
LINE
8
0
6
CONTINUOUS
10
-0.015930
20
0.015011
30
0.0
11
-0.019530
21
0.015011
31
0.0
0
LINE
8
0
6
CONTINUOUS
10
-0.011217
20
0.015011
30
0.0
11
-0.015930
21
0.015011
31
0.0
0
LINE
8
0
6
CONTINUOUS
10
-0.022500
20
0.015011
30
0.0
11
-0.022500
21
0.014499
31
0.0
0
LINE
8
0
6
CONTINUOUS
10
-0.021690
20
0.015011
30
0.0
11
-0.022500
21
0.015011
31
0.0
0
LINE
8
0
6
CONTINUOUS
10
-0.019530
20
0.015011
30
0.0
11
-0.021690
21
0.015011
31
0.0
0
LINE
8
0
6
CONTINUOUS
10
0.019530
20
0.015011
30
0.0
11
0.015930
21
0.015011
31
0.0
0
LINE
8
0
6
CONTINUOUS
10
0.015930
20
0.015011
30
0.0
11
0.011306
21
0.015011
31
0.0
0
LINE
8
0
6
CONTINUOUS
10
0.022500
20
0.015011
30
0.0
11
0.021690
21
0.015011
31
0.0
0
LINE
8
0
6
CONTINUOUS
10
0.022500
20
0.014499
30
0.0
11
0.022500
21
0.015011
31
0.0
0
LINE
8
0
6
CONTINUOUS
10
0.021690
20
0.015011
30
0.0
11
0.019530
21
0.015011
31
0.0
0
ENDSEC
0
EOF
