999
Erzeugt mit innoplus bad 
0
SECTION
2
HEADER
9
$ACADVER
1
AC1009
9
$DWGCODEPAGE
3
ISO8859-1
0
ENDSEC
0
SECTION
2
TABLES
0
TABLE
2
LAYER
70
1
0
LAYER
2
0
70
0
62
7
6
CONTINUOUS
0
ENDTAB
0
ENDSEC
0
SECTION
2
ENTITIES
0
LINE
8
0
6
CONTINUOUS
10
0.019500
20
0.090237
30
0.0
11
0.019500
21
0.088344
31
0.0
0
LINE
8
0
6
CONTINUOUS
10
0.021500
20
0.090237
30
0.0
11
0.019500
21
0.090237
31
0.0
0
LINE
8
0
6
CONTINUOUS
10
0.019500
20
0.088344
30
0.0
11
0.019500
21
0.082762
31
0.0
0
LINE
8
0
6
CONTINUOUS
10
0.019500
20
0.082762
30
0.0
11
0.019500
21
0.073771
31
0.0
0
LINE
8
0
6
CONTINUOUS
10
0.019500
20
0.073771
30
0.0
11
0.019500
21
0.061820
31
0.0
0
LINE
8
0
6
CONTINUOUS
10
0.019500
20
0.061820
30
0.0
11
0.019500
21
0.047510
31
0.0
0
LINE
8
0
6
CONTINUOUS
10
0.019500
20
0.047510
30
0.0
11
0.019500
21
0.031558
31
0.0
0
LINE
8
0
6
CONTINUOUS
10
0.019500
20
0.031558
30
0.0
11
0.019500
21
0.014764
31
0.0
0
LINE
8
0
6
CONTINUOUS
10
0.019500
20
0.014764
30
0.0
11
0.019500
21
-0.002031
31
0.0
0
LINE
8
0
6
CONTINUOUS
10
0.019500
20
-0.002031
30
0.0
11
0.019500
21
-0.017983
31
0.0
0
LINE
8
0
6
CONTINUOUS
10
0.019500
20
-0.017983
30
0.0
11
0.019500
21
-0.032293
31
0.0
0
LINE
8
0
6
CONTINUOUS
10
0.019500
20
-0.032293
30
0.0
11
0.019500
21
-0.044237
31
0.0
0
LINE
8
0
6
CONTINUOUS
10
0.019500
20
-0.044244
30
0.0
11
0.019500
21
-0.053235
31
0.0
0
LINE
8
0
6
CONTINUOUS
10
0.019500
20
-0.053235
30
0.0
11
0.019500
21
-0.058817
31
0.0
0
LINE
8
0
6
CONTINUOUS
10
0.019500
20
-0.060710
30
0.0
11
0.021500
21
-0.060710
31
0.0
0
LINE
8
0
6
CONTINUOUS
10
0.019500
20
-0.058817
30
0.0
11
0.019500
21
-0.060710
31
0.0
0
LINE
8
0
6
CONTINUOUS
10
0.032500
20
0.090237
30
0.0
11
0.021500
21
0.090237
31
0.0
0
LINE
8
0
6
CONTINUOUS
10
0.021500
20
-0.060710
30
0.0
11
0.032500
21
-0.060710
31
0.0
0
LINE
8
0
6
CONTINUOUS
10
0.034500
20
0.090237
30
0.0
11
0.032500
21
0.090237
31
0.0
0
LINE
8
0
6
CONTINUOUS
10
0.034500
20
0.088344
30
0.0
11
0.034500
21
0.090237
31
0.0
0
LINE
8
0
6
CONTINUOUS
10
0.034500
20
0.082762
30
0.0
11
0.034500
21
0.088344
31
0.0
0
LINE
8
0
6
CONTINUOUS
10
0.034500
20
0.073771
30
0.0
11
0.034500
21
0.082762
31
0.0
0
LINE
8
0
6
CONTINUOUS
10
0.034500
20
0.061820
30
0.0
11
0.034500
21
0.073771
31
0.0
0
LINE
8
0
6
CONTINUOUS
10
0.034500
20
0.047510
30
0.0
11
0.034500
21
0.061820
31
0.0
0
LINE
8
0
6
CONTINUOUS
10
0.034500
20
0.031558
30
0.0
11
0.034500
21
0.047510
31
0.0
0
LINE
8
0
6
CONTINUOUS
10
0.034500
20
0.014764
30
0.0
11
0.034500
21
0.031558
31
0.0
0
LINE
8
0
6
CONTINUOUS
10
0.034500
20
-0.002031
30
0.0
11
0.034500
21
0.014764
31
0.0
0
LINE
8
0
6
CONTINUOUS
10
0.034500
20
-0.017983
30
0.0
11
0.034500
21
-0.002031
31
0.0
0
LINE
8
0
6
CONTINUOUS
10
0.034500
20
-0.032293
30
0.0
11
0.034500
21
-0.017983
31
0.0
0
LINE
8
0
6
CONTINUOUS
10
0.034500
20
-0.044244
30
0.0
11
0.034500
21
-0.032293
31
0.0
0
LINE
8
0
6
CONTINUOUS
10
0.034500
20
-0.053235
30
0.0
11
0.034500
21
-0.044244
31
0.0
0
LINE
8
0
6
CONTINUOUS
10
0.034500
20
-0.058817
30
0.0
11
0.034500
21
-0.053235
31
0.0
0
LINE
8
0
6
CONTINUOUS
10
0.034500
20
-0.060710
30
0.0
11
0.034500
21
-0.058817
31
0.0
0
LINE
8
0
6
CONTINUOUS
10
0.032500
20
-0.060710
30
0.0
11
0.034500
21
-0.060710
31
0.0
0
LINE
8
0
6
CONTINUOUS
10
0.016610
20
0.038236
30
0.0
11
0.019500
21
0.038236
31
0.0
0
LINE
8
0
6
CONTINUOUS
10
-0.004021
20
0.037125
30
0.0
11
-0.003730
21
0.037120
31
0.0
0
LINE
8
0
6
CONTINUOUS
10
-0.003730
20
0.039053
30
0.0
11
-0.003730
21
0.041396
31
0.0
0
LINE
8
0
6
CONTINUOUS
10
0.012674
20
0.062902
30
0.0
11
0.012674
21
0.064134
31
0.0
0
LINE
8
0
6
CONTINUOUS
10
0.012674
20
0.048478
30
0.0
11
0.012674
21
0.051763
31
0.0
0
LINE
8
0
6
CONTINUOUS
10
-0.002117
20
0.065196
30
0.0
11
-0.003730
21
0.066407
31
0.0
0
LINE
8
0
6
CONTINUOUS
10
-0.002117
20
0.038330
30
0.0
11
-0.000522
21
0.038931
31
0.0
0
LINE
8
0
6
CONTINUOUS
10
-0.003730
20
0.051763
30
0.0
11
-0.003730
21
0.048015
31
0.0
0
LINE
8
0
6
CONTINUOUS
10
-0.003730
20
0.048015
30
0.0
11
-0.003730
21
0.044500
31
0.0
0
LINE
8
0
6
CONTINUOUS
10
-0.003730
20
0.039053
30
0.0
11
-0.003730
21
0.037647
31
0.0
0
LINE
8
0
6
CONTINUOUS
10
-0.006605
20
0.066402
30
0.0
11
-0.007012
21
0.066402
31
0.0
0
LINE
8
0
6
CONTINUOUS
10
0.012674
20
0.042678
30
0.0
11
0.012674
21
0.045399
31
0.0
0
LINE
8
0
6
CONTINUOUS
10
0.012674
20
0.058128
30
0.0
11
0.012674
21
0.060849
31
0.0
0
LINE
8
0
6
CONTINUOUS
10
0.012674
20
0.051763
30
0.0
11
0.012674
21
0.055048
31
0.0
0
LINE
8
0
6
CONTINUOUS
10
0.012674
20
0.055048
30
0.0
11
0.012674
21
0.058128
31
0.0
0
LINE
8
0
6
CONTINUOUS
10
0.012674
20
0.064595
30
0.0
11
0.012276
21
0.064595
31
0.0
0
LINE
8
0
6
CONTINUOUS
10
0.012674
20
0.064134
30
0.0
11
0.012674
21
0.064595
31
0.0
0
LINE
8
0
6
CONTINUOUS
10
0.012674
20
0.040625
30
0.0
11
0.012674
21
0.042678
31
0.0
0
LINE
8
0
6
CONTINUOUS
10
0.012674
20
0.038931
30
0.0
11
0.012674
21
0.039393
31
0.0
0
LINE
8
0
6
CONTINUOUS
10
0.012276
20
0.038931
30
0.0
11
0.012674
21
0.038931
31
0.0
0
LINE
8
0
6
CONTINUOUS
10
0.012674
20
0.039393
30
0.0
11
0.012674
21
0.040625
31
0.0
0
LINE
8
0
6
CONTINUOUS
10
0.012674
20
0.045399
30
0.0
11
0.012674
21
0.048478
31
0.0
0
LINE
8
0
6
CONTINUOUS
10
0.012276
20
0.064595
30
0.0
11
-0.000273
21
0.064595
31
0.0
0
LINE
8
0
6
CONTINUOUS
10
-0.000273
20
0.038931
30
0.0
11
0.012276
21
0.038931
31
0.0
0
LINE
8
0
6
CONTINUOUS
10
0.012674
20
0.062902
30
0.0
11
0.012674
21
0.060849
31
0.0
0
LINE
8
0
6
CONTINUOUS
10
-0.003730
20
0.044500
30
0.0
11
-0.003730
21
0.041396
31
0.0
0
LINE
8
0
6
CONTINUOUS
10
-0.000522
20
0.064595
30
0.0
11
-0.002117
21
0.065196
31
0.0
0
LINE
8
0
6
CONTINUOUS
10
-0.007012
20
0.037125
30
0.0
11
-0.006605
21
0.037125
31
0.0
0
LINE
8
0
6
CONTINUOUS
10
-0.004021
20
0.066402
30
0.0
11
-0.006605
21
0.066402
31
0.0
0
LINE
8
0
6
CONTINUOUS
10
-0.006605
20
0.037125
30
0.0
11
-0.004021
21
0.037125
31
0.0
0
LINE
8
0
6
CONTINUOUS
10
-0.003730
20
0.065880
30
0.0
11
-0.003730
21
0.066407
31
0.0
0
LINE
8
0
6
CONTINUOUS
10
-0.003730
20
0.066407
30
0.0
11
-0.004021
21
0.066402
31
0.0
0
LINE
8
0
6
CONTINUOUS
10
-0.003730
20
0.064474
30
0.0
11
-0.003730
21
0.065880
31
0.0
0
LINE
8
0
6
CONTINUOUS
10
-0.003730
20
0.062131
30
0.0
11
-0.003730
21
0.064474
31
0.0
0
LINE
8
0
6
CONTINUOUS
10
-0.003730
20
0.059027
30
0.0
11
-0.003730
21
0.062131
31
0.0
0
LINE
8
0
6
CONTINUOUS
10
-0.003730
20
0.055512
30
0.0
11
-0.003730
21
0.059027
31
0.0
0
LINE
8
0
6
CONTINUOUS
10
-0.003730
20
0.051763
30
0.0
11
-0.003730
21
0.055512
31
0.0
0
LINE
8
0
6
CONTINUOUS
10
-0.000273
20
0.064595
30
0.0
11
-0.000522
21
0.064595
31
0.0
0
LINE
8
0
6
CONTINUOUS
10
-0.000522
20
0.038931
30
0.0
11
-0.000273
21
0.038931
31
0.0
0
LINE
8
0
6
CONTINUOUS
10
-0.003730
20
0.037647
30
0.0
11
-0.003730
21
0.037120
31
0.0
0
LINE
8
0
6
CONTINUOUS
10
-0.003730
20
0.037120
30
0.0
11
-0.002117
21
0.038330
31
0.0
0
LINE
8
0
6
CONTINUOUS
10
-0.008524
20
0.038652
30
0.0
11
-0.008081
21
0.037572
31
0.0
0
LINE
8
0
6
CONTINUOUS
10
-0.008524
20
0.039124
30
0.0
11
-0.008524
21
0.038652
31
0.0
0
LINE
8
0
6
CONTINUOUS
10
-0.008081
20
0.037572
30
0.0
11
-0.007012
21
0.037125
31
0.0
0
LINE
8
0
6
CONTINUOUS
10
-0.008081
20
0.038083
30
0.0
11
-0.008081
21
0.037572
31
0.0
0
LINE
8
0
6
CONTINUOUS
10
-0.008524
20
0.042479
30
0.0
11
-0.008524
21
0.040387
31
0.0
0
LINE
8
0
6
CONTINUOUS
10
-0.008081
20
0.041716
30
0.0
11
-0.008081
21
0.039447
31
0.0
0
LINE
8
0
6
CONTINUOUS
10
-0.008524
20
0.064403
30
0.0
11
-0.008524
21
0.063140
31
0.0
0
LINE
8
0
6
CONTINUOUS
10
-0.008081
20
0.064080
30
0.0
11
-0.008081
21
0.065444
31
0.0
0
LINE
8
0
6
CONTINUOUS
10
-0.008081
20
0.058805
30
0.0
11
-0.008081
21
0.061811
31
0.0
0
LINE
8
0
6
CONTINUOUS
10
-0.007012
20
0.066402
30
0.0
11
-0.008081
21
0.065954
31
0.0
0
LINE
8
0
6
CONTINUOUS
10
-0.007012
20
0.065875
30
0.0
11
-0.007012
21
0.066402
31
0.0
0
LINE
8
0
6
CONTINUOUS
10
-0.008524
20
0.064874
30
0.0
11
-0.008524
21
0.064403
31
0.0
0
LINE
8
0
6
CONTINUOUS
10
-0.008081
20
0.065954
30
0.0
11
-0.008524
21
0.064874
31
0.0
0
LINE
8
0
6
CONTINUOUS
10
-0.008081
20
0.065444
30
0.0
11
-0.008081
21
0.065954
31
0.0
0
LINE
8
0
6
CONTINUOUS
10
-0.008524
20
0.058274
30
0.0
11
-0.008524
21
0.055119
31
0.0
0
LINE
8
0
6
CONTINUOUS
10
-0.008081
20
0.055396
30
0.0
11
-0.008081
21
0.058805
31
0.0
0
LINE
8
0
6
CONTINUOUS
10
-0.008524
20
0.063140
30
0.0
11
-0.008524
21
0.061048
31
0.0
0
LINE
8
0
6
CONTINUOUS
10
-0.008081
20
0.061811
30
0.0
11
-0.008081
21
0.064080
31
0.0
0
LINE
8
0
6
CONTINUOUS
10
-0.008524
20
0.040387
30
0.0
11
-0.008524
21
0.039124
31
0.0
0
LINE
8
0
6
CONTINUOUS
10
-0.008081
20
0.039447
30
0.0
11
-0.008081
21
0.038083
31
0.0
0
LINE
8
0
6
CONTINUOUS
10
-0.008524
20
0.051763
30
0.0
11
-0.008524
21
0.048408
31
0.0
0
LINE
8
0
6
CONTINUOUS
10
-0.008081
20
0.051763
30
0.0
11
-0.008081
21
0.048131
31
0.0
0
LINE
8
0
6
CONTINUOUS
10
-0.008524
20
0.055119
30
0.0
11
-0.008524
21
0.051763
31
0.0
0
LINE
8
0
6
CONTINUOUS
10
-0.008081
20
0.051763
30
0.0
11
-0.008081
21
0.055396
31
0.0
0
LINE
8
0
6
CONTINUOUS
10
-0.008524
20
0.048408
30
0.0
11
-0.008524
21
0.045252
31
0.0
0
LINE
8
0
6
CONTINUOUS
10
-0.008081
20
0.048131
30
0.0
11
-0.008081
21
0.044722
31
0.0
0
LINE
8
0
6
CONTINUOUS
10
-0.008524
20
0.045252
30
0.0
11
-0.008524
21
0.042479
31
0.0
0
LINE
8
0
6
CONTINUOUS
10
-0.008081
20
0.044722
30
0.0
11
-0.008081
21
0.041716
31
0.0
0
LINE
8
0
6
CONTINUOUS
10
0.012674
20
0.045420
30
0.0
11
0.015805
21
0.038750
31
0.0
0
LINE
8
0
6
CONTINUOUS
10
0.015805
20
0.064658
30
0.0
11
0.012674
21
0.057989
31
0.0
0
LINE
8
0
6
CONTINUOUS
10
0.019500
20
0.065172
30
0.0
11
0.016610
21
0.065172
31
0.0
0
LINE
8
0
6
CONTINUOUS
10
0.016046
20
0.065172
30
0.0
11
0.015805
21
0.064658
31
0.0
0
LINE
8
0
6
CONTINUOUS
10
0.016610
20
0.065172
30
0.0
11
0.016046
21
0.065172
31
0.0
0
LINE
8
0
6
CONTINUOUS
10
0.016046
20
0.065172
30
0.0
11
0.016046
21
0.064688
31
0.0
0
LINE
8
0
6
CONTINUOUS
10
0.015805
20
0.038750
30
0.0
11
0.016046
21
0.038236
31
0.0
0
LINE
8
0
6
CONTINUOUS
10
0.016046
20
0.038236
30
0.0
11
0.016610
21
0.038236
31
0.0
0
LINE
8
0
6
CONTINUOUS
10
0.016046
20
0.038722
30
0.0
11
0.016046
21
0.038236
31
0.0
0
LINE
8
0
6
CONTINUOUS
10
0.016046
20
0.040015
30
0.0
11
0.016046
21
0.038722
31
0.0
0
LINE
8
0
6
CONTINUOUS
10
0.016046
20
0.042170
30
0.0
11
0.016046
21
0.040015
31
0.0
0
LINE
8
0
6
CONTINUOUS
10
0.016046
20
0.045025
30
0.0
11
0.016046
21
0.042170
31
0.0
0
LINE
8
0
6
CONTINUOUS
10
0.016046
20
0.048257
30
0.0
11
0.016046
21
0.045025
31
0.0
0
LINE
8
0
6
CONTINUOUS
10
0.016046
20
0.051705
30
0.0
11
0.016046
21
0.048257
31
0.0
0
LINE
8
0
6
CONTINUOUS
10
0.016046
20
0.058385
30
0.0
11
0.016046
21
0.055153
31
0.0
0
LINE
8
0
6
CONTINUOUS
10
0.016046
20
0.061240
30
0.0
11
0.016046
21
0.058385
31
0.0
0
LINE
8
0
6
CONTINUOUS
10
0.016046
20
0.063395
30
0.0
11
0.016046
21
0.061240
31
0.0
0
LINE
8
0
6
CONTINUOUS
10
0.016046
20
0.064688
30
0.0
11
0.016046
21
0.063395
31
0.0
0
LINE
8
0
6
CONTINUOUS
10
0.016046
20
0.055153
30
0.0
11
0.016046
21
0.051705
31
0.0
0
LINE
8
0
6
CONTINUOUS
10
0.015011
20
-0.044237
30
0.0
11
0.019500
21
-0.044237
31
0.0
0
LINE
8
0
6
CONTINUOUS
10
0.019500
20
-0.000237
30
0.0
11
0.015011
21
-0.000237
31
0.0
0
LINE
8
0
6
CONTINUOUS
10
0.014499
20
0.000263
30
0.0
11
-0.001206
21
0.000263
31
0.0
0
LINE
8
0
6
CONTINUOUS
10
-0.011093
20
-0.048947
30
0.0
11
-0.009745
21
-0.047544
31
0.0
0
LINE
8
0
6
CONTINUOUS
10
-0.014122
20
-0.055608
30
0.0
11
-0.023029
21
-0.089632
31
0.0
0
LINE
8
0
6
CONTINUOUS
10
-0.022581
20
-0.089746
30
0.0
11
-0.013699
21
-0.055807
31
0.0
0
LINE
8
0
6
CONTINUOUS
10
-0.014322
20
0.000263
30
0.0
11
-0.017670
21
0.000263
31
0.0
0
LINE
8
0
6
CONTINUOUS
10
-0.009797
20
-0.047100
30
0.0
11
-0.012903
21
-0.048418
31
0.0
0
LINE
8
0
6
CONTINUOUS
10
-0.010975
20
0.000263
30
0.0
11
-0.014322
21
0.000263
31
0.0
0
LINE
8
0
6
CONTINUOUS
10
-0.022408
20
-0.038792
30
0.0
11
-0.023151
21
-0.043249
31
0.0
0
LINE
8
0
6
CONTINUOUS
10
-0.007627
20
0.000263
30
0.0
11
-0.010975
21
0.000263
31
0.0
0
LINE
8
0
6
CONTINUOUS
10
-0.001206
20
0.000263
30
0.0
11
-0.004279
21
0.000263
31
0.0
0
LINE
8
0
6
CONTINUOUS
10
-0.001206
20
-0.044737
30
0.0
11
0.014499
21
-0.044737
31
0.0
0
LINE
8
0
6
CONTINUOUS
10
-0.004279
20
0.000263
30
0.0
11
-0.007627
21
0.000263
31
0.0
0
LINE
8
0
6
CONTINUOUS
10
-0.017670
20
0.000263
30
0.0
11
-0.019995
21
0.000263
31
0.0
0
LINE
8
0
6
CONTINUOUS
10
-0.011528
20
-0.048694
30
0.0
11
-0.012903
21
-0.048418
31
0.0
0
LINE
8
0
6
CONTINUOUS
10
-0.012897
20
-0.052757
30
0.0
11
-0.011093
21
-0.048947
31
0.0
0
LINE
8
0
6
CONTINUOUS
10
-0.019917
20
-0.047778
30
0.0
11
-0.020926
21
-0.050574
31
0.0
0
LINE
8
0
6
CONTINUOUS
10
-0.018595
20
-0.050897
30
0.0
11
-0.017335
21
-0.047881
31
0.0
0
LINE
8
0
6
CONTINUOUS
10
-0.023151
20
-0.043249
30
0.0
11
-0.024044
21
-0.047630
31
0.0
0
LINE
8
0
6
CONTINUOUS
10
-0.024044
20
-0.047630
30
0.0
11
-0.024897
21
-0.050855
31
0.0
0
LINE
8
0
6
CONTINUOUS
10
-0.024647
20
-0.051645
30
0.0
11
-0.023812
21
-0.048480
31
0.0
0
LINE
8
0
6
CONTINUOUS
10
-0.020926
20
-0.050574
30
0.0
11
-0.022011
21
-0.054331
31
0.0
0
LINE
8
0
6
CONTINUOUS
10
-0.013699
20
-0.055807
30
0.0
11
-0.012897
21
-0.052757
31
0.0
0
LINE
8
0
6
CONTINUOUS
10
-0.014122
20
-0.055608
30
0.0
11
-0.013319
21
-0.052551
31
0.0
0
LINE
8
0
6
CONTINUOUS
10
-0.005341
20
-0.045230
30
0.0
11
-0.003768
21
-0.044737
31
0.0
0
LINE
8
0
6
CONTINUOUS
10
-0.005437
20
-0.044508
30
0.0
11
-0.004024
21
-0.043830
31
0.0
0
LINE
8
0
6
CONTINUOUS
10
-0.003768
20
-0.044737
30
0.0
11
-0.001206
21
-0.044737
31
0.0
0
LINE
8
0
6
CONTINUOUS
10
-0.021018
20
-0.024223
30
0.0
11
-0.021079
21
-0.035542
31
0.0
0
LINE
8
0
6
CONTINUOUS
10
-0.017335
20
-0.047881
30
0.0
11
-0.016916
21
-0.047103
31
0.0
0
LINE
8
0
6
CONTINUOUS
10
-0.005437
20
-0.044508
30
0.0
11
-0.007483
21
-0.045685
31
0.0
0
LINE
8
0
6
CONTINUOUS
10
-0.007435
20
-0.046243
30
0.0
11
-0.005341
21
-0.045230
31
0.0
0
LINE
8
0
6
CONTINUOUS
10
-0.021656
20
-0.033667
30
0.0
11
-0.022408
21
-0.038792
31
0.0
0
LINE
8
0
6
CONTINUOUS
10
-0.009745
20
-0.047544
30
0.0
11
-0.007435
21
-0.046243
31
0.0
0
LINE
8
0
6
CONTINUOUS
10
-0.015811
20
-0.045368
30
0.0
11
-0.016916
21
-0.047103
31
0.0
0
LINE
8
0
6
CONTINUOUS
10
-0.009797
20
-0.047100
30
0.0
11
-0.007483
21
-0.045685
31
0.0
0
LINE
8
0
6
CONTINUOUS
10
-0.034052
20
-0.087369
30
0.0
11
-0.033414
21
-0.087530
31
0.0
0
LINE
8
0
6
CONTINUOUS
10
-0.034052
20
-0.087369
30
0.0
11
-0.033908
21
-0.086878
31
0.0
0
LINE
8
0
6
CONTINUOUS
10
-0.034500
20
-0.087255
30
0.0
11
-0.034052
21
-0.087369
31
0.0
0
LINE
8
0
6
CONTINUOUS
10
-0.034356
20
-0.086765
30
0.0
11
-0.034500
21
-0.087255
31
0.0
0
LINE
8
0
6
CONTINUOUS
10
-0.031888
20
-0.087917
30
0.0
11
-0.030865
21
-0.088176
31
0.0
0
LINE
8
0
6
CONTINUOUS
10
-0.028612
20
-0.088746
30
0.0
11
-0.030865
21
-0.088176
31
0.0
0
LINE
8
0
6
CONTINUOUS
10
-0.026359
20
-0.089316
30
0.0
11
-0.028612
21
-0.088746
31
0.0
0
LINE
8
0
6
CONTINUOUS
10
-0.026359
20
-0.089316
30
0.0
11
-0.024449
21
-0.089800
31
0.0
0
LINE
8
0
6
CONTINUOUS
10
-0.024449
20
-0.089800
30
0.0
11
-0.023173
21
-0.090123
31
0.0
0
LINE
8
0
6
CONTINUOUS
10
-0.022725
20
-0.090237
30
0.0
11
-0.022581
21
-0.089746
31
0.0
0
LINE
8
0
6
CONTINUOUS
10
-0.023029
20
-0.089632
30
0.0
11
-0.023173
21
-0.090123
31
0.0
0
LINE
8
0
6
CONTINUOUS
10
-0.022725
20
-0.090237
30
0.0
11
-0.023173
21
-0.090123
31
0.0
0
LINE
8
0
6
CONTINUOUS
10
-0.024897
20
-0.050855
30
0.0
11
-0.034356
21
-0.086765
31
0.0
0
LINE
8
0
6
CONTINUOUS
10
-0.033908
20
-0.086878
30
0.0
11
-0.024647
21
-0.051645
31
0.0
0
LINE
8
0
6
CONTINUOUS
10
-0.021018
20
-0.016477
30
0.0
11
-0.021018
21
-0.022237
31
0.0
0
LINE
8
0
6
CONTINUOUS
10
-0.021018
20
-0.022237
30
0.0
11
-0.021018
21
-0.027997
31
0.0
0
LINE
8
0
6
CONTINUOUS
10
-0.021018
20
-0.002707
30
0.0
11
-0.021018
21
-0.006307
31
0.0
0
LINE
8
0
6
CONTINUOUS
10
-0.021018
20
-0.000547
30
0.0
11
-0.021018
21
-0.002707
31
0.0
0
LINE
8
0
6
CONTINUOUS
10
-0.021018
20
0.000263
30
0.0
11
-0.021018
21
-0.000547
31
0.0
0
LINE
8
0
6
CONTINUOUS
10
-0.019995
20
0.000263
30
0.0
11
-0.021018
21
0.000263
31
0.0
0
LINE
8
0
6
CONTINUOUS
10
-0.021018
20
-0.006307
30
0.0
11
-0.021018
21
-0.011077
31
0.0
0
LINE
8
0
6
CONTINUOUS
10
-0.021018
20
-0.033397
30
0.0
11
-0.021018
21
-0.038167
31
0.0
0
LINE
8
0
6
CONTINUOUS
10
-0.021018
20
-0.027997
30
0.0
11
-0.021018
21
-0.033397
31
0.0
0
LINE
8
0
6
CONTINUOUS
10
-0.021018
20
-0.038167
30
0.0
11
-0.021018
21
-0.041767
31
0.0
0
LINE
8
0
6
CONTINUOUS
10
-0.021018
20
-0.011077
30
0.0
11
-0.021018
21
-0.016477
31
0.0
0
LINE
8
0
6
CONTINUOUS
10
-0.023935
20
-0.054132
30
0.0
11
-0.022815
21
-0.050192
31
0.0
0
LINE
8
0
6
CONTINUOUS
10
-0.022815
20
-0.050192
30
0.0
11
-0.022106
21
-0.047718
31
0.0
0
LINE
8
0
6
CONTINUOUS
10
-0.021018
20
-0.043256
30
0.0
11
-0.021018
21
-0.043969
31
0.0
0
LINE
8
0
6
CONTINUOUS
10
-0.021018
20
-0.041767
30
0.0
11
-0.021018
21
-0.043256
31
0.0
0
LINE
8
0
6
CONTINUOUS
10
-0.021018
20
-0.043969
30
0.0
11
-0.021454
21
-0.045464
31
0.0
0
LINE
8
0
6
CONTINUOUS
10
-0.021454
20
-0.045464
30
0.0
11
-0.021894
21
-0.046982
31
0.0
0
LINE
8
0
6
CONTINUOUS
10
-0.018005
20
-0.043861
30
0.0
11
-0.020220
21
-0.043934
31
0.0
0
LINE
8
0
6
CONTINUOUS
10
-0.022106
20
-0.047718
30
0.0
11
-0.021894
21
-0.046982
31
0.0
0
LINE
8
0
6
CONTINUOUS
10
-0.032776
20
-0.087692
30
0.0
11
-0.031888
21
-0.087917
31
0.0
0
LINE
8
0
6
CONTINUOUS
10
-0.032632
20
-0.087201
30
0.0
11
-0.023935
21
-0.054132
31
0.0
0
LINE
8
0
6
CONTINUOUS
10
-0.032776
20
-0.087692
30
0.0
11
-0.033414
21
-0.087530
31
0.0
0
LINE
8
0
6
CONTINUOUS
10
-0.021018
20
-0.027595
30
0.0
11
-0.021656
21
-0.033667
31
0.0
0
LINE
8
0
6
CONTINUOUS
10
0.015011
20
-0.011110
30
0.0
11
0.015011
21
-0.006328
31
0.0
0
LINE
8
0
6
CONTINUOUS
10
0.015011
20
-0.038167
30
0.0
11
0.015011
21
-0.033397
31
0.0
0
LINE
8
0
6
CONTINUOUS
10
0.015011
20
-0.006328
30
0.0
11
0.015011
21
-0.002773
31
0.0
0
LINE
8
0
6
CONTINUOUS
10
0.015011
20
-0.033397
30
0.0
11
0.015011
21
-0.027997
31
0.0
0
LINE
8
0
6
CONTINUOUS
10
0.015011
20
0.000263
30
0.0
11
0.014499
21
0.000263
31
0.0
0
LINE
8
0
6
CONTINUOUS
10
0.015011
20
-0.000566
30
0.0
11
0.015011
21
0.000263
31
0.0
0
LINE
8
0
6
CONTINUOUS
10
0.015011
20
-0.027997
30
0.0
11
0.015011
21
-0.022237
31
0.0
0
LINE
8
0
6
CONTINUOUS
10
0.015011
20
-0.022237
30
0.0
11
0.015011
21
-0.016505
31
0.0
0
LINE
8
0
6
CONTINUOUS
10
0.015011
20
-0.002773
30
0.0
11
0.015011
21
-0.000566
31
0.0
0
LINE
8
0
6
CONTINUOUS
10
0.015011
20
-0.041767
30
0.0
11
0.015011
21
-0.038167
31
0.0
0
LINE
8
0
6
CONTINUOUS
10
0.015011
20
-0.043927
30
0.0
11
0.015011
21
-0.041767
31
0.0
0
LINE
8
0
6
CONTINUOUS
10
0.015011
20
-0.044737
30
0.0
11
0.015011
21
-0.043927
31
0.0
0
LINE
8
0
6
CONTINUOUS
10
0.014499
20
-0.044737
30
0.0
11
0.015011
21
-0.044737
31
0.0
0
LINE
8
0
6
CONTINUOUS
10
0.015011
20
-0.016505
30
0.0
11
0.015011
21
-0.011110
31
0.0
0
ENDSEC
0
EOF
