999
Erzeugt mit innoplus bad 
0
SECTION
2
HEADER
9
$ACADVER
1
AC1009
9
$DWGCODEPAGE
3
ISO8859-1
0
ENDSEC
0
SECTION
2
TABLES
0
TABLE
2
LAYER
70
1
0
LAYER
2
0
70
0
62
7
6
CONTINUOUS
0
ENDTAB
0
ENDSEC
0
SECTION
2
ENTITIES
0
LINE
8
0
6
CONTINUOUS
10
-0.029007
20
0.096645
30
0.0
11
-0.031723
21
0.096323
31
0.0
0
LINE
8
0
6
CONTINUOUS
10
-0.031723
20
0.096323
30
0.0
11
-0.070490
21
0.091734
31
0.0
0
LINE
8
0
6
CONTINUOUS
10
0.027711
20
0.079442
30
0.0
11
0.023654
21
0.090060
31
0.0
0
LINE
8
0
6
CONTINUOUS
10
-0.033161
20
0.086061
30
0.0
11
-0.030584
21
0.086233
31
0.0
0
LINE
8
0
6
CONTINUOUS
10
-0.027929
20
0.085878
30
0.0
11
-0.025588
21
0.084971
31
0.0
0
LINE
8
0
6
CONTINUOUS
10
-0.025178
20
0.085141
30
0.0
11
-0.027975
21
0.087463
31
0.0
0
LINE
8
0
6
CONTINUOUS
10
0.020140
20
0.099272
30
0.0
11
0.018945
21
0.102412
31
0.0
0
LINE
8
0
6
CONTINUOUS
10
-0.021050
20
0.097873
30
0.0
11
-0.026198
21
0.097100
31
0.0
0
LINE
8
0
6
CONTINUOUS
10
0.021344
20
0.096112
30
0.0
11
0.020140
21
0.099272
31
0.0
0
LINE
8
0
6
CONTINUOUS
10
0.023654
20
0.090060
30
0.0
11
0.022557
21
0.092931
31
0.0
0
LINE
8
0
6
CONTINUOUS
10
-0.018382
20
0.073997
30
0.0
11
-0.014324
21
0.063378
31
0.0
0
LINE
8
0
6
CONTINUOUS
10
0.022557
20
0.092931
30
0.0
11
0.021344
21
0.096112
31
0.0
0
LINE
8
0
6
CONTINUOUS
10
0.017759
20
0.105532
30
0.0
11
0.016940
21
0.107686
31
0.0
0
LINE
8
0
6
CONTINUOUS
10
-0.030584
20
0.086233
30
0.0
11
-0.027929
21
0.085878
31
0.0
0
LINE
8
0
6
CONTINUOUS
10
-0.029366
20
0.093152
30
0.0
11
-0.031421
21
0.093096
31
0.0
0
LINE
8
0
6
CONTINUOUS
10
-0.030914
20
0.091186
30
0.0
11
-0.028712
21
0.091114
31
0.0
0
LINE
8
0
6
CONTINUOUS
10
-0.026198
20
0.097100
30
0.0
11
-0.029007
21
0.096645
31
0.0
0
LINE
8
0
6
CONTINUOUS
10
-0.030914
20
0.091186
30
0.0
11
-0.033482
21
0.090875
31
0.0
0
LINE
8
0
6
CONTINUOUS
10
-0.069944
20
0.083608
30
0.0
11
-0.033161
21
0.086061
31
0.0
0
LINE
8
0
6
CONTINUOUS
10
-0.033205
20
0.087497
30
0.0
11
-0.069997
21
0.084391
31
0.0
0
LINE
8
0
6
CONTINUOUS
10
-0.033962
20
0.092742
30
0.0
11
-0.070302
21
0.088944
31
0.0
0
LINE
8
0
6
CONTINUOUS
10
-0.021910
20
0.081770
30
0.0
11
-0.020915
21
0.080528
31
0.0
0
LINE
8
0
6
CONTINUOUS
10
-0.021229
20
0.082016
30
0.0
11
-0.020103
21
0.080952
31
0.0
0
LINE
8
0
6
CONTINUOUS
10
-0.020915
20
0.080528
30
0.0
11
-0.018382
21
0.073997
31
0.0
0
LINE
8
0
6
CONTINUOUS
10
-0.012768
20
0.063425
30
0.0
11
-0.012210
21
0.061964
31
0.0
0
LINE
8
0
6
CONTINUOUS
10
0.027079
20
0.076978
30
0.0
11
0.026521
21
0.078439
31
0.0
0
LINE
8
0
6
CONTINUOUS
10
-0.006647
20
0.100991
30
0.0
11
-0.017490
21
0.097641
31
0.0
0
LINE
8
0
6
CONTINUOUS
10
-0.028044
20
0.093105
30
0.0
11
-0.029366
21
0.093152
31
0.0
0
LINE
8
0
6
CONTINUOUS
10
-0.028712
20
0.091114
30
0.0
11
-0.027355
21
0.090933
31
0.0
0
LINE
8
0
6
CONTINUOUS
10
-0.021229
20
0.082016
30
0.0
11
-0.023048
21
0.083500
31
0.0
0
LINE
8
0
6
CONTINUOUS
10
-0.023582
20
0.083332
30
0.0
11
-0.021910
21
0.081770
31
0.0
0
LINE
8
0
6
CONTINUOUS
10
-0.015866
20
0.098653
30
0.0
11
-0.021050
21
0.097873
31
0.0
0
LINE
8
0
6
CONTINUOUS
10
-0.025588
20
0.084971
30
0.0
11
-0.023582
21
0.083332
31
0.0
0
LINE
8
0
6
CONTINUOUS
10
-0.025362
20
0.090588
30
0.0
11
-0.027355
21
0.090933
31
0.0
0
LINE
8
0
6
CONTINUOUS
10
-0.025178
20
0.085141
30
0.0
11
-0.023048
21
0.083500
31
0.0
0
LINE
8
0
6
CONTINUOUS
10
-0.025882
20
0.087144
30
0.0
11
-0.025178
21
0.085141
31
0.0
0
LINE
8
0
6
CONTINUOUS
10
-0.034314
20
0.094403
30
0.0
11
-0.031788
21
0.094707
31
0.0
0
LINE
8
0
6
CONTINUOUS
10
0.000742
20
0.103327
30
0.0
11
-0.004751
21
0.101590
31
0.0
0
LINE
8
0
6
CONTINUOUS
10
-0.004751
20
0.101590
30
0.0
11
-0.010250
21
0.099851
31
0.0
0
LINE
8
0
6
CONTINUOUS
10
0.013845
20
0.107472
30
0.0
11
0.010423
21
0.106390
31
0.0
0
LINE
8
0
6
CONTINUOUS
10
0.015897
20
0.108121
30
0.0
11
0.013845
21
0.107472
31
0.0
0
LINE
8
0
6
CONTINUOUS
10
0.016666
20
0.108364
30
0.0
11
0.015897
21
0.108121
31
0.0
0
LINE
8
0
6
CONTINUOUS
10
0.016940
20
0.107686
30
0.0
11
0.016666
21
0.108364
31
0.0
0
LINE
8
0
6
CONTINUOUS
10
0.010423
20
0.106390
30
0.0
11
0.005885
21
0.104954
31
0.0
0
LINE
8
0
6
CONTINUOUS
10
-0.019976
20
0.096775
30
0.0
11
-0.015412
21
0.098218
31
0.0
0
LINE
8
0
6
CONTINUOUS
10
-0.010250
20
0.099851
30
0.0
11
-0.015412
21
0.098218
31
0.0
0
LINE
8
0
6
CONTINUOUS
10
-0.023424
20
0.095684
30
0.0
11
-0.019976
21
0.096775
31
0.0
0
LINE
8
0
6
CONTINUOUS
10
0.005885
20
0.104954
30
0.0
11
0.000742
21
0.103327
31
0.0
0
LINE
8
0
6
CONTINUOUS
10
-0.031788
20
0.094707
30
0.0
11
-0.029929
21
0.094862
31
0.0
0
LINE
8
0
6
CONTINUOUS
10
-0.024853
20
0.095232
30
0.0
11
-0.025614
21
0.095248
31
0.0
0
LINE
8
0
6
CONTINUOUS
10
-0.023424
20
0.095684
30
0.0
11
-0.024853
21
0.095232
31
0.0
0
LINE
8
0
6
CONTINUOUS
10
-0.025614
20
0.095248
30
0.0
11
-0.027171
21
0.095097
31
0.0
0
LINE
8
0
6
CONTINUOUS
10
-0.027171
20
0.095097
30
0.0
11
-0.028752
21
0.094943
31
0.0
0
LINE
8
0
6
CONTINUOUS
10
-0.024590
20
0.092842
30
0.0
11
-0.025337
21
0.094618
31
0.0
0
LINE
8
0
6
CONTINUOUS
10
-0.029929
20
0.094862
30
0.0
11
-0.028752
21
0.094943
31
0.0
0
LINE
8
0
6
CONTINUOUS
10
-0.009824
20
0.099837
30
0.0
11
-0.015866
21
0.098653
31
0.0
0
LINE
8
0
6
CONTINUOUS
10
-0.070490
20
0.091734
30
0.0
11
-0.070986
21
0.091676
31
0.0
0
LINE
8
0
6
CONTINUOUS
10
-0.070986
20
0.091676
30
0.0
11
-0.070952
21
0.091171
31
0.0
0
LINE
8
0
6
CONTINUOUS
10
-0.070973
20
0.091478
30
0.0
11
-0.070986
21
0.091676
31
0.0
0
LINE
8
0
6
CONTINUOUS
10
-0.070630
20
0.086376
30
0.0
11
-0.070714
21
0.087627
31
0.0
0
LINE
8
0
6
CONTINUOUS
10
-0.070630
20
0.086376
30
0.0
11
-0.070554
21
0.085247
31
0.0
0
LINE
8
0
6
CONTINUOUS
10
-0.070493
20
0.084351
30
0.0
11
-0.070554
21
0.085247
31
0.0
0
LINE
8
0
6
CONTINUOUS
10
-0.070455
20
0.083776
30
0.0
11
-0.070493
21
0.084351
31
0.0
0
LINE
8
0
6
CONTINUOUS
10
-0.070441
20
0.083577
30
0.0
11
-0.069944
21
0.083608
31
0.0
0
LINE
8
0
6
CONTINUOUS
10
-0.070441
20
0.083577
30
0.0
11
-0.070455
21
0.083776
31
0.0
0
LINE
8
0
6
CONTINUOUS
10
-0.070798
20
0.088878
30
0.0
11
-0.070874
21
0.090007
31
0.0
0
LINE
8
0
6
CONTINUOUS
10
-0.070874
20
0.090007
30
0.0
11
-0.070934
21
0.090903
31
0.0
0
LINE
8
0
6
CONTINUOUS
10
-0.070934
20
0.090903
30
0.0
11
-0.070973
21
0.091478
31
0.0
0
LINE
8
0
6
CONTINUOUS
10
-0.070714
20
0.087627
30
0.0
11
-0.070798
21
0.088878
31
0.0
0
LINE
8
0
6
CONTINUOUS
10
0.017270
20
0.074904
30
0.0
11
0.021737
21
0.076611
31
0.0
0
LINE
8
0
6
CONTINUOUS
10
-0.008004
20
0.065246
30
0.0
11
-0.003549
21
0.066949
31
0.0
0
LINE
8
0
6
CONTINUOUS
10
0.021737
20
0.076611
30
0.0
11
0.025057
21
0.077880
31
0.0
0
LINE
8
0
6
CONTINUOUS
10
-0.003549
20
0.066949
30
0.0
11
0.001496
21
0.068876
31
0.0
0
LINE
8
0
6
CONTINUOUS
10
0.027894
20
0.078964
30
0.0
11
0.027711
21
0.079442
31
0.0
0
LINE
8
0
6
CONTINUOUS
10
0.027894
20
0.078964
30
0.0
11
0.027119
21
0.078668
31
0.0
0
LINE
8
0
6
CONTINUOUS
10
0.001496
20
0.068876
30
0.0
11
0.006876
21
0.070932
31
0.0
0
LINE
8
0
6
CONTINUOUS
10
0.006876
20
0.070932
30
0.0
11
0.012230
21
0.072978
31
0.0
0
LINE
8
0
6
CONTINUOUS
10
0.027119
20
0.078668
30
0.0
11
0.025057
21
0.077880
31
0.0
0
LINE
8
0
6
CONTINUOUS
10
-0.011367
20
0.063961
30
0.0
11
-0.008004
21
0.065246
31
0.0
0
LINE
8
0
6
CONTINUOUS
10
-0.013385
20
0.063190
30
0.0
11
-0.011367
21
0.063961
31
0.0
0
LINE
8
0
6
CONTINUOUS
10
-0.014142
20
0.062901
30
0.0
11
-0.013385
21
0.063190
31
0.0
0
LINE
8
0
6
CONTINUOUS
10
-0.014324
20
0.063378
30
0.0
11
-0.014142
21
0.062901
31
0.0
0
LINE
8
0
6
CONTINUOUS
10
0.012230
20
0.072978
30
0.0
11
0.017270
21
0.074904
31
0.0
0
LINE
8
0
6
CONTINUOUS
10
0.055852
20
0.048347
30
0.0
11
0.045008
21
0.048347
31
0.0
0
LINE
8
0
6
CONTINUOUS
10
0.045008
20
0.018902
30
0.0
11
0.055852
21
0.018902
31
0.0
0
LINE
8
0
6
CONTINUOUS
10
0.058413
20
0.018902
30
0.0
11
0.058413
21
0.025097
31
0.0
0
LINE
8
0
6
CONTINUOUS
10
0.055852
20
0.018902
30
0.0
11
0.058413
21
0.018902
31
0.0
0
LINE
8
0
6
CONTINUOUS
10
0.055882
20
0.019402
30
0.0
11
0.055852
21
0.018902
31
0.0
0
LINE
8
0
6
CONTINUOUS
10
0.055852
20
0.048347
30
0.0
11
0.055882
21
0.047847
31
0.0
0
LINE
8
0
6
CONTINUOUS
10
0.058413
20
0.048347
30
0.0
11
0.055852
21
0.048347
31
0.0
0
LINE
8
0
6
CONTINUOUS
10
0.058413
20
0.042152
30
0.0
11
0.058413
21
0.048347
31
0.0
0
LINE
8
0
6
CONTINUOUS
10
0.058413
20
0.027430
30
0.0
11
0.058413
21
0.039820
31
0.0
0
LINE
8
0
6
CONTINUOUS
10
0.055882
20
0.034125
30
0.0
11
0.055852
21
0.033192
31
0.0
0
LINE
8
0
6
CONTINUOUS
10
0.055882
20
0.034125
30
0.0
11
0.058413
21
0.039820
31
0.0
0
LINE
8
0
6
CONTINUOUS
10
0.058413
20
0.039820
30
0.0
11
0.058413
21
0.042152
31
0.0
0
LINE
8
0
6
CONTINUOUS
10
0.058413
20
0.042152
30
0.0
11
0.055882
21
0.047847
31
0.0
0
LINE
8
0
6
CONTINUOUS
10
0.042447
20
0.042152
30
0.0
11
0.042447
21
0.039819
31
0.0
0
LINE
8
0
6
CONTINUOUS
10
0.058413
20
0.027430
30
0.0
11
0.055852
21
0.033192
31
0.0
0
LINE
8
0
6
CONTINUOUS
10
0.058413
20
0.025097
30
0.0
11
0.058413
21
0.027430
31
0.0
0
LINE
8
0
6
CONTINUOUS
10
0.042447
20
0.027430
30
0.0
11
0.042447
21
0.025097
31
0.0
0
LINE
8
0
6
CONTINUOUS
10
0.055882
20
0.019402
30
0.0
11
0.058413
21
0.025097
31
0.0
0
LINE
8
0
6
CONTINUOUS
10
0.042447
20
0.025097
30
0.0
11
0.042447
21
0.018902
31
0.0
0
LINE
8
0
6
CONTINUOUS
10
0.045008
20
0.018902
30
0.0
11
0.044978
21
0.019402
31
0.0
0
LINE
8
0
6
CONTINUOUS
10
0.042447
20
0.018902
30
0.0
11
0.045008
21
0.018902
31
0.0
0
LINE
8
0
6
CONTINUOUS
10
0.044978
20
0.019402
30
0.0
11
0.042447
21
0.025097
31
0.0
0
LINE
8
0
6
CONTINUOUS
10
0.042447
20
0.027430
30
0.0
11
0.045008
21
0.033192
31
0.0
0
LINE
8
0
6
CONTINUOUS
10
0.045008
20
0.033192
30
0.0
11
0.044978
21
0.034125
31
0.0
0
LINE
8
0
6
CONTINUOUS
10
0.044978
20
0.034125
30
0.0
11
0.042447
21
0.039819
31
0.0
0
LINE
8
0
6
CONTINUOUS
10
0.042447
20
0.039819
30
0.0
11
0.042447
21
0.027430
31
0.0
0
LINE
8
0
6
CONTINUOUS
10
0.045008
20
0.048347
30
0.0
11
0.042447
21
0.048347
31
0.0
0
LINE
8
0
6
CONTINUOUS
10
0.042447
20
0.042152
30
0.0
11
0.044978
21
0.047847
31
0.0
0
LINE
8
0
6
CONTINUOUS
10
0.042447
20
0.048347
30
0.0
11
0.042447
21
0.042152
31
0.0
0
LINE
8
0
6
CONTINUOUS
10
0.044978
20
0.047847
30
0.0
11
0.045008
21
0.048347
31
0.0
0
LINE
8
0
6
CONTINUOUS
10
0.065863
20
0.046848
30
0.0
11
0.058413
21
0.046848
31
0.0
0
LINE
8
0
6
CONTINUOUS
10
0.042447
20
0.046848
30
0.0
11
0.041396
21
0.046848
31
0.0
0
LINE
8
0
6
CONTINUOUS
10
0.065982
20
-0.000410
30
0.0
11
0.067951
21
-0.000410
31
0.0
0
LINE
8
0
6
CONTINUOUS
10
0.067951
20
0.067659
30
0.0
11
0.065982
21
0.067659
31
0.0
0
LINE
8
0
6
CONTINUOUS
10
0.065863
20
0.002149
30
0.0
11
0.065863
21
0.001339
31
0.0
0
LINE
8
0
6
CONTINUOUS
10
0.065982
20
-0.000410
30
0.0
11
0.065982
21
0.000444
31
0.0
0
LINE
8
0
6
CONTINUOUS
10
0.065863
20
0.001339
30
0.0
11
0.065982
21
-0.000410
31
0.0
0
LINE
8
0
6
CONTINUOUS
10
0.065863
20
0.004537
30
0.0
11
0.065863
21
0.002149
31
0.0
0
LINE
8
0
6
CONTINUOUS
10
0.065982
20
0.000444
30
0.0
11
0.065982
21
0.002961
31
0.0
0
LINE
8
0
6
CONTINUOUS
10
0.065863
20
0.008383
30
0.0
11
0.065863
21
0.004537
31
0.0
0
LINE
8
0
6
CONTINUOUS
10
0.065982
20
0.002961
30
0.0
11
0.065982
21
0.007016
31
0.0
0
LINE
8
0
6
CONTINUOUS
10
0.065863
20
0.013495
30
0.0
11
0.065863
21
0.008383
31
0.0
0
LINE
8
0
6
CONTINUOUS
10
0.065982
20
0.007016
30
0.0
11
0.065982
21
0.012405
31
0.0
0
LINE
8
0
6
CONTINUOUS
10
0.065863
20
0.019617
30
0.0
11
0.065863
21
0.013495
31
0.0
0
LINE
8
0
6
CONTINUOUS
10
0.065982
20
0.012405
30
0.0
11
0.065982
21
0.018858
31
0.0
0
LINE
8
0
6
CONTINUOUS
10
0.065863
20
0.026441
30
0.0
11
0.065863
21
0.019617
31
0.0
0
LINE
8
0
6
CONTINUOUS
10
0.065982
20
0.018858
30
0.0
11
0.065982
21
0.026051
31
0.0
0
LINE
8
0
6
CONTINUOUS
10
0.065863
20
0.033625
30
0.0
11
0.065863
21
0.026441
31
0.0
0
LINE
8
0
6
CONTINUOUS
10
0.065982
20
0.026051
30
0.0
11
0.065982
21
0.033625
31
0.0
0
LINE
8
0
6
CONTINUOUS
10
0.065863
20
0.040809
30
0.0
11
0.065863
21
0.033625
31
0.0
0
LINE
8
0
6
CONTINUOUS
10
0.065982
20
0.033625
30
0.0
11
0.065982
21
0.041198
31
0.0
0
LINE
8
0
6
CONTINUOUS
10
0.065863
20
0.047633
30
0.0
11
0.065863
21
0.040809
31
0.0
0
LINE
8
0
6
CONTINUOUS
10
0.065982
20
0.041198
30
0.0
11
0.065982
21
0.048392
31
0.0
0
LINE
8
0
6
CONTINUOUS
10
0.065863
20
0.053754
30
0.0
11
0.065863
21
0.047633
31
0.0
0
LINE
8
0
6
CONTINUOUS
10
0.065982
20
0.048392
30
0.0
11
0.065982
21
0.054845
31
0.0
0
LINE
8
0
6
CONTINUOUS
10
0.065863
20
0.058866
30
0.0
11
0.065863
21
0.053754
31
0.0
0
LINE
8
0
6
CONTINUOUS
10
0.065982
20
0.054845
30
0.0
11
0.065982
21
0.060234
31
0.0
0
LINE
8
0
6
CONTINUOUS
10
0.065863
20
0.062713
30
0.0
11
0.065863
21
0.058866
31
0.0
0
LINE
8
0
6
CONTINUOUS
10
0.065982
20
0.060234
30
0.0
11
0.065982
21
0.064288
31
0.0
0
LINE
8
0
6
CONTINUOUS
10
0.065863
20
0.065100
30
0.0
11
0.065863
21
0.062713
31
0.0
0
LINE
8
0
6
CONTINUOUS
10
0.065982
20
0.064288
30
0.0
11
0.065982
21
0.066806
31
0.0
0
LINE
8
0
6
CONTINUOUS
10
0.065863
20
0.065910
30
0.0
11
0.065863
21
0.065100
31
0.0
0
LINE
8
0
6
CONTINUOUS
10
0.065982
20
0.067659
30
0.0
11
0.065863
21
0.065910
31
0.0
0
LINE
8
0
6
CONTINUOUS
10
0.065982
20
0.066806
30
0.0
11
0.065982
21
0.067659
31
0.0
0
LINE
8
0
6
CONTINUOUS
10
0.067951
20
-0.000410
30
0.0
11
0.088704
21
-0.000410
31
0.0
0
LINE
8
0
6
CONTINUOUS
10
0.088704
20
0.067659
30
0.0
11
0.067951
21
0.067659
31
0.0
0
LINE
8
0
6
CONTINUOUS
10
0.088704
20
-0.000410
30
0.0
11
0.089501
21
-0.000410
31
0.0
0
LINE
8
0
6
CONTINUOUS
10
0.089501
20
-0.000410
30
0.0
11
0.089501
21
0.000444
31
0.0
0
LINE
8
0
6
CONTINUOUS
10
0.089501
20
0.000444
30
0.0
11
0.089501
21
0.002961
31
0.0
0
LINE
8
0
6
CONTINUOUS
10
0.089501
20
0.002961
30
0.0
11
0.089501
21
0.007016
31
0.0
0
LINE
8
0
6
CONTINUOUS
10
0.089501
20
0.007016
30
0.0
11
0.089501
21
0.012405
31
0.0
0
LINE
8
0
6
CONTINUOUS
10
0.089501
20
0.012405
30
0.0
11
0.089501
21
0.018858
31
0.0
0
LINE
8
0
6
CONTINUOUS
10
0.089501
20
0.018858
30
0.0
11
0.089501
21
0.026051
31
0.0
0
LINE
8
0
6
CONTINUOUS
10
0.089501
20
0.026051
30
0.0
11
0.089501
21
0.033625
31
0.0
0
LINE
8
0
6
CONTINUOUS
10
0.089501
20
0.033625
30
0.0
11
0.089501
21
0.041198
31
0.0
0
LINE
8
0
6
CONTINUOUS
10
0.089501
20
0.041198
30
0.0
11
0.089501
21
0.048392
31
0.0
0
LINE
8
0
6
CONTINUOUS
10
0.089501
20
0.048392
30
0.0
11
0.089501
21
0.054845
31
0.0
0
LINE
8
0
6
CONTINUOUS
10
0.089501
20
0.054845
30
0.0
11
0.089501
21
0.060234
31
0.0
0
LINE
8
0
6
CONTINUOUS
10
0.089501
20
0.060234
30
0.0
11
0.089501
21
0.064288
31
0.0
0
LINE
8
0
6
CONTINUOUS
10
0.089501
20
0.067659
30
0.0
11
0.088704
21
0.067659
31
0.0
0
LINE
8
0
6
CONTINUOUS
10
0.089501
20
0.066806
30
0.0
11
0.089501
21
0.067659
31
0.0
0
LINE
8
0
6
CONTINUOUS
10
0.089501
20
0.064288
30
0.0
11
0.089501
21
0.066806
31
0.0
0
LINE
8
0
6
CONTINUOUS
10
0.041396
20
0.020401
30
0.0
11
0.042447
21
0.020401
31
0.0
0
LINE
8
0
6
CONTINUOUS
10
0.058413
20
0.020401
30
0.0
11
0.065863
21
0.020401
31
0.0
0
LINE
8
0
6
CONTINUOUS
10
0.055852
20
0.048347
30
0.0
11
0.045008
21
0.048347
31
0.0
0
LINE
8
0
6
CONTINUOUS
10
0.058413
20
0.048347
30
0.0
11
0.055852
21
0.048347
31
0.0
0
LINE
8
0
6
CONTINUOUS
10
0.045008
20
0.048347
30
0.0
11
0.042447
21
0.048347
31
0.0
0
LINE
8
0
6
CONTINUOUS
10
0.065863
20
0.046848
30
0.0
11
0.058413
21
0.046848
31
0.0
0
LINE
8
0
6
CONTINUOUS
10
0.042447
20
0.046848
30
0.0
11
0.041396
21
0.046848
31
0.0
0
LINE
8
0
6
CONTINUOUS
10
0.067951
20
0.067659
30
0.0
11
0.065982
21
0.067659
31
0.0
0
LINE
8
0
6
CONTINUOUS
10
0.088704
20
0.067659
30
0.0
11
0.067951
21
0.067659
31
0.0
0
LINE
8
0
6
CONTINUOUS
10
0.089501
20
0.067659
30
0.0
11
0.088704
21
0.067659
31
0.0
0
LINE
8
0
6
CONTINUOUS
10
-0.029007
20
0.096645
30
0.0
11
-0.031723
21
0.096323
31
0.0
0
LINE
8
0
6
CONTINUOUS
10
-0.031723
20
0.096323
30
0.0
11
-0.070490
21
0.091734
31
0.0
0
LINE
8
0
6
CONTINUOUS
10
0.027711
20
0.079442
30
0.0
11
0.023654
21
0.090060
31
0.0
0
LINE
8
0
6
CONTINUOUS
10
-0.033161
20
0.086061
30
0.0
11
-0.030584
21
0.086233
31
0.0
0
LINE
8
0
6
CONTINUOUS
10
-0.027929
20
0.085878
30
0.0
11
-0.025588
21
0.084971
31
0.0
0
LINE
8
0
6
CONTINUOUS
10
-0.025178
20
0.085141
30
0.0
11
-0.027975
21
0.087463
31
0.0
0
LINE
8
0
6
CONTINUOUS
10
0.020140
20
0.099272
30
0.0
11
0.018945
21
0.102412
31
0.0
0
LINE
8
0
6
CONTINUOUS
10
-0.021050
20
0.097873
30
0.0
11
-0.026198
21
0.097100
31
0.0
0
LINE
8
0
6
CONTINUOUS
10
0.021344
20
0.096112
30
0.0
11
0.020140
21
0.099272
31
0.0
0
LINE
8
0
6
CONTINUOUS
10
0.023654
20
0.090060
30
0.0
11
0.022557
21
0.092931
31
0.0
0
LINE
8
0
6
CONTINUOUS
10
-0.018382
20
0.073997
30
0.0
11
-0.014324
21
0.063378
31
0.0
0
LINE
8
0
6
CONTINUOUS
10
0.022557
20
0.092931
30
0.0
11
0.021344
21
0.096112
31
0.0
0
LINE
8
0
6
CONTINUOUS
10
0.017759
20
0.105532
30
0.0
11
0.016940
21
0.107686
31
0.0
0
LINE
8
0
6
CONTINUOUS
10
-0.030584
20
0.086233
30
0.0
11
-0.027929
21
0.085878
31
0.0
0
LINE
8
0
6
CONTINUOUS
10
-0.029366
20
0.093152
30
0.0
11
-0.031421
21
0.093096
31
0.0
0
LINE
8
0
6
CONTINUOUS
10
-0.030914
20
0.091186
30
0.0
11
-0.028712
21
0.091114
31
0.0
0
LINE
8
0
6
CONTINUOUS
10
-0.026198
20
0.097100
30
0.0
11
-0.029007
21
0.096645
31
0.0
0
LINE
8
0
6
CONTINUOUS
10
-0.030914
20
0.091186
30
0.0
11
-0.033482
21
0.090875
31
0.0
0
LINE
8
0
6
CONTINUOUS
10
-0.069944
20
0.083608
30
0.0
11
-0.033161
21
0.086061
31
0.0
0
LINE
8
0
6
CONTINUOUS
10
-0.033205
20
0.087497
30
0.0
11
-0.069997
21
0.084391
31
0.0
0
LINE
8
0
6
CONTINUOUS
10
-0.033962
20
0.092742
30
0.0
11
-0.070302
21
0.088944
31
0.0
0
LINE
8
0
6
CONTINUOUS
10
-0.021910
20
0.081770
30
0.0
11
-0.020915
21
0.080528
31
0.0
0
LINE
8
0
6
CONTINUOUS
10
-0.021229
20
0.082016
30
0.0
11
-0.020103
21
0.080952
31
0.0
0
LINE
8
0
6
CONTINUOUS
10
-0.020915
20
0.080528
30
0.0
11
-0.018382
21
0.073997
31
0.0
0
LINE
8
0
6
CONTINUOUS
10
-0.012768
20
0.063425
30
0.0
11
-0.012210
21
0.061964
31
0.0
0
LINE
8
0
6
CONTINUOUS
10
0.027079
20
0.076978
30
0.0
11
0.026521
21
0.078439
31
0.0
0
LINE
8
0
6
CONTINUOUS
10
-0.006647
20
0.100991
30
0.0
11
-0.017490
21
0.097641
31
0.0
0
LINE
8
0
6
CONTINUOUS
10
-0.028044
20
0.093105
30
0.0
11
-0.029366
21
0.093152
31
0.0
0
LINE
8
0
6
CONTINUOUS
10
-0.028712
20
0.091114
30
0.0
11
-0.027355
21
0.090933
31
0.0
0
LINE
8
0
6
CONTINUOUS
10
-0.021229
20
0.082016
30
0.0
11
-0.023048
21
0.083500
31
0.0
0
LINE
8
0
6
CONTINUOUS
10
-0.023582
20
0.083332
30
0.0
11
-0.021910
21
0.081770
31
0.0
0
LINE
8
0
6
CONTINUOUS
10
-0.015866
20
0.098653
30
0.0
11
-0.021050
21
0.097873
31
0.0
0
LINE
8
0
6
CONTINUOUS
10
-0.025588
20
0.084971
30
0.0
11
-0.023582
21
0.083332
31
0.0
0
LINE
8
0
6
CONTINUOUS
10
-0.025362
20
0.090588
30
0.0
11
-0.027355
21
0.090933
31
0.0
0
LINE
8
0
6
CONTINUOUS
10
-0.025178
20
0.085141
30
0.0
11
-0.023048
21
0.083500
31
0.0
0
LINE
8
0
6
CONTINUOUS
10
-0.025882
20
0.087144
30
0.0
11
-0.025178
21
0.085141
31
0.0
0
LINE
8
0
6
CONTINUOUS
10
-0.034314
20
0.094403
30
0.0
11
-0.031788
21
0.094707
31
0.0
0
LINE
8
0
6
CONTINUOUS
10
0.000742
20
0.103327
30
0.0
11
-0.004751
21
0.101590
31
0.0
0
LINE
8
0
6
CONTINUOUS
10
-0.004751
20
0.101590
30
0.0
11
-0.010250
21
0.099851
31
0.0
0
LINE
8
0
6
CONTINUOUS
10
0.013845
20
0.107472
30
0.0
11
0.010423
21
0.106390
31
0.0
0
LINE
8
0
6
CONTINUOUS
10
0.015897
20
0.108121
30
0.0
11
0.013845
21
0.107472
31
0.0
0
LINE
8
0
6
CONTINUOUS
10
0.016666
20
0.108364
30
0.0
11
0.015897
21
0.108121
31
0.0
0
LINE
8
0
6
CONTINUOUS
10
0.016940
20
0.107686
30
0.0
11
0.016666
21
0.108364
31
0.0
0
LINE
8
0
6
CONTINUOUS
10
0.010423
20
0.106390
30
0.0
11
0.005885
21
0.104954
31
0.0
0
LINE
8
0
6
CONTINUOUS
10
-0.019976
20
0.096775
30
0.0
11
-0.015412
21
0.098218
31
0.0
0
LINE
8
0
6
CONTINUOUS
10
-0.010250
20
0.099851
30
0.0
11
-0.015412
21
0.098218
31
0.0
0
LINE
8
0
6
CONTINUOUS
10
-0.023424
20
0.095684
30
0.0
11
-0.019976
21
0.096775
31
0.0
0
LINE
8
0
6
CONTINUOUS
10
0.005885
20
0.104954
30
0.0
11
0.000742
21
0.103327
31
0.0
0
LINE
8
0
6
CONTINUOUS
10
-0.031788
20
0.094707
30
0.0
11
-0.029929
21
0.094862
31
0.0
0
LINE
8
0
6
CONTINUOUS
10
-0.024853
20
0.095232
30
0.0
11
-0.025614
21
0.095248
31
0.0
0
LINE
8
0
6
CONTINUOUS
10
-0.023424
20
0.095684
30
0.0
11
-0.024853
21
0.095232
31
0.0
0
LINE
8
0
6
CONTINUOUS
10
-0.025614
20
0.095248
30
0.0
11
-0.027171
21
0.095097
31
0.0
0
LINE
8
0
6
CONTINUOUS
10
-0.027171
20
0.095097
30
0.0
11
-0.028752
21
0.094943
31
0.0
0
LINE
8
0
6
CONTINUOUS
10
-0.024590
20
0.092842
30
0.0
11
-0.025337
21
0.094618
31
0.0
0
LINE
8
0
6
CONTINUOUS
10
-0.029929
20
0.094862
30
0.0
11
-0.028752
21
0.094943
31
0.0
0
LINE
8
0
6
CONTINUOUS
10
-0.009824
20
0.099837
30
0.0
11
-0.015866
21
0.098653
31
0.0
0
LINE
8
0
6
CONTINUOUS
10
-0.070490
20
0.091734
30
0.0
11
-0.070986
21
0.091676
31
0.0
0
LINE
8
0
6
CONTINUOUS
10
-0.070986
20
0.091676
30
0.0
11
-0.070952
21
0.091171
31
0.0
0
LINE
8
0
6
CONTINUOUS
10
-0.070973
20
0.091478
30
0.0
11
-0.070986
21
0.091676
31
0.0
0
LINE
8
0
6
CONTINUOUS
10
-0.070630
20
0.086376
30
0.0
11
-0.070714
21
0.087627
31
0.0
0
LINE
8
0
6
CONTINUOUS
10
-0.070630
20
0.086376
30
0.0
11
-0.070554
21
0.085247
31
0.0
0
LINE
8
0
6
CONTINUOUS
10
-0.070493
20
0.084351
30
0.0
11
-0.070554
21
0.085247
31
0.0
0
LINE
8
0
6
CONTINUOUS
10
-0.070455
20
0.083776
30
0.0
11
-0.070493
21
0.084351
31
0.0
0
LINE
8
0
6
CONTINUOUS
10
-0.070441
20
0.083577
30
0.0
11
-0.069944
21
0.083608
31
0.0
0
LINE
8
0
6
CONTINUOUS
10
-0.070441
20
0.083577
30
0.0
11
-0.070455
21
0.083776
31
0.0
0
LINE
8
0
6
CONTINUOUS
10
-0.070798
20
0.088878
30
0.0
11
-0.070874
21
0.090007
31
0.0
0
LINE
8
0
6
CONTINUOUS
10
-0.070874
20
0.090007
30
0.0
11
-0.070934
21
0.090903
31
0.0
0
LINE
8
0
6
CONTINUOUS
10
-0.070934
20
0.090903
30
0.0
11
-0.070973
21
0.091478
31
0.0
0
LINE
8
0
6
CONTINUOUS
10
-0.070714
20
0.087627
30
0.0
11
-0.070798
21
0.088878
31
0.0
0
LINE
8
0
6
CONTINUOUS
10
0.017270
20
0.074904
30
0.0
11
0.021737
21
0.076611
31
0.0
0
LINE
8
0
6
CONTINUOUS
10
-0.008004
20
0.065246
30
0.0
11
-0.003549
21
0.066949
31
0.0
0
LINE
8
0
6
CONTINUOUS
10
0.021737
20
0.076611
30
0.0
11
0.025057
21
0.077880
31
0.0
0
LINE
8
0
6
CONTINUOUS
10
-0.003549
20
0.066949
30
0.0
11
0.001496
21
0.068876
31
0.0
0
LINE
8
0
6
CONTINUOUS
10
0.027894
20
0.078964
30
0.0
11
0.027711
21
0.079442
31
0.0
0
LINE
8
0
6
CONTINUOUS
10
0.027894
20
0.078964
30
0.0
11
0.027119
21
0.078668
31
0.0
0
LINE
8
0
6
CONTINUOUS
10
0.001496
20
0.068876
30
0.0
11
0.006876
21
0.070932
31
0.0
0
LINE
8
0
6
CONTINUOUS
10
0.006876
20
0.070932
30
0.0
11
0.012230
21
0.072978
31
0.0
0
LINE
8
0
6
CONTINUOUS
10
0.027119
20
0.078668
30
0.0
11
0.025057
21
0.077880
31
0.0
0
LINE
8
0
6
CONTINUOUS
10
-0.011367
20
0.063961
30
0.0
11
-0.008004
21
0.065246
31
0.0
0
LINE
8
0
6
CONTINUOUS
10
-0.013385
20
0.063190
30
0.0
11
-0.011367
21
0.063961
31
0.0
0
LINE
8
0
6
CONTINUOUS
10
-0.014142
20
0.062901
30
0.0
11
-0.013385
21
0.063190
31
0.0
0
LINE
8
0
6
CONTINUOUS
10
-0.014324
20
0.063378
30
0.0
11
-0.014142
21
0.062901
31
0.0
0
LINE
8
0
6
CONTINUOUS
10
0.012230
20
0.072978
30
0.0
11
0.017270
21
0.074904
31
0.0
0
LINE
8
0
6
CONTINUOUS
10
-0.049504
20
-0.020349
30
0.0
11
-0.049289
21
-0.020902
31
0.0
0
LINE
8
0
6
CONTINUOUS
10
-0.034898
20
-0.014657
30
0.0
11
-0.034683
21
-0.015211
31
0.0
0
LINE
8
0
6
CONTINUOUS
10
-0.028162
20
-0.012670
30
0.0
11
-0.028377
21
-0.012116
31
0.0
0
LINE
8
0
6
CONTINUOUS
10
-0.049706
20
-0.019830
30
0.0
11
-0.049504
21
-0.020349
31
0.0
0
LINE
8
0
6
CONTINUOUS
10
-0.036233
20
-0.011232
30
0.0
11
-0.034898
21
-0.014657
31
0.0
0
LINE
8
0
6
CONTINUOUS
10
-0.028377
20
-0.012116
30
0.0
11
-0.028525
21
-0.011736
31
0.0
0
LINE
8
0
6
CONTINUOUS
10
-0.000569
20
-0.096898
30
0.0
11
0.000512
21
-0.097611
31
0.0
0
LINE
8
0
6
CONTINUOUS
10
0.000512
20
-0.097611
30
0.0
11
0.001179
21
-0.098614
31
0.0
0
LINE
8
0
6
CONTINUOUS
10
0.001179
20
-0.098614
30
0.0
11
-0.020868
21
-0.042025
31
0.0
0
LINE
8
0
6
CONTINUOUS
10
-0.003752
20
-0.096267
30
0.0
11
-0.002021
21
-0.096443
31
0.0
0
LINE
8
0
6
CONTINUOUS
10
-0.009226
20
-0.097833
30
0.0
11
-0.007493
21
-0.096954
31
0.0
0
LINE
8
0
6
CONTINUOUS
10
-0.007493
20
-0.096954
30
0.0
11
-0.005624
21
-0.096425
31
0.0
0
LINE
8
0
6
CONTINUOUS
10
-0.012930
20
-0.102866
30
0.0
11
-0.012621
21
-0.101609
31
0.0
0
LINE
8
0
6
CONTINUOUS
10
-0.010710
20
-0.098988
30
0.0
11
-0.009226
21
-0.097833
31
0.0
0
LINE
8
0
6
CONTINUOUS
10
-0.002021
20
-0.096443
30
0.0
11
-0.000569
21
-0.096898
31
0.0
0
LINE
8
0
6
CONTINUOUS
10
-0.012621
20
-0.101609
30
0.0
11
-0.011862
21
-0.100291
31
0.0
0
LINE
8
0
6
CONTINUOUS
10
-0.012736
20
-0.104056
30
0.0
11
-0.012930
21
-0.102866
31
0.0
0
LINE
8
0
6
CONTINUOUS
10
-0.034797
20
-0.047452
30
0.0
11
-0.012736
21
-0.104056
31
0.0
0
LINE
8
0
6
CONTINUOUS
10
-0.011862
20
-0.100291
30
0.0
11
-0.010710
21
-0.098988
31
0.0
0
LINE
8
0
6
CONTINUOUS
10
-0.005624
20
-0.096425
30
0.0
11
-0.003752
21
-0.096267
31
0.0
0
LINE
8
0
6
CONTINUOUS
10
-0.029407
20
-0.013155
30
0.0
11
-0.031178
21
-0.013845
31
0.0
0
LINE
8
0
6
CONTINUOUS
10
-0.031178
20
-0.013845
30
0.0
11
-0.033414
21
-0.014716
31
0.0
0
LINE
8
0
6
CONTINUOUS
10
-0.037616
20
-0.048551
30
0.0
11
-0.037243
21
-0.048406
31
0.0
0
LINE
8
0
6
CONTINUOUS
10
-0.037828
20
-0.048057
30
0.0
11
-0.037616
21
-0.048551
31
0.0
0
LINE
8
0
6
CONTINUOUS
10
-0.028010
20
-0.012611
30
0.0
11
-0.028382
21
-0.012756
31
0.0
0
LINE
8
0
6
CONTINUOUS
10
-0.027917
20
-0.012875
30
0.0
11
-0.028010
21
-0.012611
31
0.0
0
LINE
8
0
6
CONTINUOUS
10
-0.033414
20
-0.014716
30
0.0
11
-0.035930
21
-0.015697
31
0.0
0
LINE
8
0
6
CONTINUOUS
10
-0.032678
20
-0.046627
30
0.0
11
-0.030348
21
-0.045719
31
0.0
0
LINE
8
0
6
CONTINUOUS
10
-0.034728
20
-0.047426
30
0.0
11
-0.032678
21
-0.046627
31
0.0
0
LINE
8
0
6
CONTINUOUS
10
-0.036312
20
-0.048043
30
0.0
11
-0.034728
21
-0.047426
31
0.0
0
LINE
8
0
6
CONTINUOUS
10
-0.028382
20
-0.012756
30
0.0
11
-0.029407
21
-0.013155
31
0.0
0
LINE
8
0
6
CONTINUOUS
10
-0.030348
20
-0.045719
30
0.0
11
-0.027833
21
-0.044739
31
0.0
0
LINE
8
0
6
CONTINUOUS
10
-0.036312
20
-0.048043
30
0.0
11
-0.037243
21
-0.048406
31
0.0
0
LINE
8
0
6
CONTINUOUS
10
-0.020938
20
-0.042052
30
0.0
11
-0.019354
21
-0.041435
31
0.0
0
LINE
8
0
6
CONTINUOUS
10
-0.022987
20
-0.042851
30
0.0
11
-0.020938
21
-0.042052
31
0.0
0
LINE
8
0
6
CONTINUOUS
10
-0.049330
20
-0.021219
30
0.0
11
-0.037828
21
-0.048057
31
0.0
0
LINE
8
0
6
CONTINUOUS
10
-0.018049
20
-0.040926
30
0.0
11
-0.018227
21
-0.040419
31
0.0
0
LINE
8
0
6
CONTINUOUS
10
-0.018422
20
-0.041072
30
0.0
11
-0.018049
21
-0.040926
31
0.0
0
LINE
8
0
6
CONTINUOUS
10
-0.025317
20
-0.043758
30
0.0
11
-0.022987
21
-0.042851
31
0.0
0
LINE
8
0
6
CONTINUOUS
10
-0.027833
20
-0.044739
30
0.0
11
-0.025317
21
-0.043758
31
0.0
0
LINE
8
0
6
CONTINUOUS
10
-0.019354
20
-0.041435
30
0.0
11
-0.018422
21
-0.041072
31
0.0
0
LINE
8
0
6
CONTINUOUS
10
-0.018227
20
-0.040419
30
0.0
11
-0.027917
21
-0.012875
31
0.0
0
LINE
8
0
6
CONTINUOUS
10
-0.049068
20
-0.020816
30
0.0
11
-0.049440
21
-0.020961
31
0.0
0
LINE
8
0
6
CONTINUOUS
10
-0.049440
20
-0.020961
30
0.0
11
-0.049330
21
-0.021219
31
0.0
0
LINE
8
0
6
CONTINUOUS
10
-0.048043
20
-0.020417
30
0.0
11
-0.049068
21
-0.020816
31
0.0
0
LINE
8
0
6
CONTINUOUS
10
-0.041520
20
-0.017875
30
0.0
11
-0.044036
21
-0.018856
31
0.0
0
LINE
8
0
6
CONTINUOUS
10
-0.044036
20
-0.018856
30
0.0
11
-0.046272
21
-0.019727
31
0.0
0
LINE
8
0
6
CONTINUOUS
10
-0.046272
20
-0.019727
30
0.0
11
-0.048043
21
-0.020417
31
0.0
0
LINE
8
0
6
CONTINUOUS
10
-0.038725
20
-0.016786
30
0.0
11
-0.041520
21
-0.017875
31
0.0
0
LINE
8
0
6
CONTINUOUS
10
-0.038725
20
-0.016786
30
0.0
11
-0.035930
21
-0.015697
31
0.0
0
LINE
8
0
6
CONTINUOUS
10
-0.046741
20
0.021826
30
0.0
11
-0.047869
21
0.024721
31
0.0
0
LINE
8
0
6
CONTINUOUS
10
-0.047429
20
0.021120
30
0.0
11
-0.048706
21
0.024396
31
0.0
0
LINE
8
0
6
CONTINUOUS
10
-0.059357
20
0.020245
30
0.0
11
-0.058292
21
0.017512
31
0.0
0
LINE
8
0
6
CONTINUOUS
10
-0.057875
20
0.017331
30
0.0
11
-0.059056
21
0.020362
31
0.0
0
LINE
8
0
6
CONTINUOUS
10
-0.052936
20
0.022747
30
0.0
11
-0.051477
21
0.019002
31
0.0
0
LINE
8
0
6
CONTINUOUS
10
-0.049129
20
0.020138
30
0.0
11
-0.050514
21
0.023691
31
0.0
0
LINE
8
0
6
CONTINUOUS
10
-0.057676
20
0.020900
30
0.0
11
-0.056358
21
0.017516
31
0.0
0
LINE
8
0
6
CONTINUOUS
10
-0.054084
20
0.018138
30
0.0
11
-0.055492
21
0.021751
31
0.0
0
LINE
8
0
6
CONTINUOUS
10
-0.064567
20
0.029358
30
0.0
11
-0.060887
21
0.019912
31
0.0
0
LINE
8
0
6
CONTINUOUS
10
-0.050676
20
0.034042
30
0.0
11
-0.047242
21
0.025229
31
0.0
0
LINE
8
0
6
CONTINUOUS
10
-0.046518
20
0.025511
30
0.0
11
-0.049952
21
0.034325
31
0.0
0
LINE
8
0
6
CONTINUOUS
10
-0.055329
20
0.022078
30
0.0
11
-0.058764
21
0.030891
31
0.0
0
LINE
8
0
6
CONTINUOUS
10
-0.063623
20
0.028998
30
0.0
11
-0.060188
21
0.020184
31
0.0
0
LINE
8
0
6
CONTINUOUS
10
-0.058205
20
0.020957
30
0.0
11
-0.061639
21
0.029770
31
0.0
0
LINE
8
0
6
CONTINUOUS
10
-0.055566
20
0.032137
30
0.0
11
-0.052132
21
0.023323
31
0.0
0
LINE
8
0
6
CONTINUOUS
10
-0.049246
20
0.024448
30
0.0
11
-0.052680
21
0.033261
31
0.0
0
LINE
8
0
6
CONTINUOUS
10
-0.057835
20
0.038455
30
0.0
11
-0.061374
21
0.037076
31
0.0
0
LINE
8
0
6
CONTINUOUS
10
-0.052424
20
0.040564
30
0.0
11
-0.054642
21
0.039700
31
0.0
0
LINE
8
0
6
CONTINUOUS
10
-0.067524
20
0.034680
30
0.0
11
-0.067280
21
0.034054
31
0.0
0
LINE
8
0
6
CONTINUOUS
10
-0.066751
20
0.034981
30
0.0
11
-0.067524
21
0.034680
31
0.0
0
LINE
8
0
6
CONTINUOUS
10
-0.052424
20
0.040564
30
0.0
11
-0.052180
21
0.039939
31
0.0
0
LINE
8
0
6
CONTINUOUS
10
-0.051622
20
0.040876
30
0.0
11
-0.052424
21
0.040564
31
0.0
0
LINE
8
0
6
CONTINUOUS
10
-0.051379
20
0.040251
30
0.0
11
-0.051622
21
0.040876
31
0.0
0
LINE
8
0
6
CONTINUOUS
10
-0.061374
20
0.037076
30
0.0
11
-0.064556
21
0.035836
31
0.0
0
LINE
8
0
6
CONTINUOUS
10
-0.061130
20
0.036451
30
0.0
11
-0.061374
21
0.037076
31
0.0
0
LINE
8
0
6
CONTINUOUS
10
-0.066751
20
0.034981
30
0.0
11
-0.066507
21
0.034356
31
0.0
0
LINE
8
0
6
CONTINUOUS
10
-0.064556
20
0.035836
30
0.0
11
-0.066751
21
0.034981
31
0.0
0
LINE
8
0
6
CONTINUOUS
10
-0.064313
20
0.035211
30
0.0
11
-0.064556
21
0.035836
31
0.0
0
LINE
8
0
6
CONTINUOUS
10
-0.057835
20
0.038455
30
0.0
11
-0.057592
21
0.037830
31
0.0
0
LINE
8
0
6
CONTINUOUS
10
-0.054642
20
0.039700
30
0.0
11
-0.057835
21
0.038455
31
0.0
0
LINE
8
0
6
CONTINUOUS
10
-0.054398
20
0.039074
30
0.0
11
-0.054642
21
0.039700
31
0.0
0
LINE
8
0
6
CONTINUOUS
10
-0.067280
20
0.034054
30
0.0
11
-0.065197
21
0.028708
31
0.0
0
LINE
8
0
6
CONTINUOUS
10
-0.052180
20
0.039939
30
0.0
11
-0.050097
21
0.034592
31
0.0
0
LINE
8
0
6
CONTINUOUS
10
-0.049296
20
0.034905
30
0.0
11
-0.051379
21
0.040251
31
0.0
0
LINE
8
0
6
CONTINUOUS
10
-0.059047
20
0.031105
30
0.0
11
-0.061130
21
0.036451
31
0.0
0
LINE
8
0
6
CONTINUOUS
10
-0.066507
20
0.034356
30
0.0
11
-0.064424
21
0.029010
31
0.0
0
LINE
8
0
6
CONTINUOUS
10
-0.062229
20
0.029865
30
0.0
11
-0.064313
21
0.035211
31
0.0
0
LINE
8
0
6
CONTINUOUS
10
-0.057592
20
0.037830
30
0.0
11
-0.055509
21
0.032484
31
0.0
0
LINE
8
0
6
CONTINUOUS
10
-0.052315
20
0.033728
30
0.0
11
-0.054398
21
0.039074
31
0.0
0
LINE
8
0
6
CONTINUOUS
10
-0.055240
20
0.021849
30
0.0
11
-0.052043
21
0.023095
31
0.0
0
LINE
8
0
6
CONTINUOUS
10
-0.049157
20
0.024220
30
0.0
11
-0.047153
21
0.025001
31
0.0
0
LINE
8
0
6
CONTINUOUS
10
-0.060798
20
0.019684
30
0.0
11
-0.060099
21
0.019956
31
0.0
0
LINE
8
0
6
CONTINUOUS
10
-0.060887
20
0.019912
30
0.0
11
-0.060798
21
0.019684
31
0.0
0
LINE
8
0
6
CONTINUOUS
10
-0.047153
20
0.025001
30
0.0
11
-0.046429
21
0.025283
31
0.0
0
LINE
8
0
6
CONTINUOUS
10
-0.047242
20
0.025229
30
0.0
11
-0.047153
21
0.025001
31
0.0
0
LINE
8
0
6
CONTINUOUS
10
-0.046429
20
0.025283
30
0.0
11
-0.046518
21
0.025511
31
0.0
0
LINE
8
0
6
CONTINUOUS
10
-0.058116
20
0.020729
30
0.0
11
-0.055240
21
0.021849
31
0.0
0
LINE
8
0
6
CONTINUOUS
10
-0.055240
20
0.021849
30
0.0
11
-0.055329
21
0.022078
31
0.0
0
LINE
8
0
6
CONTINUOUS
10
-0.060099
20
0.019956
30
0.0
11
-0.058116
21
0.020729
31
0.0
0
LINE
8
0
6
CONTINUOUS
10
-0.060188
20
0.020184
30
0.0
11
-0.060099
21
0.019956
31
0.0
0
LINE
8
0
6
CONTINUOUS
10
-0.058116
20
0.020729
30
0.0
11
-0.058205
21
0.020957
31
0.0
0
LINE
8
0
6
CONTINUOUS
10
-0.052043
20
0.023095
30
0.0
11
-0.049157
21
0.024220
31
0.0
0
LINE
8
0
6
CONTINUOUS
10
-0.052132
20
0.023323
30
0.0
11
-0.052043
21
0.023095
31
0.0
0
LINE
8
0
6
CONTINUOUS
10
-0.049157
20
0.024220
30
0.0
11
-0.049246
21
0.024448
31
0.0
0
LINE
8
0
6
CONTINUOUS
10
-0.052205
20
0.033447
30
0.0
11
-0.049987
21
0.034311
31
0.0
0
LINE
8
0
6
CONTINUOUS
10
-0.058938
20
0.030824
30
0.0
11
-0.055399
21
0.032202
31
0.0
0
LINE
8
0
6
CONTINUOUS
10
-0.065087
20
0.028427
30
0.0
11
-0.064315
21
0.028728
31
0.0
0
LINE
8
0
6
CONTINUOUS
10
-0.065197
20
0.028708
30
0.0
11
-0.065087
21
0.028427
31
0.0
0
LINE
8
0
6
CONTINUOUS
10
-0.049987
20
0.034311
30
0.0
11
-0.049186
21
0.034623
31
0.0
0
LINE
8
0
6
CONTINUOUS
10
-0.050097
20
0.034592
30
0.0
11
-0.049987
21
0.034311
31
0.0
0
LINE
8
0
6
CONTINUOUS
10
-0.049186
20
0.034623
30
0.0
11
-0.049296
21
0.034905
31
0.0
0
LINE
8
0
6
CONTINUOUS
10
-0.062120
20
0.029583
30
0.0
11
-0.058938
21
0.030824
31
0.0
0
LINE
8
0
6
CONTINUOUS
10
-0.058938
20
0.030824
30
0.0
11
-0.059047
21
0.031105
31
0.0
0
LINE
8
0
6
CONTINUOUS
10
-0.064315
20
0.028728
30
0.0
11
-0.062120
21
0.029583
31
0.0
0
LINE
8
0
6
CONTINUOUS
10
-0.064424
20
0.029010
30
0.0
11
-0.064315
21
0.028728
31
0.0
0
LINE
8
0
6
CONTINUOUS
10
-0.062120
20
0.029583
30
0.0
11
-0.062229
21
0.029865
31
0.0
0
LINE
8
0
6
CONTINUOUS
10
-0.055399
20
0.032202
30
0.0
11
-0.052205
21
0.033447
31
0.0
0
LINE
8
0
6
CONTINUOUS
10
-0.055509
20
0.032484
30
0.0
11
-0.055399
21
0.032202
31
0.0
0
LINE
8
0
6
CONTINUOUS
10
-0.052205
20
0.033447
30
0.0
11
-0.052315
21
0.033728
31
0.0
0
LINE
8
0
6
CONTINUOUS
10
0.041396
20
0.017291
30
0.0
11
0.041396
21
0.033625
31
0.0
0
LINE
8
0
6
CONTINUOUS
10
0.007419
20
0.069465
30
0.0
11
0.000925
21
0.066983
31
0.0
0
LINE
8
0
6
CONTINUOUS
10
0.019773
20
0.074186
30
0.0
11
0.013914
21
0.071947
31
0.0
0
LINE
8
0
6
CONTINUOUS
10
-0.013598
20
0.061434
30
0.0
11
-0.013241
21
0.060500
31
0.0
0
LINE
8
0
6
CONTINUOUS
10
-0.012570
20
0.061827
30
0.0
11
-0.013598
21
0.061434
31
0.0
0
LINE
8
0
6
CONTINUOUS
10
-0.004934
20
0.064744
30
0.0
11
-0.009584
21
0.062968
31
0.0
0
LINE
8
0
6
CONTINUOUS
10
0.000925
20
0.066983
30
0.0
11
-0.004934
21
0.064744
31
0.0
0
LINE
8
0
6
CONTINUOUS
10
0.027409
20
0.077104
30
0.0
11
0.024423
21
0.075963
31
0.0
0
LINE
8
0
6
CONTINUOUS
10
0.013914
20
0.071947
30
0.0
11
0.007419
21
0.069465
31
0.0
0
LINE
8
0
6
CONTINUOUS
10
-0.009584
20
0.062968
30
0.0
11
-0.012570
21
0.061827
31
0.0
0
LINE
8
0
6
CONTINUOUS
10
0.028437
20
0.077497
30
0.0
11
0.027409
21
0.077104
31
0.0
0
LINE
8
0
6
CONTINUOUS
10
0.028794
20
0.076563
30
0.0
11
0.028437
21
0.077497
31
0.0
0
LINE
8
0
6
CONTINUOUS
10
0.024423
20
0.075963
30
0.0
11
0.019773
21
0.074186
31
0.0
0
LINE
8
0
6
CONTINUOUS
10
-0.009115
20
0.036304
30
0.0
11
-0.046775
21
0.021913
31
0.0
0
LINE
8
0
6
CONTINUOUS
10
-0.058211
20
0.017542
30
0.0
11
-0.087002
21
0.006541
31
0.0
0
LINE
8
0
6
CONTINUOUS
10
-0.028546
20
-0.011744
30
0.0
11
0.004430
21
0.000858
31
0.0
0
LINE
8
0
6
CONTINUOUS
10
-0.052708
20
-0.020304
30
0.0
11
-0.050061
21
-0.019965
31
0.0
0
LINE
8
0
6
CONTINUOUS
10
-0.052708
20
-0.020304
30
0.0
11
-0.053595
21
-0.019696
31
0.0
0
LINE
8
0
6
CONTINUOUS
10
-0.055064
20
-0.019581
30
0.0
11
-0.052708
21
-0.020304
31
0.0
0
LINE
8
0
6
CONTINUOUS
10
-0.055845
20
-0.019046
30
0.0
11
-0.055064
21
-0.019581
31
0.0
0
LINE
8
0
6
CONTINUOUS
10
-0.088115
20
0.006115
30
0.0
11
-0.089501
21
0.004913
31
0.0
0
LINE
8
0
6
CONTINUOUS
10
-0.089501
20
0.004913
30
0.0
11
-0.088815
21
0.003551
31
0.0
0
LINE
8
0
6
CONTINUOUS
10
-0.088614
20
0.004305
30
0.0
11
-0.089501
21
0.004913
31
0.0
0
LINE
8
0
6
CONTINUOUS
10
-0.088815
20
0.003551
30
0.0
11
-0.088035
21
0.003016
31
0.0
0
LINE
8
0
6
CONTINUOUS
10
-0.071104
20
-0.007696
30
0.0
11
-0.065387
21
-0.011614
31
0.0
0
LINE
8
0
6
CONTINUOUS
10
-0.060244
20
-0.015139
30
0.0
11
-0.065387
21
-0.011614
31
0.0
0
LINE
8
0
6
CONTINUOUS
10
-0.066615
20
-0.011664
30
0.0
11
-0.061858
21
-0.014924
31
0.0
0
LINE
8
0
6
CONTINUOUS
10
-0.053595
20
-0.019696
30
0.0
11
-0.056184
21
-0.017922
31
0.0
0
LINE
8
0
6
CONTINUOUS
10
-0.058158
20
-0.017460
30
0.0
11
-0.055845
21
-0.019046
31
0.0
0
LINE
8
0
6
CONTINUOUS
10
-0.056184
20
-0.017922
30
0.0
11
-0.060244
21
-0.015139
31
0.0
0
LINE
8
0
6
CONTINUOUS
10
-0.061858
20
-0.014924
30
0.0
11
-0.058158
21
-0.017460
31
0.0
0
LINE
8
0
6
CONTINUOUS
10
-0.086025
20
0.002531
30
0.0
11
-0.088614
21
0.004305
31
0.0
0
LINE
8
0
6
CONTINUOUS
10
-0.088035
20
0.003016
30
0.0
11
-0.085721
21
0.001430
31
0.0
0
LINE
8
0
6
CONTINUOUS
10
-0.081965
20
-0.000252
30
0.0
11
-0.086025
21
0.002531
31
0.0
0
LINE
8
0
6
CONTINUOUS
10
-0.085721
20
0.001430
30
0.0
11
-0.082021
21
-0.001106
31
0.0
0
LINE
8
0
6
CONTINUOUS
10
-0.076822
20
-0.003777
30
0.0
11
-0.081965
21
-0.000252
31
0.0
0
LINE
8
0
6
CONTINUOUS
10
-0.082021
20
-0.001106
30
0.0
11
-0.077265
21
-0.004365
31
0.0
0
LINE
8
0
6
CONTINUOUS
10
-0.071104
20
-0.007696
30
0.0
11
-0.076822
21
-0.003777
31
0.0
0
LINE
8
0
6
CONTINUOUS
10
-0.077265
20
-0.004365
30
0.0
11
-0.071940
21
-0.008015
31
0.0
0
LINE
8
0
6
CONTINUOUS
10
-0.050061
20
-0.019965
30
0.0
11
-0.049706
21
-0.019830
31
0.0
0
LINE
8
0
6
CONTINUOUS
10
-0.087002
20
0.006541
30
0.0
11
-0.088115
21
0.006115
31
0.0
0
LINE
8
0
6
CONTINUOUS
10
-0.084481
20
0.003625
30
0.0
11
-0.080271
21
0.000740
31
0.0
0
LINE
8
0
6
CONTINUOUS
10
-0.080271
20
0.000740
30
0.0
11
-0.074967
21
-0.002895
31
0.0
0
LINE
8
0
6
CONTINUOUS
10
-0.074967
20
-0.002895
30
0.0
11
-0.069088
21
-0.006925
31
0.0
0
LINE
8
0
6
CONTINUOUS
10
0.041396
20
0.033625
30
0.0
11
0.041396
21
0.049959
31
0.0
0
LINE
8
0
6
CONTINUOUS
10
0.040505
20
0.051412
30
0.0
11
0.038085
21
0.052646
31
0.0
0
LINE
8
0
6
CONTINUOUS
10
0.038085
20
0.014604
30
0.0
11
0.040505
21
0.015837
31
0.0
0
LINE
8
0
6
CONTINUOUS
10
0.031905
20
0.013625
30
0.0
11
0.038085
21
0.014604
31
0.0
0
LINE
8
0
6
CONTINUOUS
10
0.025724
20
0.014604
30
0.0
11
0.031905
21
0.013625
31
0.0
0
LINE
8
0
6
CONTINUOUS
10
0.020149
20
0.017444
30
0.0
11
0.025724
21
0.014604
31
0.0
0
LINE
8
0
6
CONTINUOUS
10
0.015724
20
0.021869
30
0.0
11
0.020149
21
0.017444
31
0.0
0
LINE
8
0
6
CONTINUOUS
10
0.012883
20
0.027444
30
0.0
11
0.015724
21
0.021869
31
0.0
0
LINE
8
0
6
CONTINUOUS
10
0.011905
20
0.033625
30
0.0
11
0.012883
21
0.027444
31
0.0
0
LINE
8
0
6
CONTINUOUS
10
0.012883
20
0.039805
30
0.0
11
0.011905
21
0.033625
31
0.0
0
LINE
8
0
6
CONTINUOUS
10
0.015724
20
0.045380
30
0.0
11
0.012883
21
0.039805
31
0.0
0
LINE
8
0
6
CONTINUOUS
10
0.020149
20
0.049805
30
0.0
11
0.015724
21
0.045380
31
0.0
0
LINE
8
0
6
CONTINUOUS
10
0.025724
20
0.052646
30
0.0
11
0.020149
21
0.049805
31
0.0
0
LINE
8
0
6
CONTINUOUS
10
0.031905
20
0.053625
30
0.0
11
0.025724
21
0.052646
31
0.0
0
LINE
8
0
6
CONTINUOUS
10
0.038085
20
0.052646
30
0.0
11
0.031905
21
0.053625
31
0.0
0
LINE
8
0
6
CONTINUOUS
10
0.041396
20
0.050967
30
0.0
11
0.040505
21
0.051412
31
0.0
0
LINE
8
0
6
CONTINUOUS
10
0.041396
20
0.049959
30
0.0
11
0.041396
21
0.050967
31
0.0
0
LINE
8
0
6
CONTINUOUS
10
0.041396
20
0.016282
30
0.0
11
0.041396
21
0.017291
31
0.0
0
LINE
8
0
6
CONTINUOUS
10
0.040505
20
0.015837
30
0.0
11
0.041396
21
0.016282
31
0.0
0
LINE
8
0
6
CONTINUOUS
10
0.017295
20
0.005774
30
0.0
11
0.027509
21
0.010380
31
0.0
0
LINE
8
0
6
CONTINUOUS
10
-0.007298
20
0.039025
30
0.0
11
-0.008206
21
0.037665
31
0.0
0
LINE
8
0
6
CONTINUOUS
10
-0.005796
20
0.038506
30
0.0
11
-0.007290
21
0.036971
31
0.0
0
LINE
8
0
6
CONTINUOUS
10
-0.001438
20
0.036998
30
0.0
11
-0.004630
21
0.034959
31
0.0
0
LINE
8
0
6
CONTINUOUS
10
0.038085
20
0.052646
30
0.0
11
0.036164
21
0.057462
31
0.0
0
LINE
8
0
6
CONTINUOUS
10
0.032997
20
0.012870
30
0.0
11
0.038085
21
0.014604
31
0.0
0
LINE
8
0
6
CONTINUOUS
10
0.020005
20
0.054697
30
0.0
11
0.020149
21
0.049805
31
0.0
0
LINE
8
0
6
CONTINUOUS
10
0.025724
20
0.052646
30
0.0
11
0.025811
21
0.057705
31
0.0
0
LINE
8
0
6
CONTINUOUS
10
0.016500
20
0.015615
30
0.0
11
0.024496
21
0.013265
31
0.0
0
LINE
8
0
6
CONTINUOUS
10
0.016500
20
0.015615
30
0.0
11
0.020149
21
0.017444
31
0.0
0
LINE
8
0
6
CONTINUOUS
10
0.012185
20
0.019927
30
0.0
11
0.016500
21
0.015615
31
0.0
0
LINE
8
0
6
CONTINUOUS
10
0.015724
20
0.021869
30
0.0
11
0.012185
21
0.019927
31
0.0
0
LINE
8
0
6
CONTINUOUS
10
0.008418
20
0.031583
30
0.0
11
0.009388
21
0.025409
31
0.0
0
LINE
8
0
6
CONTINUOUS
10
0.008418
20
0.031583
30
0.0
11
0.005351
21
0.034651
31
0.0
0
LINE
8
0
6
CONTINUOUS
10
0.025532
20
0.010776
30
0.0
11
0.033092
21
0.012804
31
0.0
0
LINE
8
0
6
CONTINUOUS
10
0.024496
20
0.013265
30
0.0
11
0.033092
21
0.012804
31
0.0
0
LINE
8
0
6
CONTINUOUS
10
0.014650
20
0.049312
30
0.0
11
0.009439
21
0.042389
31
0.0
0
LINE
8
0
6
CONTINUOUS
10
0.036164
20
0.057462
30
0.0
11
0.033784
21
0.063504
31
0.0
0
LINE
8
0
6
CONTINUOUS
10
0.012185
20
0.019927
30
0.0
11
0.009388
21
0.025409
31
0.0
0
LINE
8
0
6
CONTINUOUS
10
0.025811
20
0.057705
30
0.0
11
0.030834
21
0.058489
31
0.0
0
LINE
8
0
6
CONTINUOUS
10
0.014650
20
0.049312
30
0.0
11
0.020005
21
0.054697
31
0.0
0
LINE
8
0
6
CONTINUOUS
10
0.009439
20
0.042389
30
0.0
11
0.009603
21
0.036644
31
0.0
0
LINE
8
0
6
CONTINUOUS
10
0.033092
20
0.012804
30
0.0
11
0.038085
21
0.014604
31
0.0
0
LINE
8
0
6
CONTINUOUS
10
-0.005796
20
0.038506
30
0.0
11
-0.001438
21
0.036998
31
0.0
0
LINE
8
0
6
CONTINUOUS
10
0.038085
20
0.052646
30
0.0
11
0.030834
21
0.058489
31
0.0
0
LINE
8
0
6
CONTINUOUS
10
-0.007821
20
0.032919
30
0.0
11
-0.004630
21
0.034959
31
0.0
0
LINE
8
0
6
CONTINUOUS
10
-0.008783
20
0.035436
30
0.0
11
-0.007290
21
0.036971
31
0.0
0
LINE
8
0
6
CONTINUOUS
10
-0.009115
20
0.036304
30
0.0
11
-0.008783
21
0.035436
31
0.0
0
LINE
8
0
6
CONTINUOUS
10
-0.008206
20
0.037665
30
0.0
11
-0.009115
21
0.036304
31
0.0
0
LINE
8
0
6
CONTINUOUS
10
0.004430
20
0.000858
30
0.0
11
0.017295
21
0.005774
31
0.0
0
LINE
8
0
6
CONTINUOUS
10
-0.001438
20
0.036998
30
0.0
11
0.005351
21
0.034651
31
0.0
0
LINE
8
0
6
CONTINUOUS
10
-0.007424
20
0.042315
30
0.0
11
-0.007298
21
0.039025
31
0.0
0
LINE
8
0
6
CONTINUOUS
10
-0.007298
20
0.039025
30
0.0
11
-0.005796
21
0.038506
31
0.0
0
LINE
8
0
6
CONTINUOUS
10
0.027509
20
0.010380
30
0.0
11
0.033092
21
0.012804
31
0.0
0
LINE
8
0
6
CONTINUOUS
10
0.020005
20
0.054697
30
0.0
11
0.025811
21
0.057705
31
0.0
0
LINE
8
0
6
CONTINUOUS
10
-0.008251
20
0.047441
30
0.0
11
-0.007424
21
0.042315
31
0.0
0
LINE
8
0
6
CONTINUOUS
10
-0.013241
20
0.060500
30
0.0
11
-0.008251
21
0.047441
31
0.0
0
LINE
8
0
6
CONTINUOUS
10
0.033784
20
0.063504
30
0.0
11
0.028794
21
0.076563
31
0.0
0
LINE
8
0
6
CONTINUOUS
10
-0.036233
20
-0.011232
30
0.0
11
-0.032343
21
-0.011086
31
0.0
0
LINE
8
0
6
CONTINUOUS
10
-0.049686
20
-0.019822
30
0.0
11
-0.049356
21
-0.019260
31
0.0
0
LINE
8
0
6
CONTINUOUS
10
-0.047320
20
-0.016809
30
0.0
11
-0.044339
21
-0.014329
31
0.0
0
LINE
8
0
6
CONTINUOUS
10
-0.030689
20
-0.011568
30
0.0
11
-0.032343
21
-0.011086
31
0.0
0
LINE
8
0
6
CONTINUOUS
10
-0.029575
20
-0.011420
30
0.0
11
-0.030689
21
-0.011568
31
0.0
0
LINE
8
0
6
CONTINUOUS
10
-0.040785
20
-0.012542
30
0.0
11
-0.040459
21
-0.012336
31
0.0
0
LINE
8
0
6
CONTINUOUS
10
-0.028546
20
-0.011744
30
0.0
11
-0.029575
21
-0.011420
31
0.0
0
LINE
8
0
6
CONTINUOUS
10
-0.058211
20
0.017542
30
0.0
11
-0.057875
21
0.017331
31
0.0
0
LINE
8
0
6
CONTINUOUS
10
-0.048217
20
-0.018267
30
0.0
11
-0.047320
21
-0.016809
31
0.0
0
LINE
8
0
6
CONTINUOUS
10
-0.040078
20
-0.012271
30
0.0
11
-0.036233
21
-0.011232
31
0.0
0
LINE
8
0
6
CONTINUOUS
10
-0.049356
20
-0.019260
30
0.0
11
-0.049143
21
-0.018898
31
0.0
0
LINE
8
0
6
CONTINUOUS
10
-0.047429
20
0.021120
30
0.0
11
-0.049129
21
0.020138
31
0.0
0
LINE
8
0
6
CONTINUOUS
10
-0.056358
20
0.017516
30
0.0
11
-0.054084
21
0.018138
31
0.0
0
LINE
8
0
6
CONTINUOUS
10
-0.050939
20
0.019327
30
0.0
11
-0.049129
21
0.020138
31
0.0
0
LINE
8
0
6
CONTINUOUS
10
-0.046741
20
0.021826
30
0.0
11
-0.047429
21
0.021120
31
0.0
0
LINE
8
0
6
CONTINUOUS
10
-0.057875
20
0.017331
30
0.0
11
-0.056358
21
0.017516
31
0.0
0
LINE
8
0
6
CONTINUOUS
10
-0.051477
20
0.019002
30
0.0
11
-0.050939
21
0.019327
31
0.0
0
LINE
8
0
6
CONTINUOUS
10
-0.053437
20
0.018373
30
0.0
11
-0.051477
21
0.019002
31
0.0
0
ENDSEC
0
EOF
