999
Erzeugt mit innoplus bad 
0
SECTION
2
HEADER
9
$ACADVER
1
AC1009
9
$DWGCODEPAGE
3
ISO8859-1
0
ENDSEC
0
SECTION
2
TABLES
0
TABLE
2
LAYER
70
1
0
LAYER
2
0
70
0
62
7
6
CONTINUOUS
0
ENDTAB
0
ENDSEC
0
SECTION
2
ENTITIES
0
LINE
8
0
6
CONTINUOUS
10
-0.068356
20
-0.114329
30
0.0
11
-0.067044
21
-0.093011
31
0.0
0
LINE
8
0
6
CONTINUOUS
10
-0.051559
20
-0.115129
30
0.0
11
-0.051923
21
-0.136759
31
0.0
0
LINE
8
0
6
CONTINUOUS
10
-0.060587
20
-0.339258
30
0.0
11
-0.062079
21
-0.338203
31
0.0
0
LINE
8
0
6
CONTINUOUS
10
-0.064210
20
-0.304821
30
0.0
11
-0.065735
21
-0.314563
31
0.0
0
LINE
8
0
6
CONTINUOUS
10
-0.051177
20
-0.323956
30
0.0
11
-0.048325
21
-0.305742
31
0.0
0
LINE
8
0
6
CONTINUOUS
10
-0.057517
20
-0.243052
30
0.0
11
-0.059670
21
-0.266422
31
0.0
0
LINE
8
0
6
CONTINUOUS
10
-0.055629
20
-0.241840
30
0.0
11
-0.057693
21
-0.264176
31
0.0
0
LINE
8
0
6
CONTINUOUS
10
-0.039923
20
-0.221107
30
0.0
11
-0.038468
21
-0.198474
31
0.0
0
LINE
8
0
6
CONTINUOUS
10
-0.061829
20
-0.287420
30
0.0
11
-0.064210
21
-0.304821
31
0.0
0
LINE
8
0
6
CONTINUOUS
10
-0.069905
20
-0.157844
30
0.0
11
-0.069250
21
-0.135965
31
0.0
0
LINE
8
0
6
CONTINUOUS
10
-0.066819
20
-0.353462
30
0.0
11
-0.061161
21
-0.350963
31
0.0
0
LINE
8
0
6
CONTINUOUS
10
-0.070217
20
-0.219503
30
0.0
11
-0.070355
21
-0.196828
31
0.0
0
LINE
8
0
6
CONTINUOUS
10
-0.052541
20
-0.158621
30
0.0
11
-0.053315
21
-0.177966
31
0.0
0
LINE
8
0
6
CONTINUOUS
10
-0.050788
20
-0.159624
30
0.0
11
-0.051549
21
-0.178671
31
0.0
0
LINE
8
0
6
CONTINUOUS
10
-0.085816
20
-0.157836
30
0.0
11
-0.086167
21
-0.177202
31
0.0
0
LINE
8
0
6
CONTINUOUS
10
-0.062025
20
-0.301054
30
0.0
11
-0.064765
21
-0.318690
31
0.0
0
LINE
8
0
6
CONTINUOUS
10
-0.043785
20
-0.267342
30
0.0
11
-0.041632
21
-0.243973
31
0.0
0
LINE
8
0
6
CONTINUOUS
10
-0.038468
20
-0.198474
30
0.0
11
-0.037429
21
-0.178887
31
0.0
0
LINE
8
0
6
CONTINUOUS
10
-0.040429
20
-0.179316
30
0.0
11
-0.041454
21
-0.198605
31
0.0
0
LINE
8
0
6
CONTINUOUS
10
-0.045942
20
-0.288341
30
0.0
11
-0.043785
21
-0.267342
31
0.0
0
LINE
8
0
6
CONTINUOUS
10
-0.046573
20
-0.264821
30
0.0
11
-0.048633
21
-0.285064
31
0.0
0
LINE
8
0
6
CONTINUOUS
10
-0.053315
20
-0.177966
30
0.0
11
-0.054355
21
-0.197554
31
0.0
0
LINE
8
0
6
CONTINUOUS
10
-0.076848
20
-0.342799
30
0.0
11
-0.074631
21
-0.348264
31
0.0
0
LINE
8
0
6
CONTINUOUS
10
-0.079008
20
-0.334092
30
0.0
11
-0.076848
21
-0.342799
31
0.0
0
LINE
8
0
6
CONTINUOUS
10
-0.048325
20
-0.305742
30
0.0
11
-0.045942
21
-0.288341
31
0.0
0
LINE
8
0
6
CONTINUOUS
10
-0.082411
20
-0.111778
30
0.0
11
-0.081038
21
-0.089716
31
0.0
0
LINE
8
0
6
CONTINUOUS
10
-0.082956
20
-0.093003
30
0.0
11
-0.084269
21
-0.114320
31
0.0
0
LINE
8
0
6
CONTINUOUS
10
-0.084015
20
-0.286909
30
0.0
11
-0.082643
21
-0.304382
31
0.0
0
LINE
8
0
6
CONTINUOUS
10
-0.061579
20
-0.327660
30
0.0
11
-0.059240
21
-0.317048
31
0.0
0
LINE
8
0
6
CONTINUOUS
10
-0.051549
20
-0.178671
30
0.0
11
-0.052575
21
-0.197962
31
0.0
0
LINE
8
0
6
CONTINUOUS
10
-0.047274
20
-0.198428
30
0.0
11
-0.046253
21
-0.179237
31
0.0
0
LINE
8
0
6
CONTINUOUS
10
-0.076880
20
-0.339164
30
0.0
11
-0.074631
21
-0.348264
31
0.0
0
LINE
8
0
6
CONTINUOUS
10
-0.086128
20
-0.219495
30
0.0
11
-0.085749
21
-0.242411
31
0.0
0
LINE
8
0
6
CONTINUOUS
10
-0.086267
20
-0.196821
30
0.0
11
-0.086128
21
-0.219495
31
0.0
0
LINE
8
0
6
CONTINUOUS
10
-0.085749
20
-0.242411
30
0.0
11
-0.084953
21
-0.265845
31
0.0
0
LINE
8
0
6
CONTINUOUS
10
-0.069043
20
-0.265854
30
0.0
11
-0.069837
21
-0.242419
31
0.0
0
LINE
8
0
6
CONTINUOUS
10
-0.084953
20
-0.265845
30
0.0
11
-0.084015
21
-0.286909
31
0.0
0
LINE
8
0
6
CONTINUOUS
10
-0.037429
20
-0.178887
30
0.0
11
-0.036656
21
-0.159541
31
0.0
0
LINE
8
0
6
CONTINUOUS
10
-0.073189
20
-0.219920
30
0.0
11
-0.073341
21
-0.196528
31
0.0
0
LINE
8
0
6
CONTINUOUS
10
-0.049847
20
-0.117692
30
0.0
11
-0.050202
21
-0.138457
31
0.0
0
LINE
8
0
6
CONTINUOUS
10
-0.045498
20
-0.160289
30
0.0
11
-0.044915
21
-0.139409
31
0.0
0
LINE
8
0
6
CONTINUOUS
10
-0.035744
20
-0.094726
30
0.0
11
-0.036054
21
-0.075997
31
0.0
0
LINE
8
0
6
CONTINUOUS
10
-0.084269
20
-0.114320
30
0.0
11
-0.085162
21
-0.135958
31
0.0
0
LINE
8
0
6
CONTINUOUS
10
-0.060937
20
-0.342807
30
0.0
11
-0.063097
21
-0.334099
31
0.0
0
LINE
8
0
6
CONTINUOUS
10
-0.066819
20
-0.353462
30
0.0
11
-0.069130
21
-0.350512
31
0.0
0
LINE
8
0
6
CONTINUOUS
10
-0.072262
20
-0.350917
30
0.0
11
-0.066819
21
-0.353462
31
0.0
0
LINE
8
0
6
CONTINUOUS
10
-0.074631
20
-0.348264
30
0.0
11
-0.072262
21
-0.350917
31
0.0
0
LINE
8
0
6
CONTINUOUS
10
-0.036656
20
-0.159541
30
0.0
11
-0.036037
21
-0.137678
31
0.0
0
LINE
8
0
6
CONTINUOUS
10
-0.039083
20
-0.139102
30
0.0
11
-0.039668
21
-0.160268
31
0.0
0
LINE
8
0
6
CONTINUOUS
10
-0.063097
20
-0.334099
30
0.0
11
-0.064939
21
-0.322692
31
0.0
0
LINE
8
0
6
CONTINUOUS
10
-0.075288
20
-0.309720
30
0.0
11
-0.073392
21
-0.329230
31
0.0
0
LINE
8
0
6
CONTINUOUS
10
-0.050906
20
-0.301698
30
0.0
11
-0.048633
21
-0.285064
31
0.0
0
LINE
8
0
6
CONTINUOUS
10
-0.071420
20
-0.341271
30
0.0
11
-0.069130
21
-0.350512
31
0.0
0
LINE
8
0
6
CONTINUOUS
10
-0.063493
20
-0.348270
30
0.0
11
-0.065742
21
-0.339170
31
0.0
0
LINE
8
0
6
CONTINUOUS
10
-0.050275
20
-0.241591
30
0.0
11
-0.048670
21
-0.220056
31
0.0
0
LINE
8
0
6
CONTINUOUS
10
-0.078822
20
-0.327254
30
0.0
11
-0.080682
21
-0.308283
31
0.0
0
LINE
8
0
6
CONTINUOUS
10
-0.082643
20
-0.304382
30
0.0
11
-0.080850
21
-0.322684
31
0.0
0
LINE
8
0
6
CONTINUOUS
10
-0.038802
20
-0.097965
30
0.0
11
-0.039076
21
-0.079871
31
0.0
0
LINE
8
0
6
CONTINUOUS
10
-0.044567
20
-0.119031
30
0.0
11
-0.044915
21
-0.139409
31
0.0
0
LINE
8
0
6
CONTINUOUS
10
-0.044643
20
-0.098948
30
0.0
11
-0.044904
21
-0.081221
31
0.0
0
LINE
8
0
6
CONTINUOUS
10
-0.051923
20
-0.136759
30
0.0
11
-0.052541
21
-0.158621
31
0.0
0
LINE
8
0
6
CONTINUOUS
10
-0.050788
20
-0.159624
30
0.0
11
-0.050202
21
-0.138457
31
0.0
0
LINE
8
0
6
CONTINUOUS
10
-0.040429
20
-0.179316
30
0.0
11
-0.039668
21
-0.160268
31
0.0
0
LINE
8
0
6
CONTINUOUS
10
-0.045498
20
-0.160289
30
0.0
11
-0.046253
21
-0.179237
31
0.0
0
LINE
8
0
6
CONTINUOUS
10
-0.051631
20
-0.093806
30
0.0
11
-0.051559
21
-0.115129
31
0.0
0
LINE
8
0
6
CONTINUOUS
10
-0.071961
20
-0.268133
30
0.0
11
-0.070980
21
-0.290045
31
0.0
0
LINE
8
0
6
CONTINUOUS
10
-0.068103
20
-0.286918
30
0.0
11
-0.069043
21
-0.265854
31
0.0
0
LINE
8
0
6
CONTINUOUS
10
-0.066732
20
-0.304391
30
0.0
11
-0.068103
21
-0.286918
31
0.0
0
LINE
8
0
6
CONTINUOUS
10
-0.069544
20
-0.308289
30
0.0
11
-0.067684
21
-0.327260
31
0.0
0
LINE
8
0
6
CONTINUOUS
10
-0.064939
20
-0.322692
30
0.0
11
-0.066732
21
-0.304391
31
0.0
0
LINE
8
0
6
CONTINUOUS
10
-0.073189
20
-0.219920
30
0.0
11
-0.072800
21
-0.243851
31
0.0
0
LINE
8
0
6
CONTINUOUS
10
-0.069837
20
-0.242419
30
0.0
11
-0.070217
21
-0.219503
31
0.0
0
LINE
8
0
6
CONTINUOUS
10
-0.069544
20
-0.308289
30
0.0
11
-0.070980
21
-0.290045
31
0.0
0
LINE
8
0
6
CONTINUOUS
10
-0.073392
20
-0.329230
30
0.0
11
-0.071420
21
-0.341271
31
0.0
0
LINE
8
0
6
CONTINUOUS
10
-0.065742
20
-0.339170
30
0.0
11
-0.067684
21
-0.327260
31
0.0
0
LINE
8
0
6
CONTINUOUS
10
-0.070355
20
-0.196828
30
0.0
11
-0.070255
21
-0.177211
31
0.0
0
LINE
8
0
6
CONTINUOUS
10
-0.059753
20
-0.284419
30
0.0
11
-0.062025
21
-0.301054
31
0.0
0
LINE
8
0
6
CONTINUOUS
10
-0.056557
20
-0.299750
30
0.0
11
-0.054321
21
-0.283433
31
0.0
0
LINE
8
0
6
CONTINUOUS
10
-0.065157
20
-0.320458
30
0.0
11
-0.064765
21
-0.318690
31
0.0
0
LINE
8
0
6
CONTINUOUS
10
-0.078608
20
-0.244413
30
0.0
11
-0.079012
21
-0.220064
31
0.0
0
LINE
8
0
6
CONTINUOUS
10
-0.084326
20
-0.219914
30
0.0
11
-0.083937
21
-0.243846
31
0.0
0
LINE
8
0
6
CONTINUOUS
10
-0.070255
20
-0.177211
30
0.0
11
-0.069905
21
-0.157844
31
0.0
0
LINE
8
0
6
CONTINUOUS
10
-0.072883
20
-0.156948
30
0.0
11
-0.072200
21
-0.134393
31
0.0
0
LINE
8
0
6
CONTINUOUS
10
-0.041632
20
-0.243973
30
0.0
11
-0.039923
21
-0.221107
31
0.0
0
LINE
8
0
6
CONTINUOUS
10
-0.042877
20
-0.220543
30
0.0
11
-0.044509
21
-0.242484
31
0.0
0
LINE
8
0
6
CONTINUOUS
10
-0.071273
20
-0.111782
30
0.0
11
-0.072200
21
-0.134393
31
0.0
0
LINE
8
0
6
CONTINUOUS
10
-0.069250
20
-0.135965
30
0.0
11
-0.068356
21
-0.114329
31
0.0
0
LINE
8
0
6
CONTINUOUS
10
-0.059670
20
-0.266422
30
0.0
11
-0.061829
21
-0.287420
31
0.0
0
LINE
8
0
6
CONTINUOUS
10
-0.057693
20
-0.264176
30
0.0
11
-0.059753
21
-0.284419
31
0.0
0
LINE
8
0
6
CONTINUOUS
10
-0.054321
20
-0.283433
30
0.0
11
-0.052313
21
-0.263618
31
0.0
0
LINE
8
0
6
CONTINUOUS
10
-0.056333
20
-0.343910
30
0.0
11
-0.053675
21
-0.335285
31
0.0
0
LINE
8
0
6
CONTINUOUS
10
-0.056033
20
-0.330087
30
0.0
11
-0.058572
21
-0.338411
31
0.0
0
LINE
8
0
6
CONTINUOUS
10
-0.063493
20
-0.348270
30
0.0
11
-0.061161
21
-0.350963
31
0.0
0
LINE
8
0
6
CONTINUOUS
10
-0.058504
20
-0.344717
30
0.0
11
-0.060937
21
-0.342807
31
0.0
0
LINE
8
0
6
CONTINUOUS
10
-0.063255
20
-0.333115
30
0.0
11
-0.061579
21
-0.327660
31
0.0
0
LINE
8
0
6
CONTINUOUS
10
-0.078015
20
-0.133741
30
0.0
11
-0.077063
21
-0.110754
31
0.0
0
LINE
8
0
6
CONTINUOUS
10
-0.082411
20
-0.111778
30
0.0
11
-0.083339
21
-0.134388
31
0.0
0
LINE
8
0
6
CONTINUOUS
10
-0.067044
20
-0.093011
30
0.0
11
-0.065645
21
-0.074295
31
0.0
0
LINE
8
0
6
CONTINUOUS
10
-0.073226
20
-0.176622
30
0.0
11
-0.072883
21
-0.156948
31
0.0
0
LINE
8
0
6
CONTINUOUS
10
-0.061161
20
-0.350963
30
0.0
11
-0.058865
21
-0.349233
31
0.0
0
LINE
8
0
6
CONTINUOUS
10
-0.058865
20
-0.349233
30
0.0
11
-0.056333
21
-0.343910
31
0.0
0
LINE
8
0
6
CONTINUOUS
10
-0.078690
20
-0.156604
30
0.0
11
-0.078015
21
-0.133741
31
0.0
0
LINE
8
0
6
CONTINUOUS
10
-0.079046
20
-0.176368
30
0.0
11
-0.078690
21
-0.156604
31
0.0
0
LINE
8
0
6
CONTINUOUS
10
-0.084021
20
-0.156942
30
0.0
11
-0.084365
21
-0.176617
31
0.0
0
LINE
8
0
6
CONTINUOUS
10
-0.076880
20
-0.339164
30
0.0
11
-0.078822
21
-0.327254
31
0.0
0
LINE
8
0
6
CONTINUOUS
10
-0.080850
20
-0.322684
30
0.0
11
-0.079008
21
-0.334092
31
0.0
0
LINE
8
0
6
CONTINUOUS
10
-0.058504
20
-0.344717
30
0.0
11
-0.056333
21
-0.343910
31
0.0
0
LINE
8
0
6
CONTINUOUS
10
-0.058572
20
-0.338411
30
0.0
11
-0.060587
21
-0.339258
31
0.0
0
LINE
8
0
6
CONTINUOUS
10
-0.071961
20
-0.268133
30
0.0
11
-0.072800
21
-0.243851
31
0.0
0
LINE
8
0
6
CONTINUOUS
10
-0.042877
20
-0.220543
30
0.0
11
-0.041454
21
-0.198605
31
0.0
0
LINE
8
0
6
CONTINUOUS
10
-0.047274
20
-0.198428
30
0.0
11
-0.048670
21
-0.220056
31
0.0
0
LINE
8
0
6
CONTINUOUS
10
-0.055809
20
-0.220186
30
0.0
11
-0.057517
21
-0.243052
31
0.0
0
LINE
8
0
6
CONTINUOUS
10
-0.055629
20
-0.241840
30
0.0
11
-0.053997
21
-0.219899
31
0.0
0
LINE
8
0
6
CONTINUOUS
10
-0.053645
20
-0.319334
30
0.0
11
-0.050906
21
-0.301698
31
0.0
0
LINE
8
0
6
CONTINUOUS
10
-0.056557
20
-0.299750
30
0.0
11
-0.059240
21
-0.317048
31
0.0
0
LINE
8
0
6
CONTINUOUS
10
-0.046573
20
-0.264821
30
0.0
11
-0.044509
21
-0.242484
31
0.0
0
LINE
8
0
6
CONTINUOUS
10
-0.050275
20
-0.241591
30
0.0
11
-0.052313
21
-0.263618
31
0.0
0
LINE
8
0
6
CONTINUOUS
10
-0.049922
20
-0.097321
30
0.0
11
-0.049847
21
-0.117692
31
0.0
0
LINE
8
0
6
CONTINUOUS
10
-0.044567
20
-0.119031
30
0.0
11
-0.044643
21
-0.098948
31
0.0
0
LINE
8
0
6
CONTINUOUS
10
-0.073341
20
-0.196528
30
0.0
11
-0.073226
21
-0.176622
31
0.0
0
LINE
8
0
6
CONTINUOUS
10
-0.054355
20
-0.197554
30
0.0
11
-0.055809
21
-0.220186
31
0.0
0
LINE
8
0
6
CONTINUOUS
10
-0.053997
20
-0.219899
30
0.0
11
-0.052575
21
-0.197962
31
0.0
0
LINE
8
0
6
CONTINUOUS
10
-0.036037
20
-0.137678
30
0.0
11
-0.035673
21
-0.116050
31
0.0
0
LINE
8
0
6
CONTINUOUS
10
-0.038727
20
-0.118336
30
0.0
11
-0.039083
21
-0.139102
31
0.0
0
LINE
8
0
6
CONTINUOUS
10
-0.079151
20
-0.196384
30
0.0
11
-0.079046
21
-0.176368
31
0.0
0
LINE
8
0
6
CONTINUOUS
10
-0.075288
20
-0.309720
30
0.0
11
-0.076755
21
-0.291445
31
0.0
0
LINE
8
0
6
CONTINUOUS
10
-0.082118
20
-0.290040
30
0.0
11
-0.080682
21
-0.308283
31
0.0
0
LINE
8
0
6
CONTINUOUS
10
-0.077764
20
-0.269104
30
0.0
11
-0.078608
21
-0.244413
31
0.0
0
LINE
8
0
6
CONTINUOUS
10
-0.083937
20
-0.243846
30
0.0
11
-0.083100
21
-0.268129
31
0.0
0
LINE
8
0
6
CONTINUOUS
10
-0.076755
20
-0.291445
30
0.0
11
-0.077764
21
-0.269104
31
0.0
0
LINE
8
0
6
CONTINUOUS
10
-0.083100
20
-0.268129
30
0.0
11
-0.082118
21
-0.290040
31
0.0
0
LINE
8
0
6
CONTINUOUS
10
-0.035673
20
-0.116050
30
0.0
11
-0.035744
21
-0.094726
31
0.0
0
LINE
8
0
6
CONTINUOUS
10
-0.038802
20
-0.097965
30
0.0
11
-0.038727
21
-0.118336
31
0.0
0
LINE
8
0
6
CONTINUOUS
10
-0.075674
20
-0.088306
30
0.0
11
-0.077063
21
-0.110754
31
0.0
0
LINE
8
0
6
CONTINUOUS
10
-0.071273
20
-0.111782
30
0.0
11
-0.069899
21
-0.089722
31
0.0
0
LINE
8
0
6
CONTINUOUS
10
-0.084021
20
-0.156942
30
0.0
11
-0.083339
21
-0.134388
31
0.0
0
LINE
8
0
6
CONTINUOUS
10
-0.085162
20
-0.135958
30
0.0
11
-0.085816
21
-0.157836
31
0.0
0
LINE
8
0
6
CONTINUOUS
10
-0.079012
20
-0.220064
30
0.0
11
-0.079151
21
-0.196384
31
0.0
0
LINE
8
0
6
CONTINUOUS
10
-0.084479
20
-0.196522
30
0.0
11
-0.084326
21
-0.219914
31
0.0
0
LINE
8
0
6
CONTINUOUS
10
-0.084479
20
-0.196522
30
0.0
11
-0.084365
21
-0.176617
31
0.0
0
LINE
8
0
6
CONTINUOUS
10
-0.086167
20
-0.177202
30
0.0
11
-0.086267
21
-0.196821
31
0.0
0
LINE
8
0
6
CONTINUOUS
10
-0.053675
20
-0.335285
30
0.0
11
-0.051177
21
-0.323956
31
0.0
0
LINE
8
0
6
CONTINUOUS
10
-0.053645
20
-0.319334
30
0.0
11
-0.056033
21
-0.330087
31
0.0
0
LINE
8
0
6
CONTINUOUS
10
-0.069899
20
-0.089722
30
0.0
11
-0.068438
21
-0.070263
31
0.0
0
LINE
8
0
6
CONTINUOUS
10
-0.049922
20
-0.097321
30
0.0
11
-0.050196
21
-0.079226
31
0.0
0
LINE
8
0
6
CONTINUOUS
10
-0.051939
20
-0.075077
30
0.0
11
-0.051631
21
-0.093806
31
0.0
0
LINE
8
0
6
CONTINUOUS
10
-0.081557
20
-0.074287
30
0.0
11
-0.082956
21
-0.093003
31
0.0
0
LINE
8
0
6
CONTINUOUS
10
-0.075674
20
-0.088306
30
0.0
11
-0.074176
21
-0.068480
31
0.0
0
LINE
8
0
6
CONTINUOUS
10
-0.079577
20
-0.070257
30
0.0
11
-0.081038
21
-0.089716
31
0.0
0
LINE
8
0
6
CONTINUOUS
10
-0.080310
20
0.399216
30
0.0
11
-0.079695
21
0.399216
31
0.0
0
LINE
8
0
6
CONTINUOUS
10
-0.080310
20
0.399716
30
0.0
11
-0.080310
21
0.399216
31
0.0
0
LINE
8
0
6
CONTINUOUS
10
-0.076318
20
0.386116
30
0.0
11
-0.076608
21
0.385616
31
0.0
0
LINE
8
0
6
CONTINUOUS
10
-0.075996
20
0.385616
30
0.0
11
-0.075705
21
0.386116
31
0.0
0
LINE
8
0
6
CONTINUOUS
10
-0.076608
20
0.385616
30
0.0
11
-0.075996
21
0.385616
31
0.0
0
LINE
8
0
6
CONTINUOUS
10
-0.080310
20
0.387116
30
0.0
11
-0.080310
21
0.386116
31
0.0
0
LINE
8
0
6
CONTINUOUS
10
-0.076318
20
0.426916
30
0.0
11
-0.076608
21
0.426416
31
0.0
0
LINE
8
0
6
CONTINUOUS
10
-0.075996
20
0.426416
30
0.0
11
-0.075705
21
0.426916
31
0.0
0
LINE
8
0
6
CONTINUOUS
10
-0.076608
20
0.426416
30
0.0
11
-0.075996
21
0.426416
31
0.0
0
LINE
8
0
6
CONTINUOUS
10
-0.076318
20
0.434716
30
0.0
11
-0.076318
21
0.433716
31
0.0
0
LINE
8
0
6
CONTINUOUS
10
-0.075705
20
0.433716
30
0.0
11
-0.075705
21
0.434716
31
0.0
0
LINE
8
0
6
CONTINUOUS
10
-0.075705
20
0.372516
30
0.0
11
-0.075705
21
0.373516
31
0.0
0
LINE
8
0
6
CONTINUOUS
10
-0.076318
20
0.373516
30
0.0
11
-0.076318
21
0.372516
31
0.0
0
LINE
8
0
6
CONTINUOUS
10
-0.076609
20
0.380816
30
0.0
11
-0.076318
21
0.380316
31
0.0
0
LINE
8
0
6
CONTINUOUS
10
-0.075996
20
0.380816
30
0.0
11
-0.076609
21
0.380816
31
0.0
0
LINE
8
0
6
CONTINUOUS
10
-0.075705
20
0.380316
30
0.0
11
-0.075996
21
0.380816
31
0.0
0
LINE
8
0
6
CONTINUOUS
10
-0.080310
20
0.380316
30
0.0
11
-0.080310
21
0.379316
31
0.0
0
LINE
8
0
6
CONTINUOUS
10
-0.079047
20
0.393916
30
0.0
11
-0.079047
21
0.392916
31
0.0
0
LINE
8
0
6
CONTINUOUS
10
-0.079047
20
0.400716
30
0.0
11
-0.079047
21
0.399716
31
0.0
0
LINE
8
0
6
CONTINUOUS
10
-0.079695
20
0.401216
30
0.0
11
-0.080310
21
0.401216
31
0.0
0
LINE
8
0
6
CONTINUOUS
10
-0.080310
20
0.401216
30
0.0
11
-0.080310
21
0.400716
31
0.0
0
LINE
8
0
6
CONTINUOUS
10
-0.079047
20
0.406516
30
0.0
11
-0.079200
21
0.406016
31
0.0
0
LINE
8
0
6
CONTINUOUS
10
-0.079200
20
0.406016
30
0.0
11
-0.078476
21
0.406016
31
0.0
0
LINE
8
0
6
CONTINUOUS
10
-0.080310
20
0.407516
30
0.0
11
-0.080310
21
0.406516
31
0.0
0
LINE
8
0
6
CONTINUOUS
10
-0.079695
20
0.414816
30
0.0
11
-0.080310
21
0.414816
31
0.0
0
LINE
8
0
6
CONTINUOUS
10
-0.080310
20
0.414816
30
0.0
11
-0.080310
21
0.414316
31
0.0
0
LINE
8
0
6
CONTINUOUS
10
-0.076318
20
0.420116
30
0.0
11
-0.076608
21
0.419616
31
0.0
0
LINE
8
0
6
CONTINUOUS
10
-0.075996
20
0.419616
30
0.0
11
-0.075705
21
0.420116
31
0.0
0
LINE
8
0
6
CONTINUOUS
10
-0.076608
20
0.419616
30
0.0
11
-0.075996
21
0.419616
31
0.0
0
LINE
8
0
6
CONTINUOUS
10
-0.079695
20
0.421616
30
0.0
11
-0.080310
21
0.421616
31
0.0
0
LINE
8
0
6
CONTINUOUS
10
-0.080310
20
0.421616
30
0.0
11
-0.080310
21
0.421116
31
0.0
0
LINE
8
0
6
CONTINUOUS
10
-0.079047
20
0.427916
30
0.0
11
-0.079047
21
0.426916
31
0.0
0
LINE
8
0
6
CONTINUOUS
10
-0.079047
20
0.441516
30
0.0
11
-0.079047
21
0.440516
31
0.0
0
LINE
8
0
6
CONTINUOUS
10
-0.067810
20
0.289016
30
0.0
11
-0.062310
21
0.289016
31
0.0
0
LINE
8
0
6
CONTINUOUS
10
-0.051398
20
0.211503
30
0.0
11
-0.050613
21
0.211503
31
0.0
0
LINE
8
0
6
CONTINUOUS
10
-0.051422
20
0.212025
30
0.0
11
-0.051398
21
0.211503
31
0.0
0
LINE
8
0
6
CONTINUOUS
10
-0.041081
20
0.211503
30
0.0
11
-0.037133
21
0.211504
31
0.0
0
LINE
8
0
6
CONTINUOUS
10
-0.033786
20
0.211504
30
0.0
11
-0.031549
21
0.211504
31
0.0
0
LINE
8
0
6
CONTINUOUS
10
-0.050613
20
0.211503
30
0.0
11
-0.048376
21
0.211503
31
0.0
0
LINE
8
0
6
CONTINUOUS
10
-0.030764
20
0.211504
30
0.0
11
-0.030741
21
0.212026
31
0.0
0
LINE
8
0
6
CONTINUOUS
10
-0.052901
20
0.237183
30
0.0
11
-0.051422
21
0.212025
31
0.0
0
LINE
8
0
6
CONTINUOUS
10
-0.030741
20
0.212026
30
0.0
11
-0.029270
21
0.237183
31
0.0
0
LINE
8
0
6
CONTINUOUS
10
-0.056024
20
0.282991
30
0.0
11
-0.056475
21
0.282991
31
0.0
0
LINE
8
0
6
CONTINUOUS
10
-0.078385
20
0.282571
30
0.0
11
-0.079536
21
0.281423
31
0.0
0
LINE
8
0
6
CONTINUOUS
10
-0.079536
20
0.281423
30
0.0
11
-0.079957
21
0.279854
31
0.0
0
LINE
8
0
6
CONTINUOUS
10
-0.057313
20
0.282991
30
0.0
11
-0.060901
21
0.282991
31
0.0
0
LINE
8
0
6
CONTINUOUS
10
-0.060901
20
0.282991
30
0.0
11
-0.065330
21
0.282991
31
0.0
0
LINE
8
0
6
CONTINUOUS
10
-0.053255
20
0.282541
30
0.0
11
-0.053255
21
0.282991
31
0.0
0
LINE
8
0
6
CONTINUOUS
10
-0.053255
20
0.282991
30
0.0
11
-0.054593
21
0.282991
31
0.0
0
LINE
8
0
6
CONTINUOUS
10
-0.074496
20
0.282991
30
0.0
11
-0.076750
21
0.282991
31
0.0
0
LINE
8
0
6
CONTINUOUS
10
-0.070046
20
0.282991
30
0.0
11
-0.074496
21
0.282991
31
0.0
0
LINE
8
0
6
CONTINUOUS
10
-0.054593
20
0.282991
30
0.0
11
-0.057313
21
0.282991
31
0.0
0
LINE
8
0
6
CONTINUOUS
10
-0.065330
20
0.282991
30
0.0
11
-0.070046
21
0.282991
31
0.0
0
LINE
8
0
6
CONTINUOUS
10
-0.077116
20
0.282991
30
0.0
11
-0.078300
21
0.282571
31
0.0
0
LINE
8
0
6
CONTINUOUS
10
-0.076750
20
0.282991
30
0.0
11
-0.077116
21
0.282991
31
0.0
0
LINE
8
0
6
CONTINUOUS
10
-0.053255
20
0.236472
30
0.0
11
-0.053255
21
0.237183
31
0.0
0
LINE
8
0
6
CONTINUOUS
10
-0.079536
20
0.237590
30
0.0
11
-0.078385
21
0.236442
31
0.0
0
LINE
8
0
6
CONTINUOUS
10
-0.079957
20
0.239158
30
0.0
11
-0.079536
21
0.237590
31
0.0
0
LINE
8
0
6
CONTINUOUS
10
-0.060901
20
0.236022
30
0.0
11
-0.057313
21
0.236022
31
0.0
0
LINE
8
0
6
CONTINUOUS
10
-0.065330
20
0.236022
30
0.0
11
-0.060901
21
0.236022
31
0.0
0
LINE
8
0
6
CONTINUOUS
10
-0.053255
20
0.236022
30
0.0
11
-0.053255
21
0.236472
31
0.0
0
LINE
8
0
6
CONTINUOUS
10
-0.054593
20
0.236022
30
0.0
11
-0.053255
21
0.236022
31
0.0
0
LINE
8
0
6
CONTINUOUS
10
-0.076750
20
0.236022
30
0.0
11
-0.074496
21
0.236022
31
0.0
0
LINE
8
0
6
CONTINUOUS
10
-0.074496
20
0.236022
30
0.0
11
-0.070046
21
0.236022
31
0.0
0
LINE
8
0
6
CONTINUOUS
10
-0.057313
20
0.236022
30
0.0
11
-0.054593
21
0.236022
31
0.0
0
LINE
8
0
6
CONTINUOUS
10
-0.070046
20
0.236022
30
0.0
11
-0.065330
21
0.236022
31
0.0
0
LINE
8
0
6
CONTINUOUS
10
-0.078300
20
0.236442
30
0.0
11
-0.077116
21
0.236022
31
0.0
0
LINE
8
0
6
CONTINUOUS
10
-0.077116
20
0.236022
30
0.0
11
-0.076750
21
0.236022
31
0.0
0
LINE
8
0
6
CONTINUOUS
10
-0.053255
20
0.281983
30
0.0
11
-0.053255
21
0.282541
31
0.0
0
LINE
8
0
6
CONTINUOUS
10
-0.079957
20
0.279854
30
0.0
11
-0.079957
21
0.239158
31
0.0
0
LINE
8
0
6
CONTINUOUS
10
-0.079451
20
0.281423
30
0.0
11
-0.078300
21
0.282571
31
0.0
0
LINE
8
0
6
CONTINUOUS
10
-0.079872
20
0.279854
30
0.0
11
-0.079451
21
0.281423
31
0.0
0
LINE
8
0
6
CONTINUOUS
10
-0.078300
20
0.236442
30
0.0
11
-0.079451
21
0.237590
31
0.0
0
LINE
8
0
6
CONTINUOUS
10
-0.079451
20
0.237590
30
0.0
11
-0.079872
21
0.239158
31
0.0
0
LINE
8
0
6
CONTINUOUS
10
-0.079872
20
0.239158
30
0.0
11
-0.079872
21
0.279854
31
0.0
0
LINE
8
0
6
CONTINUOUS
10
-0.014189
20
0.281983
30
0.0
11
-0.064019
21
0.281983
31
0.0
0
LINE
8
0
6
CONTINUOUS
10
-0.064019
20
0.237183
30
0.0
11
-0.014723
21
0.237183
31
0.0
0
LINE
8
0
6
CONTINUOUS
10
-0.076719
20
0.281983
30
0.0
11
-0.077657
21
0.281983
31
0.0
0
LINE
8
0
6
CONTINUOUS
10
-0.071459
20
0.237183
30
0.0
11
-0.067756
21
0.237183
31
0.0
0
LINE
8
0
6
CONTINUOUS
10
-0.067756
20
0.281983
30
0.0
11
-0.071459
21
0.281983
31
0.0
0
LINE
8
0
6
CONTINUOUS
10
-0.067756
20
0.237183
30
0.0
11
-0.064019
21
0.237183
31
0.0
0
LINE
8
0
6
CONTINUOUS
10
-0.064019
20
0.281983
30
0.0
11
-0.067756
21
0.281983
31
0.0
0
LINE
8
0
6
CONTINUOUS
10
-0.076719
20
0.237183
30
0.0
11
-0.074767
21
0.237183
31
0.0
0
LINE
8
0
6
CONTINUOUS
10
-0.074767
20
0.281983
30
0.0
11
-0.076719
21
0.281983
31
0.0
0
LINE
8
0
6
CONTINUOUS
10
-0.074767
20
0.237183
30
0.0
11
-0.071459
21
0.237183
31
0.0
0
LINE
8
0
6
CONTINUOUS
10
-0.071459
20
0.281983
30
0.0
11
-0.074767
21
0.281983
31
0.0
0
LINE
8
0
6
CONTINUOUS
10
-0.077657
20
0.237183
30
0.0
11
-0.076719
21
0.237183
31
0.0
0
LINE
8
0
6
CONTINUOUS
10
-0.078476
20
0.374016
30
0.0
11
-0.079200
21
0.374016
31
0.0
0
LINE
8
0
6
CONTINUOUS
10
-0.079200
20
0.374016
30
0.0
11
-0.079047
21
0.373516
31
0.0
0
LINE
8
0
6
CONTINUOUS
10
-0.079047
20
0.380316
30
0.0
11
-0.079047
21
0.379316
31
0.0
0
LINE
8
0
6
CONTINUOUS
10
-0.076609
20
0.387616
30
0.0
11
-0.076318
21
0.387116
31
0.0
0
LINE
8
0
6
CONTINUOUS
10
-0.075996
20
0.387616
30
0.0
11
-0.076609
21
0.387616
31
0.0
0
LINE
8
0
6
CONTINUOUS
10
-0.075705
20
0.387116
30
0.0
11
-0.075996
21
0.387616
31
0.0
0
LINE
8
0
6
CONTINUOUS
10
-0.075705
20
0.392916
30
0.0
11
-0.075705
21
0.393916
31
0.0
0
LINE
8
0
6
CONTINUOUS
10
-0.076318
20
0.393916
30
0.0
11
-0.076318
21
0.392916
31
0.0
0
LINE
8
0
6
CONTINUOUS
10
-0.080310
20
0.393916
30
0.0
11
-0.080310
21
0.392916
31
0.0
0
LINE
8
0
6
CONTINUOUS
10
-0.075996
20
0.414816
30
0.0
11
-0.076609
21
0.414816
31
0.0
0
LINE
8
0
6
CONTINUOUS
10
-0.075705
20
0.414316
30
0.0
11
-0.075996
21
0.414816
31
0.0
0
LINE
8
0
6
CONTINUOUS
10
-0.076609
20
0.414816
30
0.0
11
-0.076318
21
0.414316
31
0.0
0
LINE
8
0
6
CONTINUOUS
10
-0.079200
20
0.421616
30
0.0
11
-0.079047
21
0.421116
31
0.0
0
LINE
8
0
6
CONTINUOUS
10
-0.078413
20
0.421616
30
0.0
11
-0.079200
21
0.421616
31
0.0
0
LINE
8
0
6
CONTINUOUS
10
-0.080310
20
0.426916
30
0.0
11
-0.080310
21
0.426416
31
0.0
0
LINE
8
0
6
CONTINUOUS
10
-0.080310
20
0.426416
30
0.0
11
-0.079695
21
0.426416
31
0.0
0
LINE
8
0
6
CONTINUOUS
10
-0.079047
20
0.434716
30
0.0
11
-0.079047
21
0.433716
31
0.0
0
LINE
8
0
6
CONTINUOUS
10
-0.076609
20
0.428416
30
0.0
11
-0.076318
21
0.427916
31
0.0
0
LINE
8
0
6
CONTINUOUS
10
-0.075996
20
0.428416
30
0.0
11
-0.076609
21
0.428416
31
0.0
0
LINE
8
0
6
CONTINUOUS
10
-0.075705
20
0.427916
30
0.0
11
-0.075996
21
0.428416
31
0.0
0
LINE
8
0
6
CONTINUOUS
10
-0.076318
20
0.441516
30
0.0
11
-0.076318
21
0.440516
31
0.0
0
LINE
8
0
6
CONTINUOUS
10
-0.075705
20
0.440516
30
0.0
11
-0.075705
21
0.441516
31
0.0
0
LINE
8
0
6
CONTINUOUS
10
-0.080310
20
0.372516
30
0.0
11
-0.080310
21
0.372016
31
0.0
0
LINE
8
0
6
CONTINUOUS
10
-0.080310
20
0.372016
30
0.0
11
-0.079695
21
0.372016
31
0.0
0
LINE
8
0
6
CONTINUOUS
10
-0.079200
20
0.372016
30
0.0
11
-0.078476
21
0.372016
31
0.0
0
LINE
8
0
6
CONTINUOUS
10
-0.079047
20
0.372516
30
0.0
11
-0.079200
21
0.372016
31
0.0
0
LINE
8
0
6
CONTINUOUS
10
-0.079200
20
0.387616
30
0.0
11
-0.079047
21
0.387116
31
0.0
0
LINE
8
0
6
CONTINUOUS
10
-0.078413
20
0.387616
30
0.0
11
-0.079200
21
0.387616
31
0.0
0
LINE
8
0
6
CONTINUOUS
10
-0.079047
20
0.386116
30
0.0
11
-0.079200
21
0.385616
31
0.0
0
LINE
8
0
6
CONTINUOUS
10
-0.079200
20
0.385616
30
0.0
11
-0.078476
21
0.385616
31
0.0
0
LINE
8
0
6
CONTINUOUS
10
-0.076609
20
0.401216
30
0.0
11
-0.076318
21
0.400716
31
0.0
0
LINE
8
0
6
CONTINUOUS
10
-0.075996
20
0.401216
30
0.0
11
-0.076609
21
0.401216
31
0.0
0
LINE
8
0
6
CONTINUOUS
10
-0.075705
20
0.400716
30
0.0
11
-0.075996
21
0.401216
31
0.0
0
LINE
8
0
6
CONTINUOUS
10
-0.075705
20
0.406516
30
0.0
11
-0.075705
21
0.407516
31
0.0
0
LINE
8
0
6
CONTINUOUS
10
-0.076318
20
0.407516
30
0.0
11
-0.076318
21
0.406516
31
0.0
0
LINE
8
0
6
CONTINUOUS
10
-0.075996
20
0.412816
30
0.0
11
-0.075705
21
0.413316
31
0.0
0
LINE
8
0
6
CONTINUOUS
10
-0.076608
20
0.412816
30
0.0
11
-0.075996
21
0.412816
31
0.0
0
LINE
8
0
6
CONTINUOUS
10
-0.076318
20
0.413316
30
0.0
11
-0.076608
21
0.412816
31
0.0
0
LINE
8
0
6
CONTINUOUS
10
-0.079047
20
0.414316
30
0.0
11
-0.079047
21
0.413316
31
0.0
0
LINE
8
0
6
CONTINUOUS
10
-0.076609
20
0.421616
30
0.0
11
-0.076318
21
0.421116
31
0.0
0
LINE
8
0
6
CONTINUOUS
10
-0.075996
20
0.421616
30
0.0
11
-0.076609
21
0.421616
31
0.0
0
LINE
8
0
6
CONTINUOUS
10
-0.075705
20
0.421116
30
0.0
11
-0.075996
21
0.421616
31
0.0
0
LINE
8
0
6
CONTINUOUS
10
-0.079047
20
0.420116
30
0.0
11
-0.079200
21
0.419616
31
0.0
0
LINE
8
0
6
CONTINUOUS
10
-0.079200
20
0.419616
30
0.0
11
-0.078476
21
0.419616
31
0.0
0
LINE
8
0
6
CONTINUOUS
10
-0.080310
20
0.434716
30
0.0
11
-0.080310
21
0.433716
31
0.0
0
LINE
8
0
6
CONTINUOUS
10
-0.080310
20
0.441516
30
0.0
11
-0.080310
21
0.440516
31
0.0
0
LINE
8
0
6
CONTINUOUS
10
-0.079291
20
0.287515
30
0.0
11
-0.079102
21
0.281855
31
0.0
0
LINE
8
0
6
CONTINUOUS
10
-0.067810
20
0.443516
30
0.0
11
-0.073810
21
0.443516
31
0.0
0
LINE
8
0
6
CONTINUOUS
10
-0.079810
20
0.443516
30
0.0
11
-0.079810
21
0.442016
31
0.0
0
LINE
8
0
6
CONTINUOUS
10
-0.079810
20
0.440016
30
0.0
11
-0.079810
21
0.435216
31
0.0
0
LINE
8
0
6
CONTINUOUS
10
-0.079810
20
0.433216
30
0.0
11
-0.079810
21
0.428416
31
0.0
0
LINE
8
0
6
CONTINUOUS
10
-0.079810
20
0.426416
30
0.0
11
-0.079810
21
0.421616
31
0.0
0
LINE
8
0
6
CONTINUOUS
10
-0.079810
20
0.419616
30
0.0
11
-0.079810
21
0.414816
31
0.0
0
LINE
8
0
6
CONTINUOUS
10
-0.079810
20
0.412816
30
0.0
11
-0.079810
21
0.408016
31
0.0
0
LINE
8
0
6
CONTINUOUS
10
-0.079810
20
0.406016
30
0.0
11
-0.079810
21
0.401216
31
0.0
0
LINE
8
0
6
CONTINUOUS
10
-0.079810
20
0.399216
30
0.0
11
-0.079810
21
0.394416
31
0.0
0
LINE
8
0
6
CONTINUOUS
10
-0.079810
20
0.392416
30
0.0
11
-0.079810
21
0.387616
31
0.0
0
LINE
8
0
6
CONTINUOUS
10
-0.079810
20
0.385616
30
0.0
11
-0.079810
21
0.380816
31
0.0
0
LINE
8
0
6
CONTINUOUS
10
-0.079810
20
0.378816
30
0.0
11
-0.079810
21
0.374016
31
0.0
0
LINE
8
0
6
CONTINUOUS
10
-0.079810
20
0.372016
30
0.0
11
-0.079810
21
0.290516
31
0.0
0
LINE
8
0
6
CONTINUOUS
10
-0.073310
20
0.289016
30
0.0
11
-0.067810
21
0.289016
31
0.0
0
LINE
8
0
6
CONTINUOUS
10
-0.058310
20
0.289016
30
0.0
11
-0.056810
21
0.289016
31
0.0
0
LINE
8
0
6
CONTINUOUS
10
-0.056810
20
0.289016
30
0.0
11
-0.056170
21
0.289656
31
0.0
0
LINE
8
0
6
CONTINUOUS
10
-0.077310
20
0.289016
30
0.0
11
-0.073310
21
0.289016
31
0.0
0
LINE
8
0
6
CONTINUOUS
10
-0.055810
20
0.290516
30
0.0
11
-0.055810
21
0.443516
31
0.0
0
LINE
8
0
6
CONTINUOUS
10
-0.062310
20
0.289016
30
0.0
11
-0.058310
21
0.289016
31
0.0
0
LINE
8
0
6
CONTINUOUS
10
-0.079810
20
0.463516
30
0.0
11
-0.079810
21
0.444516
31
0.0
0
LINE
8
0
6
CONTINUOUS
10
-0.073810
20
0.444516
30
0.0
11
-0.067810
21
0.444516
31
0.0
0
LINE
8
0
6
CONTINUOUS
10
-0.078210
20
0.444516
30
0.0
11
-0.073810
21
0.444516
31
0.0
0
LINE
8
0
6
CONTINUOUS
10
-0.067810
20
0.444516
30
0.0
11
-0.061810
21
0.444516
31
0.0
0
LINE
8
0
6
CONTINUOUS
10
-0.057410
20
0.444516
30
0.0
11
-0.055810
21
0.444516
31
0.0
0
LINE
8
0
6
CONTINUOUS
10
-0.055810
20
0.444516
30
0.0
11
-0.055810
21
0.463516
31
0.0
0
LINE
8
0
6
CONTINUOUS
10
-0.061810
20
0.444516
30
0.0
11
-0.057410
21
0.444516
31
0.0
0
LINE
8
0
6
CONTINUOUS
10
-0.056475
20
0.282991
30
0.0
11
-0.056324
21
0.287515
31
0.0
0
LINE
8
0
6
CONTINUOUS
10
-0.079449
20
0.289656
30
0.0
11
-0.078810
21
0.289016
31
0.0
0
LINE
8
0
6
CONTINUOUS
10
-0.078810
20
0.289016
30
0.0
11
-0.077310
21
0.289016
31
0.0
0
LINE
8
0
6
CONTINUOUS
10
-0.057410
20
0.443516
30
0.0
11
-0.061810
21
0.443516
31
0.0
0
LINE
8
0
6
CONTINUOUS
10
-0.061810
20
0.443516
30
0.0
11
-0.067810
21
0.443516
31
0.0
0
LINE
8
0
6
CONTINUOUS
10
-0.073810
20
0.443516
30
0.0
11
-0.078210
21
0.443516
31
0.0
0
LINE
8
0
6
CONTINUOUS
10
-0.077810
20
0.289016
30
0.0
11
-0.077810
21
0.288014
31
0.0
0
LINE
8
0
6
CONTINUOUS
10
-0.057810
20
0.288014
30
0.0
11
-0.057810
21
0.289016
31
0.0
0
LINE
8
0
6
CONTINUOUS
10
-0.067810
20
0.289016
30
0.0
11
-0.072810
21
0.289016
31
0.0
0
LINE
8
0
6
CONTINUOUS
10
-0.055810
20
0.443516
30
0.0
11
-0.056810
21
0.444016
31
0.0
0
LINE
8
0
6
CONTINUOUS
10
-0.057410
20
0.443516
30
0.0
11
-0.055810
21
0.443516
31
0.0
0
LINE
8
0
6
CONTINUOUS
10
-0.079810
20
0.443516
30
0.0
11
-0.078210
21
0.443516
31
0.0
0
LINE
8
0
6
CONTINUOUS
10
-0.078810
20
0.444016
30
0.0
11
-0.079810
21
0.443516
31
0.0
0
LINE
8
0
6
CONTINUOUS
10
-0.073810
20
0.443516
30
0.0
11
-0.067810
21
0.443516
31
0.0
0
LINE
8
0
6
CONTINUOUS
10
-0.067810
20
0.443516
30
0.0
11
-0.061810
21
0.443516
31
0.0
0
LINE
8
0
6
CONTINUOUS
10
-0.061810
20
0.443516
30
0.0
11
-0.057410
21
0.443516
31
0.0
0
LINE
8
0
6
CONTINUOUS
10
-0.078210
20
0.443516
30
0.0
11
-0.073810
21
0.443516
31
0.0
0
LINE
8
0
6
CONTINUOUS
10
-0.079047
20
0.387116
30
0.0
11
-0.079200
21
0.387616
31
0.0
0
LINE
8
0
6
CONTINUOUS
10
-0.079047
20
0.386116
30
0.0
11
-0.079047
21
0.387116
31
0.0
0
LINE
8
0
6
CONTINUOUS
10
-0.079200
20
0.385616
30
0.0
11
-0.079047
21
0.386116
31
0.0
0
LINE
8
0
6
CONTINUOUS
10
-0.079506
20
0.385616
30
0.0
11
-0.079200
21
0.385616
31
0.0
0
LINE
8
0
6
CONTINUOUS
10
-0.079659
20
0.386116
30
0.0
11
-0.079506
21
0.385616
31
0.0
0
LINE
8
0
6
CONTINUOUS
10
-0.079659
20
0.387116
30
0.0
11
-0.079659
21
0.386116
31
0.0
0
LINE
8
0
6
CONTINUOUS
10
-0.079506
20
0.387616
30
0.0
11
-0.079659
21
0.387116
31
0.0
0
LINE
8
0
6
CONTINUOUS
10
-0.079200
20
0.387616
30
0.0
11
-0.079506
21
0.387616
31
0.0
0
LINE
8
0
6
CONTINUOUS
10
-0.079506
20
0.428416
30
0.0
11
-0.079659
21
0.427916
31
0.0
0
LINE
8
0
6
CONTINUOUS
10
-0.079200
20
0.428416
30
0.0
11
-0.079506
21
0.428416
31
0.0
0
LINE
8
0
6
CONTINUOUS
10
-0.079047
20
0.427916
30
0.0
11
-0.079200
21
0.428416
31
0.0
0
LINE
8
0
6
CONTINUOUS
10
-0.079047
20
0.426916
30
0.0
11
-0.079047
21
0.427916
31
0.0
0
LINE
8
0
6
CONTINUOUS
10
-0.079200
20
0.426416
30
0.0
11
-0.079047
21
0.426916
31
0.0
0
LINE
8
0
6
CONTINUOUS
10
-0.079506
20
0.426416
30
0.0
11
-0.079200
21
0.426416
31
0.0
0
LINE
8
0
6
CONTINUOUS
10
-0.079659
20
0.426916
30
0.0
11
-0.079506
21
0.426416
31
0.0
0
LINE
8
0
6
CONTINUOUS
10
-0.079659
20
0.427916
30
0.0
11
-0.079659
21
0.426916
31
0.0
0
LINE
8
0
6
CONTINUOUS
10
-0.076318
20
0.399716
30
0.0
11
-0.076318
21
0.400716
31
0.0
0
LINE
8
0
6
CONTINUOUS
10
-0.076608
20
0.399216
30
0.0
11
-0.076318
21
0.399716
31
0.0
0
LINE
8
0
6
CONTINUOUS
10
-0.077190
20
0.399216
30
0.0
11
-0.076608
21
0.399216
31
0.0
0
LINE
8
0
6
CONTINUOUS
10
-0.077480
20
0.399716
30
0.0
11
-0.077190
21
0.399216
31
0.0
0
LINE
8
0
6
CONTINUOUS
10
-0.077480
20
0.400716
30
0.0
11
-0.077480
21
0.399716
31
0.0
0
LINE
8
0
6
CONTINUOUS
10
-0.077190
20
0.401216
30
0.0
11
-0.077480
21
0.400716
31
0.0
0
LINE
8
0
6
CONTINUOUS
10
-0.076609
20
0.401216
30
0.0
11
-0.077190
21
0.401216
31
0.0
0
LINE
8
0
6
CONTINUOUS
10
-0.076318
20
0.400716
30
0.0
11
-0.076609
21
0.401216
31
0.0
0
LINE
8
0
6
CONTINUOUS
10
-0.076318
20
0.433716
30
0.0
11
-0.076318
21
0.434716
31
0.0
0
LINE
8
0
6
CONTINUOUS
10
-0.076608
20
0.433216
30
0.0
11
-0.076318
21
0.433716
31
0.0
0
LINE
8
0
6
CONTINUOUS
10
-0.077190
20
0.433216
30
0.0
11
-0.076608
21
0.433216
31
0.0
0
LINE
8
0
6
CONTINUOUS
10
-0.077480
20
0.433716
30
0.0
11
-0.077190
21
0.433216
31
0.0
0
LINE
8
0
6
CONTINUOUS
10
-0.077480
20
0.434716
30
0.0
11
-0.077480
21
0.433716
31
0.0
0
LINE
8
0
6
CONTINUOUS
10
-0.077190
20
0.435216
30
0.0
11
-0.077480
21
0.434716
31
0.0
0
LINE
8
0
6
CONTINUOUS
10
-0.076609
20
0.435216
30
0.0
11
-0.077190
21
0.435216
31
0.0
0
LINE
8
0
6
CONTINUOUS
10
-0.076318
20
0.434716
30
0.0
11
-0.076609
21
0.435216
31
0.0
0
LINE
8
0
6
CONTINUOUS
10
-0.076609
20
0.374016
30
0.0
11
-0.077190
21
0.374016
31
0.0
0
LINE
8
0
6
CONTINUOUS
10
-0.076318
20
0.373516
30
0.0
11
-0.076609
21
0.374016
31
0.0
0
LINE
8
0
6
CONTINUOUS
10
-0.076318
20
0.372516
30
0.0
11
-0.076318
21
0.373516
31
0.0
0
LINE
8
0
6
CONTINUOUS
10
-0.076608
20
0.372016
30
0.0
11
-0.076318
21
0.372516
31
0.0
0
LINE
8
0
6
CONTINUOUS
10
-0.077190
20
0.372016
30
0.0
11
-0.076608
21
0.372016
31
0.0
0
LINE
8
0
6
CONTINUOUS
10
-0.077480
20
0.372516
30
0.0
11
-0.077190
21
0.372016
31
0.0
0
LINE
8
0
6
CONTINUOUS
10
-0.077480
20
0.373516
30
0.0
11
-0.077480
21
0.372516
31
0.0
0
LINE
8
0
6
CONTINUOUS
10
-0.077190
20
0.374016
30
0.0
11
-0.077480
21
0.373516
31
0.0
0
LINE
8
0
6
CONTINUOUS
10
-0.076609
20
0.414816
30
0.0
11
-0.077190
21
0.414816
31
0.0
0
LINE
8
0
6
CONTINUOUS
10
-0.076318
20
0.414316
30
0.0
11
-0.076609
21
0.414816
31
0.0
0
LINE
8
0
6
CONTINUOUS
10
-0.076318
20
0.413316
30
0.0
11
-0.076318
21
0.414316
31
0.0
0
LINE
8
0
6
CONTINUOUS
10
-0.076608
20
0.412816
30
0.0
11
-0.076318
21
0.413316
31
0.0
0
LINE
8
0
6
CONTINUOUS
10
-0.077190
20
0.412816
30
0.0
11
-0.076608
21
0.412816
31
0.0
0
LINE
8
0
6
CONTINUOUS
10
-0.077480
20
0.413316
30
0.0
11
-0.077190
21
0.412816
31
0.0
0
LINE
8
0
6
CONTINUOUS
10
-0.077480
20
0.414316
30
0.0
11
-0.077480
21
0.413316
31
0.0
0
LINE
8
0
6
CONTINUOUS
10
-0.077190
20
0.414816
30
0.0
11
-0.077480
21
0.414316
31
0.0
0
LINE
8
0
6
CONTINUOUS
10
-0.079047
20
0.434716
30
0.0
11
-0.079200
21
0.435216
31
0.0
0
LINE
8
0
6
CONTINUOUS
10
-0.079047
20
0.433716
30
0.0
11
-0.079047
21
0.434716
31
0.0
0
LINE
8
0
6
CONTINUOUS
10
-0.079200
20
0.433216
30
0.0
11
-0.079047
21
0.433716
31
0.0
0
LINE
8
0
6
CONTINUOUS
10
-0.079506
20
0.433216
30
0.0
11
-0.079200
21
0.433216
31
0.0
0
LINE
8
0
6
CONTINUOUS
10
-0.079659
20
0.433716
30
0.0
11
-0.079506
21
0.433216
31
0.0
0
LINE
8
0
6
CONTINUOUS
10
-0.079659
20
0.434716
30
0.0
11
-0.079659
21
0.433716
31
0.0
0
LINE
8
0
6
CONTINUOUS
10
-0.079506
20
0.435216
30
0.0
11
-0.079659
21
0.434716
31
0.0
0
LINE
8
0
6
CONTINUOUS
10
-0.079200
20
0.435216
30
0.0
11
-0.079506
21
0.435216
31
0.0
0
LINE
8
0
6
CONTINUOUS
10
-0.076318
20
0.379316
30
0.0
11
-0.076318
21
0.380316
31
0.0
0
LINE
8
0
6
CONTINUOUS
10
-0.076608
20
0.378816
30
0.0
11
-0.076318
21
0.379316
31
0.0
0
LINE
8
0
6
CONTINUOUS
10
-0.077190
20
0.378816
30
0.0
11
-0.076608
21
0.378816
31
0.0
0
LINE
8
0
6
CONTINUOUS
10
-0.077480
20
0.379316
30
0.0
11
-0.077190
21
0.378816
31
0.0
0
LINE
8
0
6
CONTINUOUS
10
-0.077480
20
0.380316
30
0.0
11
-0.077480
21
0.379316
31
0.0
0
LINE
8
0
6
CONTINUOUS
10
-0.077190
20
0.380816
30
0.0
11
-0.077480
21
0.380316
31
0.0
0
LINE
8
0
6
CONTINUOUS
10
-0.076609
20
0.380816
30
0.0
11
-0.077190
21
0.380816
31
0.0
0
LINE
8
0
6
CONTINUOUS
10
-0.076318
20
0.380316
30
0.0
11
-0.076609
21
0.380816
31
0.0
0
LINE
8
0
6
CONTINUOUS
10
-0.076609
20
0.394416
30
0.0
11
-0.077190
21
0.394416
31
0.0
0
LINE
8
0
6
CONTINUOUS
10
-0.076318
20
0.393916
30
0.0
11
-0.076609
21
0.394416
31
0.0
0
LINE
8
0
6
CONTINUOUS
10
-0.076318
20
0.392916
30
0.0
11
-0.076318
21
0.393916
31
0.0
0
LINE
8
0
6
CONTINUOUS
10
-0.076608
20
0.392416
30
0.0
11
-0.076318
21
0.392916
31
0.0
0
LINE
8
0
6
CONTINUOUS
10
-0.077190
20
0.392416
30
0.0
11
-0.076608
21
0.392416
31
0.0
0
LINE
8
0
6
CONTINUOUS
10
-0.077480
20
0.392916
30
0.0
11
-0.077190
21
0.392416
31
0.0
0
LINE
8
0
6
CONTINUOUS
10
-0.077480
20
0.393916
30
0.0
11
-0.077480
21
0.392916
31
0.0
0
LINE
8
0
6
CONTINUOUS
10
-0.077190
20
0.394416
30
0.0
11
-0.077480
21
0.393916
31
0.0
0
LINE
8
0
6
CONTINUOUS
10
-0.079506
20
0.374016
30
0.0
11
-0.079659
21
0.373516
31
0.0
0
LINE
8
0
6
CONTINUOUS
10
-0.079200
20
0.374016
30
0.0
11
-0.079506
21
0.374016
31
0.0
0
LINE
8
0
6
CONTINUOUS
10
-0.079047
20
0.373516
30
0.0
11
-0.079200
21
0.374016
31
0.0
0
LINE
8
0
6
CONTINUOUS
10
-0.079047
20
0.372516
30
0.0
11
-0.079047
21
0.373516
31
0.0
0
LINE
8
0
6
CONTINUOUS
10
-0.079200
20
0.372016
30
0.0
11
-0.079047
21
0.372516
31
0.0
0
LINE
8
0
6
CONTINUOUS
10
-0.079506
20
0.372016
30
0.0
11
-0.079200
21
0.372016
31
0.0
0
LINE
8
0
6
CONTINUOUS
10
-0.079659
20
0.372516
30
0.0
11
-0.079506
21
0.372016
31
0.0
0
LINE
8
0
6
CONTINUOUS
10
-0.079659
20
0.373516
30
0.0
11
-0.079659
21
0.372516
31
0.0
0
LINE
8
0
6
CONTINUOUS
10
-0.079659
20
0.400716
30
0.0
11
-0.079659
21
0.399716
31
0.0
0
LINE
8
0
6
CONTINUOUS
10
-0.079506
20
0.401216
30
0.0
11
-0.079659
21
0.400716
31
0.0
0
LINE
8
0
6
CONTINUOUS
10
-0.079200
20
0.401216
30
0.0
11
-0.079506
21
0.401216
31
0.0
0
LINE
8
0
6
CONTINUOUS
10
-0.079047
20
0.400716
30
0.0
11
-0.079200
21
0.401216
31
0.0
0
LINE
8
0
6
CONTINUOUS
10
-0.079047
20
0.399716
30
0.0
11
-0.079047
21
0.400716
31
0.0
0
LINE
8
0
6
CONTINUOUS
10
-0.079200
20
0.399216
30
0.0
11
-0.079047
21
0.399716
31
0.0
0
LINE
8
0
6
CONTINUOUS
10
-0.079506
20
0.399216
30
0.0
11
-0.079200
21
0.399216
31
0.0
0
LINE
8
0
6
CONTINUOUS
10
-0.079659
20
0.399716
30
0.0
11
-0.079506
21
0.399216
31
0.0
0
LINE
8
0
6
CONTINUOUS
10
-0.079659
20
0.413316
30
0.0
11
-0.079506
21
0.412816
31
0.0
0
LINE
8
0
6
CONTINUOUS
10
-0.079659
20
0.414316
30
0.0
11
-0.079659
21
0.413316
31
0.0
0
LINE
8
0
6
CONTINUOUS
10
-0.079506
20
0.414816
30
0.0
11
-0.079659
21
0.414316
31
0.0
0
LINE
8
0
6
CONTINUOUS
10
-0.079200
20
0.414816
30
0.0
11
-0.079506
21
0.414816
31
0.0
0
LINE
8
0
6
CONTINUOUS
10
-0.079047
20
0.414316
30
0.0
11
-0.079200
21
0.414816
31
0.0
0
LINE
8
0
6
CONTINUOUS
10
-0.079047
20
0.413316
30
0.0
11
-0.079047
21
0.414316
31
0.0
0
LINE
8
0
6
CONTINUOUS
10
-0.079200
20
0.412816
30
0.0
11
-0.079047
21
0.413316
31
0.0
0
LINE
8
0
6
CONTINUOUS
10
-0.079506
20
0.412816
30
0.0
11
-0.079200
21
0.412816
31
0.0
0
LINE
8
0
6
CONTINUOUS
10
-0.079200
20
0.442016
30
0.0
11
-0.079506
21
0.442016
31
0.0
0
LINE
8
0
6
CONTINUOUS
10
-0.079047
20
0.441516
30
0.0
11
-0.079200
21
0.442016
31
0.0
0
LINE
8
0
6
CONTINUOUS
10
-0.079047
20
0.440516
30
0.0
11
-0.079047
21
0.441516
31
0.0
0
LINE
8
0
6
CONTINUOUS
10
-0.079200
20
0.440016
30
0.0
11
-0.079047
21
0.440516
31
0.0
0
LINE
8
0
6
CONTINUOUS
10
-0.079506
20
0.440016
30
0.0
11
-0.079200
21
0.440016
31
0.0
0
LINE
8
0
6
CONTINUOUS
10
-0.079659
20
0.440516
30
0.0
11
-0.079506
21
0.440016
31
0.0
0
LINE
8
0
6
CONTINUOUS
10
-0.079659
20
0.441516
30
0.0
11
-0.079659
21
0.440516
31
0.0
0
LINE
8
0
6
CONTINUOUS
10
-0.079506
20
0.442016
30
0.0
11
-0.079659
21
0.441516
31
0.0
0
LINE
8
0
6
CONTINUOUS
10
-0.076318
20
0.420116
30
0.0
11
-0.076318
21
0.421116
31
0.0
0
LINE
8
0
6
CONTINUOUS
10
-0.076608
20
0.419616
30
0.0
11
-0.076318
21
0.420116
31
0.0
0
LINE
8
0
6
CONTINUOUS
10
-0.077190
20
0.419616
30
0.0
11
-0.076608
21
0.419616
31
0.0
0
LINE
8
0
6
CONTINUOUS
10
-0.077480
20
0.420116
30
0.0
11
-0.077190
21
0.419616
31
0.0
0
LINE
8
0
6
CONTINUOUS
10
-0.077480
20
0.421116
30
0.0
11
-0.077480
21
0.420116
31
0.0
0
LINE
8
0
6
CONTINUOUS
10
-0.077190
20
0.421616
30
0.0
11
-0.077480
21
0.421116
31
0.0
0
LINE
8
0
6
CONTINUOUS
10
-0.076609
20
0.421616
30
0.0
11
-0.077190
21
0.421616
31
0.0
0
LINE
8
0
6
CONTINUOUS
10
-0.076318
20
0.421116
30
0.0
11
-0.076609
21
0.421616
31
0.0
0
LINE
8
0
6
CONTINUOUS
10
-0.079659
20
0.406516
30
0.0
11
-0.079506
21
0.406016
31
0.0
0
LINE
8
0
6
CONTINUOUS
10
-0.079659
20
0.407516
30
0.0
11
-0.079659
21
0.406516
31
0.0
0
LINE
8
0
6
CONTINUOUS
10
-0.079506
20
0.408016
30
0.0
11
-0.079659
21
0.407516
31
0.0
0
LINE
8
0
6
CONTINUOUS
10
-0.079200
20
0.408016
30
0.0
11
-0.079506
21
0.408016
31
0.0
0
LINE
8
0
6
CONTINUOUS
10
-0.079047
20
0.407516
30
0.0
11
-0.079200
21
0.408016
31
0.0
0
LINE
8
0
6
CONTINUOUS
10
-0.079047
20
0.406516
30
0.0
11
-0.079047
21
0.407516
31
0.0
0
LINE
8
0
6
CONTINUOUS
10
-0.079200
20
0.406016
30
0.0
11
-0.079047
21
0.406516
31
0.0
0
LINE
8
0
6
CONTINUOUS
10
-0.079506
20
0.406016
30
0.0
11
-0.079200
21
0.406016
31
0.0
0
LINE
8
0
6
CONTINUOUS
10
-0.076609
20
0.408016
30
0.0
11
-0.077190
21
0.408016
31
0.0
0
LINE
8
0
6
CONTINUOUS
10
-0.076318
20
0.407516
30
0.0
11
-0.076609
21
0.408016
31
0.0
0
LINE
8
0
6
CONTINUOUS
10
-0.076318
20
0.406516
30
0.0
11
-0.076318
21
0.407516
31
0.0
0
LINE
8
0
6
CONTINUOUS
10
-0.076608
20
0.406016
30
0.0
11
-0.076318
21
0.406516
31
0.0
0
LINE
8
0
6
CONTINUOUS
10
-0.077190
20
0.406016
30
0.0
11
-0.076608
21
0.406016
31
0.0
0
LINE
8
0
6
CONTINUOUS
10
-0.077480
20
0.406516
30
0.0
11
-0.077190
21
0.406016
31
0.0
0
LINE
8
0
6
CONTINUOUS
10
-0.077480
20
0.407516
30
0.0
11
-0.077480
21
0.406516
31
0.0
0
LINE
8
0
6
CONTINUOUS
10
-0.077190
20
0.408016
30
0.0
11
-0.077480
21
0.407516
31
0.0
0
LINE
8
0
6
CONTINUOUS
10
-0.079659
20
0.420116
30
0.0
11
-0.079506
21
0.419616
31
0.0
0
LINE
8
0
6
CONTINUOUS
10
-0.079659
20
0.421116
30
0.0
11
-0.079659
21
0.420116
31
0.0
0
LINE
8
0
6
CONTINUOUS
10
-0.079506
20
0.421616
30
0.0
11
-0.079659
21
0.421116
31
0.0
0
LINE
8
0
6
CONTINUOUS
10
-0.079200
20
0.421616
30
0.0
11
-0.079506
21
0.421616
31
0.0
0
LINE
8
0
6
CONTINUOUS
10
-0.079047
20
0.421116
30
0.0
11
-0.079200
21
0.421616
31
0.0
0
LINE
8
0
6
CONTINUOUS
10
-0.079047
20
0.420116
30
0.0
11
-0.079047
21
0.421116
31
0.0
0
LINE
8
0
6
CONTINUOUS
10
-0.079200
20
0.419616
30
0.0
11
-0.079047
21
0.420116
31
0.0
0
LINE
8
0
6
CONTINUOUS
10
-0.079506
20
0.419616
30
0.0
11
-0.079200
21
0.419616
31
0.0
0
LINE
8
0
6
CONTINUOUS
10
-0.076318
20
0.427916
30
0.0
11
-0.076609
21
0.428416
31
0.0
0
LINE
8
0
6
CONTINUOUS
10
-0.076318
20
0.426916
30
0.0
11
-0.076318
21
0.427916
31
0.0
0
LINE
8
0
6
CONTINUOUS
10
-0.076608
20
0.426416
30
0.0
11
-0.076318
21
0.426916
31
0.0
0
LINE
8
0
6
CONTINUOUS
10
-0.077190
20
0.426416
30
0.0
11
-0.076608
21
0.426416
31
0.0
0
LINE
8
0
6
CONTINUOUS
10
-0.077480
20
0.426916
30
0.0
11
-0.077190
21
0.426416
31
0.0
0
LINE
8
0
6
CONTINUOUS
10
-0.077480
20
0.427916
30
0.0
11
-0.077480
21
0.426916
31
0.0
0
LINE
8
0
6
CONTINUOUS
10
-0.077190
20
0.428416
30
0.0
11
-0.077480
21
0.427916
31
0.0
0
LINE
8
0
6
CONTINUOUS
10
-0.076609
20
0.428416
30
0.0
11
-0.077190
21
0.428416
31
0.0
0
LINE
8
0
6
CONTINUOUS
10
-0.079659
20
0.392916
30
0.0
11
-0.079506
21
0.392416
31
0.0
0
LINE
8
0
6
CONTINUOUS
10
-0.079659
20
0.393916
30
0.0
11
-0.079659
21
0.392916
31
0.0
0
LINE
8
0
6
CONTINUOUS
10
-0.079506
20
0.394416
30
0.0
11
-0.079659
21
0.393916
31
0.0
0
LINE
8
0
6
CONTINUOUS
10
-0.079200
20
0.394416
30
0.0
11
-0.079506
21
0.394416
31
0.0
0
LINE
8
0
6
CONTINUOUS
10
-0.079047
20
0.393916
30
0.0
11
-0.079200
21
0.394416
31
0.0
0
LINE
8
0
6
CONTINUOUS
10
-0.079047
20
0.392916
30
0.0
11
-0.079047
21
0.393916
31
0.0
0
LINE
8
0
6
CONTINUOUS
10
-0.079200
20
0.392416
30
0.0
11
-0.079047
21
0.392916
31
0.0
0
LINE
8
0
6
CONTINUOUS
10
-0.079506
20
0.392416
30
0.0
11
-0.079200
21
0.392416
31
0.0
0
LINE
8
0
6
CONTINUOUS
10
-0.076318
20
0.386116
30
0.0
11
-0.076318
21
0.387116
31
0.0
0
LINE
8
0
6
CONTINUOUS
10
-0.076608
20
0.385616
30
0.0
11
-0.076318
21
0.386116
31
0.0
0
LINE
8
0
6
CONTINUOUS
10
-0.077190
20
0.385616
30
0.0
11
-0.076608
21
0.385616
31
0.0
0
LINE
8
0
6
CONTINUOUS
10
-0.077480
20
0.386116
30
0.0
11
-0.077190
21
0.385616
31
0.0
0
LINE
8
0
6
CONTINUOUS
10
-0.077480
20
0.387116
30
0.0
11
-0.077480
21
0.386116
31
0.0
0
LINE
8
0
6
CONTINUOUS
10
-0.077190
20
0.387616
30
0.0
11
-0.077480
21
0.387116
31
0.0
0
LINE
8
0
6
CONTINUOUS
10
-0.076609
20
0.387616
30
0.0
11
-0.077190
21
0.387616
31
0.0
0
LINE
8
0
6
CONTINUOUS
10
-0.076318
20
0.387116
30
0.0
11
-0.076609
21
0.387616
31
0.0
0
LINE
8
0
6
CONTINUOUS
10
-0.076318
20
0.441516
30
0.0
11
-0.076609
21
0.442016
31
0.0
0
LINE
8
0
6
CONTINUOUS
10
-0.076318
20
0.440516
30
0.0
11
-0.076318
21
0.441516
31
0.0
0
LINE
8
0
6
CONTINUOUS
10
-0.076608
20
0.440016
30
0.0
11
-0.076318
21
0.440516
31
0.0
0
LINE
8
0
6
CONTINUOUS
10
-0.077190
20
0.440016
30
0.0
11
-0.076608
21
0.440016
31
0.0
0
LINE
8
0
6
CONTINUOUS
10
-0.077480
20
0.440516
30
0.0
11
-0.077190
21
0.440016
31
0.0
0
LINE
8
0
6
CONTINUOUS
10
-0.077480
20
0.441516
30
0.0
11
-0.077480
21
0.440516
31
0.0
0
LINE
8
0
6
CONTINUOUS
10
-0.077190
20
0.442016
30
0.0
11
-0.077480
21
0.441516
31
0.0
0
LINE
8
0
6
CONTINUOUS
10
-0.076609
20
0.442016
30
0.0
11
-0.077190
21
0.442016
31
0.0
0
LINE
8
0
6
CONTINUOUS
10
-0.079047
20
0.380316
30
0.0
11
-0.079200
21
0.380816
31
0.0
0
LINE
8
0
6
CONTINUOUS
10
-0.079047
20
0.379316
30
0.0
11
-0.079047
21
0.380316
31
0.0
0
LINE
8
0
6
CONTINUOUS
10
-0.079200
20
0.378816
30
0.0
11
-0.079047
21
0.379316
31
0.0
0
LINE
8
0
6
CONTINUOUS
10
-0.079506
20
0.378816
30
0.0
11
-0.079200
21
0.378816
31
0.0
0
LINE
8
0
6
CONTINUOUS
10
-0.079659
20
0.379316
30
0.0
11
-0.079506
21
0.378816
31
0.0
0
LINE
8
0
6
CONTINUOUS
10
-0.079659
20
0.380316
30
0.0
11
-0.079659
21
0.379316
31
0.0
0
LINE
8
0
6
CONTINUOUS
10
-0.079506
20
0.380816
30
0.0
11
-0.079659
21
0.380316
31
0.0
0
LINE
8
0
6
CONTINUOUS
10
-0.079200
20
0.380816
30
0.0
11
-0.079506
21
0.380816
31
0.0
0
LINE
8
0
6
CONTINUOUS
10
-0.062777
20
-0.033732
30
0.0
11
-0.061657
21
-0.011619
31
0.0
0
LINE
8
0
6
CONTINUOUS
10
-0.050342
20
0.058537
30
0.0
11
-0.051041
21
0.036028
31
0.0
0
LINE
8
0
6
CONTINUOUS
10
-0.058742
20
0.105746
30
0.0
11
-0.058969
21
0.236022
31
0.0
0
LINE
8
0
6
CONTINUOUS
10
-0.059903
20
0.036823
30
0.0
11
-0.059295
21
0.059350
31
0.0
0
LINE
8
0
6
CONTINUOUS
10
-0.063968
20
-0.052658
30
0.0
11
-0.062777
21
-0.033732
31
0.0
0
LINE
8
0
6
CONTINUOUS
10
-0.078689
20
-0.033723
30
0.0
11
-0.079879
21
-0.052649
31
0.0
0
LINE
8
0
6
CONTINUOUS
10
-0.060700
20
0.012673
30
0.0
11
-0.059903
21
0.036823
31
0.0
0
LINE
8
0
6
CONTINUOUS
10
-0.079879
20
-0.052649
30
0.0
11
-0.081557
21
-0.074287
31
0.0
0
LINE
8
0
6
CONTINUOUS
10
-0.066796
20
-0.048892
30
0.0
11
-0.065620
21
-0.030155
31
0.0
0
LINE
8
0
6
CONTINUOUS
10
-0.036385
20
-0.035420
30
0.0
11
-0.036220
21
-0.013308
31
0.0
0
LINE
8
0
6
CONTINUOUS
10
-0.033139
20
0.103993
30
0.0
11
-0.033139
21
0.211504
31
0.0
0
LINE
8
0
6
CONTINUOUS
10
-0.067748
20
0.079224
30
0.0
11
-0.068058
21
0.061575
31
0.0
0
LINE
8
0
6
CONTINUOUS
10
-0.075659
20
-0.008214
30
0.0
11
-0.074731
21
0.015502
31
0.0
0
LINE
8
0
6
CONTINUOUS
10
-0.076611
20
0.012680
30
0.0
11
-0.077567
21
-0.011610
31
0.0
0
LINE
8
0
6
CONTINUOUS
10
-0.045174
20
-0.059217
30
0.0
11
-0.045269
21
-0.040008
31
0.0
0
LINE
8
0
6
CONTINUOUS
10
-0.051650
20
0.011893
30
0.0
11
-0.052106
21
-0.012387
31
0.0
0
LINE
8
0
6
CONTINUOUS
10
-0.052183
20
-0.053430
30
0.0
11
-0.051939
21
-0.075077
31
0.0
0
LINE
8
0
6
CONTINUOUS
10
-0.052106
20
-0.012387
30
0.0
11
-0.052270
21
-0.034499
31
0.0
0
LINE
8
0
6
CONTINUOUS
10
-0.050561
20
-0.038202
30
0.0
11
-0.050380
21
-0.015792
31
0.0
0
LINE
8
0
6
CONTINUOUS
10
-0.048611
20
0.056849
30
0.0
11
-0.049335
21
0.033366
31
0.0
0
LINE
8
0
6
CONTINUOUS
10
-0.044055
20
0.032027
30
0.0
11
-0.043333
21
0.055885
31
0.0
0
LINE
8
0
6
CONTINUOUS
10
-0.049024
20
0.211503
30
0.0
11
-0.049024
21
0.104913
31
0.0
0
LINE
8
0
6
CONTINUOUS
10
-0.049940
20
0.008855
30
0.0
11
-0.050380
21
-0.015792
31
0.0
0
LINE
8
0
6
CONTINUOUS
10
-0.045108
20
-0.017520
30
0.0
11
-0.044668
21
0.007317
31
0.0
0
LINE
8
0
6
CONTINUOUS
10
-0.072548
20
-0.047298
30
0.0
11
-0.071383
21
-0.028749
31
0.0
0
LINE
8
0
6
CONTINUOUS
10
-0.076757
20
-0.030150
30
0.0
11
-0.077935
21
-0.048886
31
0.0
0
LINE
8
0
6
CONTINUOUS
10
-0.047257
20
0.211503
30
0.0
11
-0.047257
21
0.104208
31
0.0
0
LINE
8
0
6
CONTINUOUS
10
-0.063593
20
0.015496
30
0.0
11
-0.062822
21
0.039269
31
0.0
0
LINE
8
0
6
CONTINUOUS
10
-0.070296
20
-0.006903
30
0.0
11
-0.071383
21
-0.028749
31
0.0
0
LINE
8
0
6
CONTINUOUS
10
-0.065620
20
-0.030155
30
0.0
11
-0.064521
21
-0.008220
31
0.0
0
LINE
8
0
6
CONTINUOUS
10
-0.073392
20
0.060938
30
0.0
11
-0.073069
21
0.078981
31
0.0
0
LINE
8
0
6
CONTINUOUS
10
-0.074869
20
0.078392
30
0.0
11
-0.075206
21
0.059358
31
0.0
0
LINE
8
0
6
CONTINUOUS
10
-0.037491
20
0.056204
30
0.0
11
-0.038216
21
0.032722
31
0.0
0
LINE
8
0
6
CONTINUOUS
10
-0.035156
20
0.035108
30
0.0
11
-0.034456
21
0.057616
31
0.0
0
LINE
8
0
6
CONTINUOUS
10
-0.052270
20
-0.034499
30
0.0
11
-0.052183
21
-0.053430
31
0.0
0
LINE
8
0
6
CONTINUOUS
10
-0.050459
20
-0.057312
30
0.0
11
-0.050561
21
-0.038202
31
0.0
0
LINE
8
0
6
CONTINUOUS
10
-0.038819
20
0.008211
30
0.0
11
-0.039261
21
-0.016437
31
0.0
0
LINE
8
0
6
CONTINUOUS
10
-0.036220
20
-0.013308
30
0.0
11
-0.035764
21
0.010973
31
0.0
0
LINE
8
0
6
CONTINUOUS
10
-0.074313
20
0.236022
30
0.0
11
-0.074598
21
0.105755
31
0.0
0
LINE
8
0
6
CONTINUOUS
10
-0.069369
20
0.016713
30
0.0
11
-0.070296
21
-0.006903
31
0.0
0
LINE
8
0
6
CONTINUOUS
10
-0.077935
20
-0.048886
30
0.0
11
-0.079577
21
-0.070257
31
0.0
0
LINE
8
0
6
CONTINUOUS
10
-0.068058
20
0.061575
30
0.0
11
-0.068611
21
0.040298
31
0.0
0
LINE
8
0
6
CONTINUOUS
10
-0.062822
20
0.039269
30
0.0
11
-0.062255
21
0.060933
31
0.0
0
LINE
8
0
6
CONTINUOUS
10
-0.061932
20
0.078975
30
0.0
11
-0.062255
21
0.060933
31
0.0
0
LINE
8
0
6
CONTINUOUS
10
-0.059295
20
0.059350
30
0.0
11
-0.058958
21
0.078384
31
0.0
0
LINE
8
0
6
CONTINUOUS
10
-0.061637
20
0.106332
30
0.0
11
-0.061152
21
0.236022
31
0.0
0
LINE
8
0
6
CONTINUOUS
10
-0.036138
20
0.103563
30
0.0
11
-0.036138
21
0.211504
31
0.0
0
LINE
8
0
6
CONTINUOUS
10
-0.041963
20
0.211503
30
0.0
11
-0.041963
21
0.103642
31
0.0
0
LINE
8
0
6
CONTINUOUS
10
-0.035764
20
0.010973
30
0.0
11
-0.035156
21
0.035108
31
0.0
0
LINE
8
0
6
CONTINUOUS
10
-0.044055
20
0.032027
30
0.0
11
-0.044668
21
0.007317
31
0.0
0
LINE
8
0
6
CONTINUOUS
10
-0.038819
20
0.008211
30
0.0
11
-0.038216
21
0.032722
31
0.0
0
LINE
8
0
6
CONTINUOUS
10
-0.076757
20
-0.030150
30
0.0
11
-0.075659
21
-0.008214
31
0.0
0
LINE
8
0
6
CONTINUOUS
10
-0.077567
20
-0.011610
30
0.0
11
-0.078689
21
-0.033723
31
0.0
0
LINE
8
0
6
CONTINUOUS
10
-0.075814
20
0.036830
30
0.0
11
-0.076611
21
0.012680
31
0.0
0
LINE
8
0
6
CONTINUOUS
10
-0.069369
20
0.016713
30
0.0
11
-0.068611
21
0.040298
31
0.0
0
LINE
8
0
6
CONTINUOUS
10
-0.073960
20
0.039274
30
0.0
11
-0.074731
21
0.015502
31
0.0
0
LINE
8
0
6
CONTINUOUS
10
-0.073960
20
0.039274
30
0.0
11
-0.073392
21
0.060938
31
0.0
0
LINE
8
0
6
CONTINUOUS
10
-0.075206
20
0.059358
30
0.0
11
-0.075814
21
0.036830
31
0.0
0
LINE
8
0
6
CONTINUOUS
10
-0.063593
20
0.015496
30
0.0
11
-0.064521
21
-0.008220
31
0.0
0
LINE
8
0
6
CONTINUOUS
10
-0.061657
20
-0.011619
30
0.0
11
-0.060700
21
0.012673
31
0.0
0
LINE
8
0
6
CONTINUOUS
10
-0.072548
20
-0.047298
30
0.0
11
-0.074176
21
-0.068480
31
0.0
0
LINE
8
0
6
CONTINUOUS
10
-0.045108
20
-0.017520
30
0.0
11
-0.045269
21
-0.040008
31
0.0
0
LINE
8
0
6
CONTINUOUS
10
-0.039440
20
-0.038846
30
0.0
11
-0.039261
21
-0.016437
31
0.0
0
LINE
8
0
6
CONTINUOUS
10
-0.039440
20
-0.038846
30
0.0
11
-0.039340
21
-0.057956
31
0.0
0
LINE
8
0
6
CONTINUOUS
10
-0.036297
20
-0.054351
30
0.0
11
-0.036385
21
-0.035420
31
0.0
0
LINE
8
0
6
CONTINUOUS
10
-0.071984
20
0.236022
30
0.0
11
-0.072745
21
0.106339
31
0.0
0
LINE
8
0
6
CONTINUOUS
10
-0.067415
20
0.106585
30
0.0
11
-0.066540
21
0.236022
31
0.0
0
LINE
8
0
6
CONTINUOUS
10
-0.050459
20
-0.057312
30
0.0
11
-0.050196
21
-0.079226
31
0.0
0
LINE
8
0
6
CONTINUOUS
10
-0.036054
20
-0.075997
30
0.0
11
-0.036297
21
-0.054351
31
0.0
0
LINE
8
0
6
CONTINUOUS
10
-0.066796
20
-0.048892
30
0.0
11
-0.068438
21
-0.070263
31
0.0
0
LINE
8
0
6
CONTINUOUS
10
-0.065645
20
-0.074295
30
0.0
11
-0.063968
21
-0.052658
31
0.0
0
LINE
8
0
6
CONTINUOUS
10
-0.045174
20
-0.059217
30
0.0
11
-0.044904
21
-0.081221
31
0.0
0
LINE
8
0
6
CONTINUOUS
10
-0.039076
20
-0.079871
30
0.0
11
-0.039340
21
-0.057956
31
0.0
0
LINE
8
0
6
CONTINUOUS
10
-0.049573
20
0.077549
30
0.0
11
-0.050342
21
0.058537
31
0.0
0
LINE
8
0
6
CONTINUOUS
10
-0.034456
20
0.057616
30
0.0
11
-0.033687
21
0.076629
31
0.0
0
LINE
8
0
6
CONTINUOUS
10
-0.047804
20
0.076846
30
0.0
11
-0.048611
21
0.056849
31
0.0
0
LINE
8
0
6
CONTINUOUS
10
-0.042510
20
0.076279
30
0.0
11
-0.043333
21
0.055885
31
0.0
0
LINE
8
0
6
CONTINUOUS
10
-0.037491
20
0.056204
30
0.0
11
-0.036685
21
0.076201
31
0.0
0
LINE
8
0
6
CONTINUOUS
10
-0.079200
20
0.380816
30
0.0
11
-0.079047
21
0.380316
31
0.0
0
LINE
8
0
6
CONTINUOUS
10
-0.078413
20
0.380816
30
0.0
11
-0.079200
21
0.380816
31
0.0
0
LINE
8
0
6
CONTINUOUS
10
-0.079047
20
0.380316
30
0.0
11
-0.078365
21
0.380316
31
0.0
0
LINE
8
0
6
CONTINUOUS
10
-0.079581
20
0.400716
30
0.0
11
-0.080310
21
0.400716
31
0.0
0
LINE
8
0
6
CONTINUOUS
10
-0.080310
20
0.399716
30
0.0
11
-0.079581
21
0.399716
31
0.0
0
LINE
8
0
6
CONTINUOUS
10
-0.080310
20
0.400716
30
0.0
11
-0.080310
21
0.399716
31
0.0
0
LINE
8
0
6
CONTINUOUS
10
-0.076318
20
0.427916
30
0.0
11
-0.076318
21
0.426916
31
0.0
0
LINE
8
0
6
CONTINUOUS
10
-0.075705
20
0.427916
30
0.0
11
-0.076318
21
0.427916
31
0.0
0
LINE
8
0
6
CONTINUOUS
10
-0.075705
20
0.426916
30
0.0
11
-0.075705
21
0.427916
31
0.0
0
LINE
8
0
6
CONTINUOUS
10
-0.076318
20
0.426916
30
0.0
11
-0.075705
21
0.426916
31
0.0
0
LINE
8
0
6
CONTINUOUS
10
-0.080310
20
0.374016
30
0.0
11
-0.080310
21
0.373516
31
0.0
0
LINE
8
0
6
CONTINUOUS
10
-0.079810
20
0.374016
30
0.0
11
-0.080310
21
0.374016
31
0.0
0
LINE
8
0
6
CONTINUOUS
10
-0.075705
20
0.392916
30
0.0
11
-0.076318
21
0.392916
31
0.0
0
LINE
8
0
6
CONTINUOUS
10
-0.075996
20
0.392416
30
0.0
11
-0.075705
21
0.392916
31
0.0
0
LINE
8
0
6
CONTINUOUS
10
-0.076608
20
0.392416
30
0.0
11
-0.075996
21
0.392416
31
0.0
0
LINE
8
0
6
CONTINUOUS
10
-0.076318
20
0.392916
30
0.0
11
-0.076608
21
0.392416
31
0.0
0
LINE
8
0
6
CONTINUOUS
10
-0.079047
20
0.392916
30
0.0
11
-0.079200
21
0.392416
31
0.0
0
LINE
8
0
6
CONTINUOUS
10
-0.078260
20
0.392916
30
0.0
11
-0.079047
21
0.392916
31
0.0
0
LINE
8
0
6
CONTINUOUS
10
-0.079200
20
0.392416
30
0.0
11
-0.078476
21
0.392416
31
0.0
0
LINE
8
0
6
CONTINUOUS
10
-0.079695
20
0.408016
30
0.0
11
-0.080310
21
0.408016
31
0.0
0
LINE
8
0
6
CONTINUOUS
10
-0.080310
20
0.407516
30
0.0
11
-0.079581
21
0.407516
31
0.0
0
LINE
8
0
6
CONTINUOUS
10
-0.080310
20
0.408016
30
0.0
11
-0.080310
21
0.407516
31
0.0
0
LINE
8
0
6
CONTINUOUS
10
-0.076318
20
0.421116
30
0.0
11
-0.076318
21
0.420116
31
0.0
0
LINE
8
0
6
CONTINUOUS
10
-0.075705
20
0.421116
30
0.0
11
-0.076318
21
0.421116
31
0.0
0
LINE
8
0
6
CONTINUOUS
10
-0.075705
20
0.420116
30
0.0
11
-0.075705
21
0.421116
31
0.0
0
LINE
8
0
6
CONTINUOUS
10
-0.076318
20
0.420116
30
0.0
11
-0.075705
21
0.420116
31
0.0
0
LINE
8
0
6
CONTINUOUS
10
-0.080310
20
0.428416
30
0.0
11
-0.080310
21
0.427916
31
0.0
0
LINE
8
0
6
CONTINUOUS
10
-0.079810
20
0.428416
30
0.0
11
-0.080310
21
0.428416
31
0.0
0
LINE
8
0
6
CONTINUOUS
10
-0.079047
20
0.440516
30
0.0
11
-0.079200
21
0.440016
31
0.0
0
LINE
8
0
6
CONTINUOUS
10
-0.078260
20
0.440516
30
0.0
11
-0.079047
21
0.440516
31
0.0
0
LINE
8
0
6
CONTINUOUS
10
-0.079200
20
0.440016
30
0.0
11
-0.078476
21
0.440016
31
0.0
0
LINE
8
0
6
CONTINUOUS
10
-0.045029
20
0.211503
30
0.0
11
-0.048376
21
0.211503
31
0.0
0
LINE
8
0
6
CONTINUOUS
10
-0.033786
20
0.211504
30
0.0
11
-0.037133
21
0.211504
31
0.0
0
LINE
8
0
6
CONTINUOUS
10
-0.030764
20
0.211504
30
0.0
11
-0.031549
21
0.211504
31
0.0
0
LINE
8
0
6
CONTINUOUS
10
-0.041081
20
0.211503
30
0.0
11
-0.045029
21
0.211503
31
0.0
0
LINE
8
0
6
CONTINUOUS
10
-0.075996
20
0.374016
30
0.0
11
-0.076609
21
0.374016
31
0.0
0
LINE
8
0
6
CONTINUOUS
10
-0.075705
20
0.373516
30
0.0
11
-0.075996
21
0.374016
31
0.0
0
LINE
8
0
6
CONTINUOUS
10
-0.076318
20
0.373516
30
0.0
11
-0.075705
21
0.373516
31
0.0
0
LINE
8
0
6
CONTINUOUS
10
-0.076609
20
0.374016
30
0.0
11
-0.076318
21
0.373516
31
0.0
0
LINE
8
0
6
CONTINUOUS
10
-0.079047
20
0.379316
30
0.0
11
-0.079200
21
0.378816
31
0.0
0
LINE
8
0
6
CONTINUOUS
10
-0.078260
20
0.379316
30
0.0
11
-0.079047
21
0.379316
31
0.0
0
LINE
8
0
6
CONTINUOUS
10
-0.079200
20
0.378816
30
0.0
11
-0.078476
21
0.378816
31
0.0
0
LINE
8
0
6
CONTINUOUS
10
-0.076318
20
0.387116
30
0.0
11
-0.076318
21
0.386116
31
0.0
0
LINE
8
0
6
CONTINUOUS
10
-0.075705
20
0.387116
30
0.0
11
-0.076318
21
0.387116
31
0.0
0
LINE
8
0
6
CONTINUOUS
10
-0.075705
20
0.386116
30
0.0
11
-0.075705
21
0.387116
31
0.0
0
LINE
8
0
6
CONTINUOUS
10
-0.076318
20
0.386116
30
0.0
11
-0.075705
21
0.386116
31
0.0
0
LINE
8
0
6
CONTINUOUS
10
-0.075996
20
0.394416
30
0.0
11
-0.076609
21
0.394416
31
0.0
0
LINE
8
0
6
CONTINUOUS
10
-0.075705
20
0.393916
30
0.0
11
-0.075996
21
0.394416
31
0.0
0
LINE
8
0
6
CONTINUOUS
10
-0.076318
20
0.393916
30
0.0
11
-0.075705
21
0.393916
31
0.0
0
LINE
8
0
6
CONTINUOUS
10
-0.076609
20
0.394416
30
0.0
11
-0.076318
21
0.393916
31
0.0
0
LINE
8
0
6
CONTINUOUS
10
-0.079200
20
0.401216
30
0.0
11
-0.079047
21
0.400716
31
0.0
0
LINE
8
0
6
CONTINUOUS
10
-0.078413
20
0.401216
30
0.0
11
-0.079200
21
0.401216
31
0.0
0
LINE
8
0
6
CONTINUOUS
10
-0.079047
20
0.400716
30
0.0
11
-0.078365
21
0.400716
31
0.0
0
LINE
8
0
6
CONTINUOUS
10
-0.079047
20
0.421116
30
0.0
11
-0.079047
21
0.420116
31
0.0
0
LINE
8
0
6
CONTINUOUS
10
-0.078260
20
0.421116
30
0.0
11
-0.079047
21
0.421116
31
0.0
0
LINE
8
0
6
CONTINUOUS
10
-0.079047
20
0.420116
30
0.0
11
-0.078365
21
0.420116
31
0.0
0
LINE
8
0
6
CONTINUOUS
10
-0.080310
20
0.419616
30
0.0
11
-0.079695
21
0.419616
31
0.0
0
LINE
8
0
6
CONTINUOUS
10
-0.080310
20
0.420116
30
0.0
11
-0.080310
21
0.419616
31
0.0
0
LINE
8
0
6
CONTINUOUS
10
-0.078365
20
0.426916
30
0.0
11
-0.079047
21
0.426916
31
0.0
0
LINE
8
0
6
CONTINUOUS
10
-0.079200
20
0.426416
30
0.0
11
-0.078476
21
0.426416
31
0.0
0
LINE
8
0
6
CONTINUOUS
10
-0.079047
20
0.426916
30
0.0
11
-0.079200
21
0.426416
31
0.0
0
LINE
8
0
6
CONTINUOUS
10
-0.076318
20
0.433716
30
0.0
11
-0.076608
21
0.433216
31
0.0
0
LINE
8
0
6
CONTINUOUS
10
-0.075705
20
0.433716
30
0.0
11
-0.076318
21
0.433716
31
0.0
0
LINE
8
0
6
CONTINUOUS
10
-0.075996
20
0.433216
30
0.0
11
-0.075705
21
0.433716
31
0.0
0
LINE
8
0
6
CONTINUOUS
10
-0.076608
20
0.433216
30
0.0
11
-0.075996
21
0.433216
31
0.0
0
LINE
8
0
6
CONTINUOUS
10
-0.076318
20
0.440516
30
0.0
11
-0.076608
21
0.440016
31
0.0
0
LINE
8
0
6
CONTINUOUS
10
-0.075705
20
0.440516
30
0.0
11
-0.076318
21
0.440516
31
0.0
0
LINE
8
0
6
CONTINUOUS
10
-0.075996
20
0.440016
30
0.0
11
-0.075705
21
0.440516
31
0.0
0
LINE
8
0
6
CONTINUOUS
10
-0.076608
20
0.440016
30
0.0
11
-0.075996
21
0.440016
31
0.0
0
LINE
8
0
6
CONTINUOUS
10
-0.076609
20
0.442016
30
0.0
11
-0.076318
21
0.441516
31
0.0
0
LINE
8
0
6
CONTINUOUS
10
-0.075996
20
0.442016
30
0.0
11
-0.076609
21
0.442016
31
0.0
0
LINE
8
0
6
CONTINUOUS
10
-0.075705
20
0.441516
30
0.0
11
-0.075996
21
0.442016
31
0.0
0
LINE
8
0
6
CONTINUOUS
10
-0.076318
20
0.441516
30
0.0
11
-0.075705
21
0.441516
31
0.0
0
LINE
8
0
6
CONTINUOUS
10
-0.079200
20
0.408016
30
0.0
11
-0.079047
21
0.407516
31
0.0
0
LINE
8
0
6
CONTINUOUS
10
-0.078413
20
0.408016
30
0.0
11
-0.079200
21
0.408016
31
0.0
0
LINE
8
0
6
CONTINUOUS
10
-0.079047
20
0.413316
30
0.0
11
-0.079200
21
0.412816
31
0.0
0
LINE
8
0
6
CONTINUOUS
10
-0.078260
20
0.413316
30
0.0
11
-0.079047
21
0.413316
31
0.0
0
LINE
8
0
6
CONTINUOUS
10
-0.079200
20
0.412816
30
0.0
11
-0.078476
21
0.412816
31
0.0
0
LINE
8
0
6
CONTINUOUS
10
-0.078476
20
0.428416
30
0.0
11
-0.079200
21
0.428416
31
0.0
0
LINE
8
0
6
CONTINUOUS
10
-0.079047
20
0.427916
30
0.0
11
-0.078365
21
0.427916
31
0.0
0
LINE
8
0
6
CONTINUOUS
10
-0.079200
20
0.428416
30
0.0
11
-0.079047
21
0.427916
31
0.0
0
LINE
8
0
6
CONTINUOUS
10
-0.078365
20
0.373516
30
0.0
11
-0.079047
21
0.373516
31
0.0
0
LINE
8
0
6
CONTINUOUS
10
-0.079047
20
0.372516
30
0.0
11
-0.078365
21
0.372516
31
0.0
0
LINE
8
0
6
CONTINUOUS
10
-0.079047
20
0.373516
30
0.0
11
-0.079047
21
0.372516
31
0.0
0
LINE
8
0
6
CONTINUOUS
10
-0.076318
20
0.379316
30
0.0
11
-0.076608
21
0.378816
31
0.0
0
LINE
8
0
6
CONTINUOUS
10
-0.075996
20
0.378816
30
0.0
11
-0.075705
21
0.379316
31
0.0
0
LINE
8
0
6
CONTINUOUS
10
-0.076608
20
0.378816
30
0.0
11
-0.075996
21
0.378816
31
0.0
0
LINE
8
0
6
CONTINUOUS
10
-0.079695
20
0.380816
30
0.0
11
-0.080310
21
0.380816
31
0.0
0
LINE
8
0
6
CONTINUOUS
10
-0.080310
20
0.380316
30
0.0
11
-0.079581
21
0.380316
31
0.0
0
LINE
8
0
6
CONTINUOUS
10
-0.080310
20
0.380816
30
0.0
11
-0.080310
21
0.380316
31
0.0
0
LINE
8
0
6
CONTINUOUS
10
-0.079047
20
0.387116
30
0.0
11
-0.079047
21
0.386116
31
0.0
0
LINE
8
0
6
CONTINUOUS
10
-0.078260
20
0.387116
30
0.0
11
-0.079047
21
0.387116
31
0.0
0
LINE
8
0
6
CONTINUOUS
10
-0.079047
20
0.386116
30
0.0
11
-0.078365
21
0.386116
31
0.0
0
LINE
8
0
6
CONTINUOUS
10
-0.079695
20
0.387616
30
0.0
11
-0.080310
21
0.387616
31
0.0
0
LINE
8
0
6
CONTINUOUS
10
-0.080310
20
0.387116
30
0.0
11
-0.079581
21
0.387116
31
0.0
0
LINE
8
0
6
CONTINUOUS
10
-0.080310
20
0.387616
30
0.0
11
-0.080310
21
0.387116
31
0.0
0
LINE
8
0
6
CONTINUOUS
10
-0.079200
20
0.394416
30
0.0
11
-0.079047
21
0.393916
31
0.0
0
LINE
8
0
6
CONTINUOUS
10
-0.078413
20
0.394416
30
0.0
11
-0.079200
21
0.394416
31
0.0
0
LINE
8
0
6
CONTINUOUS
10
-0.079047
20
0.393916
30
0.0
11
-0.078365
21
0.393916
31
0.0
0
LINE
8
0
6
CONTINUOUS
10
-0.079581
20
0.392916
30
0.0
11
-0.080310
21
0.392916
31
0.0
0
LINE
8
0
6
CONTINUOUS
10
-0.080310
20
0.392416
30
0.0
11
-0.079695
21
0.392416
31
0.0
0
LINE
8
0
6
CONTINUOUS
10
-0.080310
20
0.392916
30
0.0
11
-0.080310
21
0.392416
31
0.0
0
LINE
8
0
6
CONTINUOUS
10
-0.076318
20
0.399716
30
0.0
11
-0.076608
21
0.399216
31
0.0
0
LINE
8
0
6
CONTINUOUS
10
-0.075996
20
0.399216
30
0.0
11
-0.075705
21
0.399716
31
0.0
0
LINE
8
0
6
CONTINUOUS
10
-0.076608
20
0.399216
30
0.0
11
-0.075996
21
0.399216
31
0.0
0
LINE
8
0
6
CONTINUOUS
10
-0.079047
20
0.399716
30
0.0
11
-0.079200
21
0.399216
31
0.0
0
LINE
8
0
6
CONTINUOUS
10
-0.078260
20
0.399716
30
0.0
11
-0.079047
21
0.399716
31
0.0
0
LINE
8
0
6
CONTINUOUS
10
-0.079200
20
0.399216
30
0.0
11
-0.078476
21
0.399216
31
0.0
0
LINE
8
0
6
CONTINUOUS
10
-0.075996
20
0.408016
30
0.0
11
-0.076609
21
0.408016
31
0.0
0
LINE
8
0
6
CONTINUOUS
10
-0.075705
20
0.407516
30
0.0
11
-0.075996
21
0.408016
31
0.0
0
LINE
8
0
6
CONTINUOUS
10
-0.076318
20
0.407516
30
0.0
11
-0.075705
21
0.407516
31
0.0
0
LINE
8
0
6
CONTINUOUS
10
-0.076609
20
0.408016
30
0.0
11
-0.076318
21
0.407516
31
0.0
0
LINE
8
0
6
CONTINUOUS
10
-0.079581
20
0.406516
30
0.0
11
-0.080310
21
0.406516
31
0.0
0
LINE
8
0
6
CONTINUOUS
10
-0.080310
20
0.406016
30
0.0
11
-0.079695
21
0.406016
31
0.0
0
LINE
8
0
6
CONTINUOUS
10
-0.080310
20
0.406516
30
0.0
11
-0.080310
21
0.406016
31
0.0
0
LINE
8
0
6
CONTINUOUS
10
-0.075705
20
0.414316
30
0.0
11
-0.076318
21
0.414316
31
0.0
0
LINE
8
0
6
CONTINUOUS
10
-0.075705
20
0.413316
30
0.0
11
-0.075705
21
0.414316
31
0.0
0
LINE
8
0
6
CONTINUOUS
10
-0.076318
20
0.413316
30
0.0
11
-0.075705
21
0.413316
31
0.0
0
LINE
8
0
6
CONTINUOUS
10
-0.076318
20
0.414316
30
0.0
11
-0.076318
21
0.413316
31
0.0
0
LINE
8
0
6
CONTINUOUS
10
-0.079200
20
0.414816
30
0.0
11
-0.079047
21
0.414316
31
0.0
0
LINE
8
0
6
CONTINUOUS
10
-0.078413
20
0.414816
30
0.0
11
-0.079200
21
0.414816
31
0.0
0
LINE
8
0
6
CONTINUOUS
10
-0.079047
20
0.414316
30
0.0
11
-0.078365
21
0.414316
31
0.0
0
LINE
8
0
6
CONTINUOUS
10
-0.079581
20
0.414316
30
0.0
11
-0.080310
21
0.414316
31
0.0
0
LINE
8
0
6
CONTINUOUS
10
-0.080310
20
0.414316
30
0.0
11
-0.080310
21
0.413316
31
0.0
0
LINE
8
0
6
CONTINUOUS
10
-0.079581
20
0.433716
30
0.0
11
-0.080310
21
0.433716
31
0.0
0
LINE
8
0
6
CONTINUOUS
10
-0.080310
20
0.433216
30
0.0
11
-0.079695
21
0.433216
31
0.0
0
LINE
8
0
6
CONTINUOUS
10
-0.080310
20
0.433716
30
0.0
11
-0.080310
21
0.433216
31
0.0
0
LINE
8
0
6
CONTINUOUS
10
-0.079695
20
0.435216
30
0.0
11
-0.080310
21
0.435216
31
0.0
0
LINE
8
0
6
CONTINUOUS
10
-0.080310
20
0.434716
30
0.0
11
-0.079581
21
0.434716
31
0.0
0
LINE
8
0
6
CONTINUOUS
10
-0.080310
20
0.435216
30
0.0
11
-0.080310
21
0.434716
31
0.0
0
LINE
8
0
6
CONTINUOUS
10
-0.079581
20
0.440516
30
0.0
11
-0.080310
21
0.440516
31
0.0
0
LINE
8
0
6
CONTINUOUS
10
-0.080310
20
0.440016
30
0.0
11
-0.079695
21
0.440016
31
0.0
0
LINE
8
0
6
CONTINUOUS
10
-0.080310
20
0.440516
30
0.0
11
-0.080310
21
0.440016
31
0.0
0
LINE
8
0
6
CONTINUOUS
10
-0.079200
20
0.442016
30
0.0
11
-0.079047
21
0.441516
31
0.0
0
LINE
8
0
6
CONTINUOUS
10
-0.078413
20
0.442016
30
0.0
11
-0.079200
21
0.442016
31
0.0
0
LINE
8
0
6
CONTINUOUS
10
-0.079047
20
0.441516
30
0.0
11
-0.078260
21
0.441516
31
0.0
0
LINE
8
0
6
CONTINUOUS
10
-0.079695
20
0.442016
30
0.0
11
-0.080310
21
0.442016
31
0.0
0
LINE
8
0
6
CONTINUOUS
10
-0.080310
20
0.441516
30
0.0
11
-0.079581
21
0.441516
31
0.0
0
LINE
8
0
6
CONTINUOUS
10
-0.080310
20
0.442016
30
0.0
11
-0.080310
21
0.441516
31
0.0
0
LINE
8
0
6
CONTINUOUS
10
-0.055810
20
0.463516
30
0.0
11
-0.055810
21
0.464016
31
0.0
0
LINE
8
0
6
CONTINUOUS
10
-0.055810
20
0.464016
30
0.0
11
-0.057410
21
0.464016
31
0.0
0
LINE
8
0
6
CONTINUOUS
10
-0.061810
20
0.464016
30
0.0
11
-0.067810
21
0.464016
31
0.0
0
LINE
8
0
6
CONTINUOUS
10
-0.079810
20
0.464016
30
0.0
11
-0.079810
21
0.463516
31
0.0
0
LINE
8
0
6
CONTINUOUS
10
-0.078210
20
0.464016
30
0.0
11
-0.079810
21
0.464016
31
0.0
0
LINE
8
0
6
CONTINUOUS
10
-0.067810
20
0.464016
30
0.0
11
-0.073810
21
0.464016
31
0.0
0
LINE
8
0
6
CONTINUOUS
10
-0.073810
20
0.464016
30
0.0
11
-0.078210
21
0.464016
31
0.0
0
LINE
8
0
6
CONTINUOUS
10
-0.057410
20
0.464016
30
0.0
11
-0.061810
21
0.464016
31
0.0
0
LINE
8
0
6
CONTINUOUS
10
-0.079308
20
0.288014
30
0.0
11
-0.079291
21
0.287515
31
0.0
0
LINE
8
0
6
CONTINUOUS
10
-0.077808
20
0.288014
30
0.0
11
-0.079308
21
0.288014
31
0.0
0
LINE
8
0
6
CONTINUOUS
10
-0.067808
20
0.288014
30
0.0
11
-0.073508
21
0.288014
31
0.0
0
LINE
8
0
6
CONTINUOUS
10
-0.062108
20
0.288014
30
0.0
11
-0.067808
21
0.288014
31
0.0
0
LINE
8
0
6
CONTINUOUS
10
-0.055810
20
0.290016
30
0.0
11
-0.055810
21
0.290516
31
0.0
0
LINE
8
0
6
CONTINUOUS
10
-0.056170
20
0.289656
30
0.0
11
-0.055810
21
0.290016
31
0.0
0
LINE
8
0
6
CONTINUOUS
10
-0.055810
20
0.290016
30
0.0
11
-0.057410
21
0.290016
31
0.0
0
LINE
8
0
6
CONTINUOUS
10
-0.057410
20
0.290016
30
0.0
11
-0.061810
21
0.290016
31
0.0
0
LINE
8
0
6
CONTINUOUS
10
-0.057808
20
0.288014
30
0.0
11
-0.062108
21
0.288014
31
0.0
0
LINE
8
0
6
CONTINUOUS
10
-0.056308
20
0.288014
30
0.0
11
-0.057808
21
0.288014
31
0.0
0
LINE
8
0
6
CONTINUOUS
10
-0.056324
20
0.287515
30
0.0
11
-0.056308
21
0.288014
31
0.0
0
LINE
8
0
6
CONTINUOUS
10
-0.073508
20
0.288014
30
0.0
11
-0.077808
21
0.288014
31
0.0
0
LINE
8
0
6
CONTINUOUS
10
-0.073810
20
0.290016
30
0.0
11
-0.078210
21
0.290016
31
0.0
0
LINE
8
0
6
CONTINUOUS
10
-0.067810
20
0.290016
30
0.0
11
-0.061810
21
0.290016
31
0.0
0
LINE
8
0
6
CONTINUOUS
10
-0.079810
20
0.290016
30
0.0
11
-0.079449
21
0.289656
31
0.0
0
LINE
8
0
6
CONTINUOUS
10
-0.079810
20
0.290516
30
0.0
11
-0.079810
21
0.290016
31
0.0
0
LINE
8
0
6
CONTINUOUS
10
-0.079810
20
0.290016
30
0.0
11
-0.078210
21
0.290016
31
0.0
0
LINE
8
0
6
CONTINUOUS
10
-0.067810
20
0.290016
30
0.0
11
-0.073810
21
0.290016
31
0.0
0
LINE
8
0
6
CONTINUOUS
10
-0.061810
20
0.444516
30
0.0
11
-0.067810
21
0.444516
31
0.0
0
LINE
8
0
6
CONTINUOUS
10
-0.067810
20
0.444016
30
0.0
11
-0.062310
21
0.444016
31
0.0
0
LINE
8
0
6
CONTINUOUS
10
-0.079810
20
0.444516
30
0.0
11
-0.078810
21
0.444016
31
0.0
0
LINE
8
0
6
CONTINUOUS
10
-0.078210
20
0.444516
30
0.0
11
-0.079810
21
0.444516
31
0.0
0
LINE
8
0
6
CONTINUOUS
10
-0.078810
20
0.444016
30
0.0
11
-0.077310
21
0.444016
31
0.0
0
LINE
8
0
6
CONTINUOUS
10
-0.073810
20
0.444516
30
0.0
11
-0.078210
21
0.444516
31
0.0
0
LINE
8
0
6
CONTINUOUS
10
-0.077310
20
0.444016
30
0.0
11
-0.073310
21
0.444016
31
0.0
0
LINE
8
0
6
CONTINUOUS
10
-0.057410
20
0.444516
30
0.0
11
-0.061810
21
0.444516
31
0.0
0
LINE
8
0
6
CONTINUOUS
10
-0.062310
20
0.444016
30
0.0
11
-0.058310
21
0.444016
31
0.0
0
LINE
8
0
6
CONTINUOUS
10
-0.055810
20
0.444516
30
0.0
11
-0.057410
21
0.444516
31
0.0
0
LINE
8
0
6
CONTINUOUS
10
-0.056810
20
0.444016
30
0.0
11
-0.055810
21
0.444516
31
0.0
0
LINE
8
0
6
CONTINUOUS
10
-0.058310
20
0.444016
30
0.0
11
-0.056810
21
0.444016
31
0.0
0
LINE
8
0
6
CONTINUOUS
10
-0.067810
20
0.444516
30
0.0
11
-0.073810
21
0.444516
31
0.0
0
LINE
8
0
6
CONTINUOUS
10
-0.073310
20
0.444016
30
0.0
11
-0.067810
21
0.444016
31
0.0
0
LINE
8
0
6
CONTINUOUS
10
-0.051041
20
0.036028
30
0.0
11
-0.051650
21
0.011893
31
0.0
0
LINE
8
0
6
CONTINUOUS
10
-0.049940
20
0.008855
30
0.0
11
-0.049335
21
0.033366
31
0.0
0
LINE
8
0
6
CONTINUOUS
10
-0.049184
20
0.091185
30
0.0
11
-0.049573
21
0.077549
31
0.0
0
LINE
8
0
6
CONTINUOUS
10
-0.049024
20
0.104913
30
0.0
11
-0.049184
21
0.091185
31
0.0
0
LINE
8
0
6
CONTINUOUS
10
-0.033299
20
0.090265
30
0.0
11
-0.033139
21
0.103993
31
0.0
0
LINE
8
0
6
CONTINUOUS
10
-0.036138
20
0.103563
30
0.0
11
-0.036298
21
0.089835
31
0.0
0
LINE
8
0
6
CONTINUOUS
10
-0.033687
20
0.076629
30
0.0
11
-0.033299
21
0.090265
31
0.0
0
LINE
8
0
6
CONTINUOUS
10
-0.036298
20
0.089835
30
0.0
11
-0.036685
21
0.076201
31
0.0
0
LINE
8
0
6
CONTINUOUS
10
-0.058958
20
0.078384
30
0.0
11
-0.058795
21
0.092025
31
0.0
0
LINE
8
0
6
CONTINUOUS
10
-0.058795
20
0.092025
30
0.0
11
-0.058742
21
0.105746
31
0.0
0
LINE
8
0
6
CONTINUOUS
10
-0.042123
20
0.089914
30
0.0
11
-0.041963
21
0.103642
31
0.0
0
LINE
8
0
6
CONTINUOUS
10
-0.047257
20
0.104208
30
0.0
11
-0.047418
21
0.090480
31
0.0
0
LINE
8
0
6
CONTINUOUS
10
-0.042510
20
0.076279
30
0.0
11
-0.042123
21
0.089914
31
0.0
0
LINE
8
0
6
CONTINUOUS
10
-0.047418
20
0.090480
30
0.0
11
-0.047804
21
0.076846
31
0.0
0
LINE
8
0
6
CONTINUOUS
10
-0.061932
20
0.078975
30
0.0
11
-0.061745
21
0.092614
31
0.0
0
LINE
8
0
6
CONTINUOUS
10
-0.061745
20
0.092614
30
0.0
11
-0.061637
21
0.106332
31
0.0
0
LINE
8
0
6
CONTINUOUS
10
-0.067551
20
0.092866
30
0.0
11
-0.067415
21
0.106585
31
0.0
0
LINE
8
0
6
CONTINUOUS
10
-0.067748
20
0.079224
30
0.0
11
-0.067551
21
0.092866
31
0.0
0
LINE
8
0
6
CONTINUOUS
10
-0.072873
20
0.092620
30
0.0
11
-0.072745
21
0.106339
31
0.0
0
LINE
8
0
6
CONTINUOUS
10
-0.074598
20
0.105755
30
0.0
11
-0.074690
21
0.092034
31
0.0
0
LINE
8
0
6
CONTINUOUS
10
-0.073069
20
0.078981
30
0.0
11
-0.072873
21
0.092620
31
0.0
0
LINE
8
0
6
CONTINUOUS
10
-0.074690
20
0.092034
30
0.0
11
-0.074869
21
0.078392
31
0.0
0
LINE
8
0
6
CONTINUOUS
10
-0.079810
20
0.421116
30
0.0
11
-0.080310
21
0.421116
31
0.0
0
LINE
8
0
6
CONTINUOUS
10
-0.080310
20
0.420116
30
0.0
11
-0.079810
21
0.420116
31
0.0
0
LINE
8
0
6
CONTINUOUS
10
-0.080310
20
0.421116
30
0.0
11
-0.080310
21
0.420116
31
0.0
0
LINE
8
0
6
CONTINUOUS
10
-0.079200
20
0.435216
30
0.0
11
-0.079047
21
0.434716
31
0.0
0
LINE
8
0
6
CONTINUOUS
10
-0.078413
20
0.435216
30
0.0
11
-0.079200
21
0.435216
31
0.0
0
LINE
8
0
6
CONTINUOUS
10
-0.079047
20
0.434716
30
0.0
11
-0.078365
21
0.434716
31
0.0
0
LINE
8
0
6
CONTINUOUS
10
-0.080310
20
0.373516
30
0.0
11
-0.080310
21
0.372516
31
0.0
0
LINE
8
0
6
CONTINUOUS
10
-0.079810
20
0.373516
30
0.0
11
-0.080310
21
0.373516
31
0.0
0
LINE
8
0
6
CONTINUOUS
10
-0.080310
20
0.372516
30
0.0
11
-0.079581
21
0.372516
31
0.0
0
LINE
8
0
6
CONTINUOUS
10
-0.075705
20
0.372516
30
0.0
11
-0.076318
21
0.372516
31
0.0
0
LINE
8
0
6
CONTINUOUS
10
-0.075996
20
0.372016
30
0.0
11
-0.075705
21
0.372516
31
0.0
0
LINE
8
0
6
CONTINUOUS
10
-0.076608
20
0.372016
30
0.0
11
-0.075996
21
0.372016
31
0.0
0
LINE
8
0
6
CONTINUOUS
10
-0.076318
20
0.372516
30
0.0
11
-0.076608
21
0.372016
31
0.0
0
LINE
8
0
6
CONTINUOUS
10
-0.076318
20
0.380316
30
0.0
11
-0.076318
21
0.379316
31
0.0
0
LINE
8
0
6
CONTINUOUS
10
-0.075705
20
0.380316
30
0.0
11
-0.076318
21
0.380316
31
0.0
0
LINE
8
0
6
CONTINUOUS
10
-0.075705
20
0.379316
30
0.0
11
-0.075705
21
0.380316
31
0.0
0
LINE
8
0
6
CONTINUOUS
10
-0.076318
20
0.379316
30
0.0
11
-0.075705
21
0.379316
31
0.0
0
LINE
8
0
6
CONTINUOUS
10
-0.079581
20
0.379316
30
0.0
11
-0.080310
21
0.379316
31
0.0
0
LINE
8
0
6
CONTINUOUS
10
-0.080310
20
0.378816
30
0.0
11
-0.079695
21
0.378816
31
0.0
0
LINE
8
0
6
CONTINUOUS
10
-0.080310
20
0.379316
30
0.0
11
-0.080310
21
0.378816
31
0.0
0
LINE
8
0
6
CONTINUOUS
10
-0.079581
20
0.386116
30
0.0
11
-0.080310
21
0.386116
31
0.0
0
LINE
8
0
6
CONTINUOUS
10
-0.080310
20
0.385616
30
0.0
11
-0.079695
21
0.385616
31
0.0
0
LINE
8
0
6
CONTINUOUS
10
-0.080310
20
0.386116
30
0.0
11
-0.080310
21
0.385616
31
0.0
0
LINE
8
0
6
CONTINUOUS
10
-0.079695
20
0.394416
30
0.0
11
-0.080310
21
0.394416
31
0.0
0
LINE
8
0
6
CONTINUOUS
10
-0.080310
20
0.393916
30
0.0
11
-0.079581
21
0.393916
31
0.0
0
LINE
8
0
6
CONTINUOUS
10
-0.080310
20
0.394416
30
0.0
11
-0.080310
21
0.393916
31
0.0
0
LINE
8
0
6
CONTINUOUS
10
-0.076318
20
0.400716
30
0.0
11
-0.076318
21
0.399716
31
0.0
0
LINE
8
0
6
CONTINUOUS
10
-0.075705
20
0.400716
30
0.0
11
-0.076318
21
0.400716
31
0.0
0
LINE
8
0
6
CONTINUOUS
10
-0.075705
20
0.399716
30
0.0
11
-0.075705
21
0.400716
31
0.0
0
LINE
8
0
6
CONTINUOUS
10
-0.076318
20
0.399716
30
0.0
11
-0.075705
21
0.399716
31
0.0
0
LINE
8
0
6
CONTINUOUS
10
-0.075705
20
0.406516
30
0.0
11
-0.076318
21
0.406516
31
0.0
0
LINE
8
0
6
CONTINUOUS
10
-0.075996
20
0.406016
30
0.0
11
-0.075705
21
0.406516
31
0.0
0
LINE
8
0
6
CONTINUOUS
10
-0.076608
20
0.406016
30
0.0
11
-0.075996
21
0.406016
31
0.0
0
LINE
8
0
6
CONTINUOUS
10
-0.076318
20
0.406516
30
0.0
11
-0.076608
21
0.406016
31
0.0
0
LINE
8
0
6
CONTINUOUS
10
-0.079047
20
0.407516
30
0.0
11
-0.079047
21
0.406516
31
0.0
0
LINE
8
0
6
CONTINUOUS
10
-0.078260
20
0.407516
30
0.0
11
-0.079047
21
0.407516
31
0.0
0
LINE
8
0
6
CONTINUOUS
10
-0.079047
20
0.406516
30
0.0
11
-0.078365
21
0.406516
31
0.0
0
LINE
8
0
6
CONTINUOUS
10
-0.079581
20
0.413316
30
0.0
11
-0.080310
21
0.413316
31
0.0
0
LINE
8
0
6
CONTINUOUS
10
-0.080310
20
0.412816
30
0.0
11
-0.079695
21
0.412816
31
0.0
0
LINE
8
0
6
CONTINUOUS
10
-0.080310
20
0.413316
30
0.0
11
-0.080310
21
0.412816
31
0.0
0
LINE
8
0
6
CONTINUOUS
10
-0.080310
20
0.427916
30
0.0
11
-0.080310
21
0.426916
31
0.0
0
LINE
8
0
6
CONTINUOUS
10
-0.079810
20
0.427916
30
0.0
11
-0.080310
21
0.427916
31
0.0
0
LINE
8
0
6
CONTINUOUS
10
-0.080310
20
0.426916
30
0.0
11
-0.079581
21
0.426916
31
0.0
0
LINE
8
0
6
CONTINUOUS
10
-0.079047
20
0.433716
30
0.0
11
-0.079200
21
0.433216
31
0.0
0
LINE
8
0
6
CONTINUOUS
10
-0.078260
20
0.433716
30
0.0
11
-0.079047
21
0.433716
31
0.0
0
LINE
8
0
6
CONTINUOUS
10
-0.079200
20
0.433216
30
0.0
11
-0.078476
21
0.433216
31
0.0
0
LINE
8
0
6
CONTINUOUS
10
-0.076609
20
0.435216
30
0.0
11
-0.076318
21
0.434716
31
0.0
0
LINE
8
0
6
CONTINUOUS
10
-0.075996
20
0.435216
30
0.0
11
-0.076609
21
0.435216
31
0.0
0
LINE
8
0
6
CONTINUOUS
10
-0.075705
20
0.434716
30
0.0
11
-0.075996
21
0.435216
31
0.0
0
LINE
8
0
6
CONTINUOUS
10
-0.076318
20
0.434716
30
0.0
11
-0.075705
21
0.434716
31
0.0
0
LINE
8
0
6
CONTINUOUS
10
-0.060989
20
-0.462112
30
0.0
11
-0.060989
21
-0.468112
31
0.0
0
LINE
8
0
6
CONTINUOUS
10
0.061819
20
-0.469112
30
0.0
11
0.063011
21
-0.469112
31
0.0
0
LINE
8
0
6
CONTINUOUS
10
0.063011
20
-0.469112
30
0.0
11
0.063011
21
-0.468112
31
0.0
0
LINE
8
0
6
CONTINUOUS
10
0.058291
20
-0.469112
30
0.0
11
0.061819
21
-0.469112
31
0.0
0
LINE
8
0
6
CONTINUOUS
10
0.052562
20
-0.469112
30
0.0
11
0.058291
21
-0.469112
31
0.0
0
LINE
8
0
6
CONTINUOUS
10
0.044851
20
-0.469112
30
0.0
11
0.052562
21
-0.469112
31
0.0
0
LINE
8
0
6
CONTINUOUS
10
0.035456
20
-0.469112
30
0.0
11
0.044851
21
-0.469112
31
0.0
0
LINE
8
0
6
CONTINUOUS
10
0.024737
20
-0.469112
30
0.0
11
0.035456
21
-0.469112
31
0.0
0
LINE
8
0
6
CONTINUOUS
10
0.013106
20
-0.469112
30
0.0
11
0.024737
21
-0.469112
31
0.0
0
LINE
8
0
6
CONTINUOUS
10
0.001011
20
-0.469112
30
0.0
11
0.013106
21
-0.469112
31
0.0
0
LINE
8
0
6
CONTINUOUS
10
-0.011085
20
-0.469112
30
0.0
11
0.001011
21
-0.469112
31
0.0
0
LINE
8
0
6
CONTINUOUS
10
-0.022716
20
-0.469112
30
0.0
11
-0.011085
21
-0.469112
31
0.0
0
LINE
8
0
6
CONTINUOUS
10
-0.033435
20
-0.469112
30
0.0
11
-0.022716
21
-0.469112
31
0.0
0
LINE
8
0
6
CONTINUOUS
10
-0.042830
20
-0.469112
30
0.0
11
-0.033435
21
-0.469112
31
0.0
0
LINE
8
0
6
CONTINUOUS
10
-0.050540
20
-0.469112
30
0.0
11
-0.042830
21
-0.469112
31
0.0
0
LINE
8
0
6
CONTINUOUS
10
-0.056270
20
-0.469112
30
0.0
11
-0.050540
21
-0.469112
31
0.0
0
LINE
8
0
6
CONTINUOUS
10
-0.059798
20
-0.469112
30
0.0
11
-0.056270
21
-0.469112
31
0.0
0
LINE
8
0
6
CONTINUOUS
10
-0.060989
20
-0.469112
30
0.0
11
-0.059798
21
-0.469112
31
0.0
0
LINE
8
0
6
CONTINUOUS
10
-0.060989
20
-0.468112
30
0.0
11
-0.060989
21
-0.469112
31
0.0
0
LINE
8
0
6
CONTINUOUS
10
0.063011
20
-0.468112
30
0.0
11
0.063011
21
-0.462112
31
0.0
0
LINE
8
0
6
CONTINUOUS
10
-0.060989
20
-0.456112
30
0.0
11
-0.060989
21
-0.462112
31
0.0
0
LINE
8
0
6
CONTINUOUS
10
0.063011
20
-0.456112
30
0.0
11
0.063011
21
-0.455112
31
0.0
0
LINE
8
0
6
CONTINUOUS
10
0.063011
20
-0.455112
30
0.0
11
0.061819
21
-0.455112
31
0.0
0
LINE
8
0
6
CONTINUOUS
10
0.061819
20
-0.455112
30
0.0
11
0.058291
21
-0.455112
31
0.0
0
LINE
8
0
6
CONTINUOUS
10
0.058291
20
-0.455112
30
0.0
11
0.052562
21
-0.455112
31
0.0
0
LINE
8
0
6
CONTINUOUS
10
0.052562
20
-0.455112
30
0.0
11
0.044851
21
-0.455112
31
0.0
0
LINE
8
0
6
CONTINUOUS
10
0.044851
20
-0.455112
30
0.0
11
0.035456
21
-0.455112
31
0.0
0
LINE
8
0
6
CONTINUOUS
10
0.035456
20
-0.455112
30
0.0
11
0.024737
21
-0.455112
31
0.0
0
LINE
8
0
6
CONTINUOUS
10
0.024737
20
-0.455112
30
0.0
11
0.013106
21
-0.455112
31
0.0
0
LINE
8
0
6
CONTINUOUS
10
0.013106
20
-0.455112
30
0.0
11
0.001011
21
-0.455112
31
0.0
0
LINE
8
0
6
CONTINUOUS
10
0.001011
20
-0.455112
30
0.0
11
-0.011085
21
-0.455112
31
0.0
0
LINE
8
0
6
CONTINUOUS
10
-0.011085
20
-0.455112
30
0.0
11
-0.022716
21
-0.455112
31
0.0
0
LINE
8
0
6
CONTINUOUS
10
-0.022716
20
-0.455112
30
0.0
11
-0.033435
21
-0.455112
31
0.0
0
LINE
8
0
6
CONTINUOUS
10
-0.033435
20
-0.455112
30
0.0
11
-0.042830
21
-0.455112
31
0.0
0
LINE
8
0
6
CONTINUOUS
10
-0.042830
20
-0.455112
30
0.0
11
-0.050540
21
-0.455112
31
0.0
0
LINE
8
0
6
CONTINUOUS
10
-0.050540
20
-0.455112
30
0.0
11
-0.056270
21
-0.455112
31
0.0
0
LINE
8
0
6
CONTINUOUS
10
-0.056270
20
-0.455112
30
0.0
11
-0.059798
21
-0.455112
31
0.0
0
LINE
8
0
6
CONTINUOUS
10
-0.060989
20
-0.455112
30
0.0
11
-0.060989
21
-0.456112
31
0.0
0
LINE
8
0
6
CONTINUOUS
10
-0.059798
20
-0.455112
30
0.0
11
-0.060989
21
-0.455112
31
0.0
0
LINE
8
0
6
CONTINUOUS
10
0.063011
20
-0.462112
30
0.0
11
0.063011
21
-0.456112
31
0.0
0
LINE
8
0
6
CONTINUOUS
10
-0.006847
20
0.430237
30
0.0
11
-0.003120
21
0.430594
31
0.0
0
LINE
8
0
6
CONTINUOUS
10
-0.009805
20
0.429681
30
0.0
11
-0.006847
21
0.430237
31
0.0
0
LINE
8
0
6
CONTINUOUS
10
-0.011704
20
0.428980
30
0.0
11
-0.009805
21
0.429681
31
0.0
0
LINE
8
0
6
CONTINUOUS
10
-0.012358
20
0.429144
30
0.0
11
-0.012358
21
0.428203
31
0.0
0
LINE
8
0
6
CONTINUOUS
10
-0.012358
20
0.428203
30
0.0
11
-0.011704
21
0.428980
31
0.0
0
LINE
8
0
6
CONTINUOUS
10
-0.012358
20
0.428203
30
0.0
11
-0.011704
21
0.427426
31
0.0
0
LINE
8
0
6
CONTINUOUS
10
-0.011704
20
0.427426
30
0.0
11
-0.009805
21
0.426725
31
0.0
0
LINE
8
0
6
CONTINUOUS
10
-0.009805
20
0.426725
30
0.0
11
-0.006847
21
0.426169
31
0.0
0
LINE
8
0
6
CONTINUOUS
10
-0.006847
20
0.426169
30
0.0
11
-0.003120
21
0.425811
31
0.0
0
LINE
8
0
6
CONTINUOUS
10
-0.003120
20
0.425811
30
0.0
11
0.001011
21
0.425688
31
0.0
0
LINE
8
0
6
CONTINUOUS
10
0.001011
20
0.425688
30
0.0
11
0.005142
21
0.425811
31
0.0
0
LINE
8
0
6
CONTINUOUS
10
0.005142
20
0.425811
30
0.0
11
0.008869
21
0.426169
31
0.0
0
LINE
8
0
6
CONTINUOUS
10
0.008869
20
0.426169
30
0.0
11
0.011826
21
0.426725
31
0.0
0
LINE
8
0
6
CONTINUOUS
10
0.011826
20
0.426725
30
0.0
11
0.013725
21
0.427426
31
0.0
0
LINE
8
0
6
CONTINUOUS
10
0.013725
20
0.427426
30
0.0
11
0.014379
21
0.428203
31
0.0
0
LINE
8
0
6
CONTINUOUS
10
0.014379
20
0.428203
30
0.0
11
0.014379
21
0.429144
31
0.0
0
LINE
8
0
6
CONTINUOUS
10
0.013725
20
0.428980
30
0.0
11
0.014379
21
0.428203
31
0.0
0
LINE
8
0
6
CONTINUOUS
10
0.011826
20
0.429680
30
0.0
11
0.013725
21
0.428980
31
0.0
0
LINE
8
0
6
CONTINUOUS
10
0.008869
20
0.430237
30
0.0
11
0.011826
21
0.429680
31
0.0
0
LINE
8
0
6
CONTINUOUS
10
0.005142
20
0.430594
30
0.0
11
0.008869
21
0.430237
31
0.0
0
LINE
8
0
6
CONTINUOUS
10
0.001011
20
0.430717
30
0.0
11
0.005142
21
0.430594
31
0.0
0
LINE
8
0
6
CONTINUOUS
10
-0.003120
20
0.430594
30
0.0
11
0.001011
21
0.430717
31
0.0
0
LINE
8
0
6
CONTINUOUS
10
0.014379
20
0.429144
30
0.0
11
0.014379
21
0.448945
31
0.0
0
LINE
8
0
6
CONTINUOUS
10
-0.012358
20
0.448945
30
0.0
11
-0.012358
21
0.429144
31
0.0
0
LINE
8
0
6
CONTINUOUS
10
-0.004966
20
0.429749
30
0.0
11
-0.002132
21
0.430021
31
0.0
0
LINE
8
0
6
CONTINUOUS
10
-0.007215
20
0.429326
30
0.0
11
-0.004966
21
0.429749
31
0.0
0
LINE
8
0
6
CONTINUOUS
10
-0.008659
20
0.428793
30
0.0
11
-0.007215
21
0.429326
31
0.0
0
LINE
8
0
6
CONTINUOUS
10
-0.009157
20
0.428203
30
0.0
11
-0.008659
21
0.428793
31
0.0
0
LINE
8
0
6
CONTINUOUS
10
0.010681
20
0.428793
30
0.0
11
0.011178
21
0.428203
31
0.0
0
LINE
8
0
6
CONTINUOUS
10
0.009237
20
0.429326
30
0.0
11
0.010681
21
0.428793
31
0.0
0
LINE
8
0
6
CONTINUOUS
10
0.006988
20
0.429749
30
0.0
11
0.009237
21
0.429326
31
0.0
0
LINE
8
0
6
CONTINUOUS
10
0.004153
20
0.430021
30
0.0
11
0.006988
21
0.429749
31
0.0
0
LINE
8
0
6
CONTINUOUS
10
0.001011
20
0.430114
30
0.0
11
0.004153
21
0.430021
31
0.0
0
LINE
8
0
6
CONTINUOUS
10
-0.002132
20
0.430021
30
0.0
11
0.001011
21
0.430114
31
0.0
0
LINE
8
0
6
CONTINUOUS
10
-0.007215
20
0.427079
30
0.0
11
-0.004966
21
0.426656
31
0.0
0
LINE
8
0
6
CONTINUOUS
10
0.004153
20
0.426384
30
0.0
11
0.006988
21
0.426656
31
0.0
0
LINE
8
0
6
CONTINUOUS
10
0.006988
20
0.426656
30
0.0
11
0.009237
21
0.427079
31
0.0
0
LINE
8
0
6
CONTINUOUS
10
-0.004966
20
0.426656
30
0.0
11
-0.002132
21
0.426384
31
0.0
0
LINE
8
0
6
CONTINUOUS
10
0.009237
20
0.427079
30
0.0
11
0.010681
21
0.427612
31
0.0
0
LINE
8
0
6
CONTINUOUS
10
-0.002132
20
0.426384
30
0.0
11
0.001011
21
0.426291
31
0.0
0
LINE
8
0
6
CONTINUOUS
10
-0.009157
20
0.428203
30
0.0
11
-0.008659
21
0.427612
31
0.0
0
LINE
8
0
6
CONTINUOUS
10
0.010681
20
0.427612
30
0.0
11
0.011178
21
0.428203
31
0.0
0
LINE
8
0
6
CONTINUOUS
10
0.001011
20
0.426291
30
0.0
11
0.004153
21
0.426384
31
0.0
0
LINE
8
0
6
CONTINUOUS
10
-0.008659
20
0.427612
30
0.0
11
-0.007215
21
0.427079
31
0.0
0
LINE
8
0
6
CONTINUOUS
10
0.023471
20
0.238541
30
0.0
11
0.024840
21
0.242884
31
0.0
0
LINE
8
0
6
CONTINUOUS
10
0.030457
20
0.246753
30
0.0
11
0.051656
21
0.252167
31
0.0
0
LINE
8
0
6
CONTINUOUS
10
0.040863
20
0.294821
30
0.0
11
0.029691
21
0.291945
31
0.0
0
LINE
8
0
6
CONTINUOUS
10
0.024840
20
0.293158
30
0.0
11
0.023472
21
0.296806
31
0.0
0
LINE
8
0
6
CONTINUOUS
10
-0.018267
20
0.403950
30
0.0
11
-0.018367
21
0.398781
31
0.0
0
LINE
8
0
6
CONTINUOUS
10
0.023763
20
0.291774
30
0.0
11
0.022395
21
0.295423
31
0.0
0
LINE
8
0
6
CONTINUOUS
10
0.020638
20
0.246155
30
0.0
11
0.023763
21
0.243722
31
0.0
0
LINE
8
0
6
CONTINUOUS
10
0.024840
20
0.293158
30
0.0
11
0.023763
21
0.291774
31
0.0
0
LINE
8
0
6
CONTINUOUS
10
0.028837
20
0.291726
30
0.0
11
0.024840
21
0.293158
31
0.0
0
LINE
8
0
6
CONTINUOUS
10
0.020638
20
0.287760
30
0.0
11
0.015771
21
0.281508
31
0.0
0
LINE
8
0
6
CONTINUOUS
10
0.020360
20
0.398782
30
0.0
11
0.020220
21
0.403950
31
0.0
0
LINE
8
0
6
CONTINUOUS
10
0.023763
20
0.291774
30
0.0
11
0.020638
21
0.287760
31
0.0
0
LINE
8
0
6
CONTINUOUS
10
0.027761
20
0.290342
30
0.0
11
0.023763
21
0.291774
31
0.0
0
LINE
8
0
6
CONTINUOUS
10
0.024840
20
0.242884
30
0.0
11
0.028837
21
0.246339
31
0.0
0
LINE
8
0
6
CONTINUOUS
10
0.023763
20
0.243722
30
0.0
11
0.024840
21
0.242884
31
0.0
0
LINE
8
0
6
CONTINUOUS
10
0.023011
20
0.226360
30
0.0
11
0.023011
21
0.234933
31
0.0
0
LINE
8
0
6
CONTINUOUS
10
0.051594
20
0.256488
30
0.0
11
0.050400
21
0.261206
31
0.0
0
LINE
8
0
6
CONTINUOUS
10
0.044056
20
0.286279
30
0.0
11
0.042862
21
0.290997
31
0.0
0
LINE
8
0
6
CONTINUOUS
10
0.047228
20
0.273743
30
0.0
11
0.045561
21
0.280333
31
0.0
0
LINE
8
0
6
CONTINUOUS
10
0.051656
20
0.252167
30
0.0
11
0.052625
21
0.252415
31
0.0
0
LINE
8
0
6
CONTINUOUS
10
0.052625
20
0.252415
30
0.0
11
0.052361
21
0.253459
31
0.0
0
LINE
8
0
6
CONTINUOUS
10
0.047228
20
0.273743
30
0.0
11
0.048896
21
0.267152
31
0.0
0
LINE
8
0
6
CONTINUOUS
10
0.042862
20
0.290997
30
0.0
11
0.042096
21
0.294027
31
0.0
0
LINE
8
0
6
CONTINUOUS
10
0.050400
20
0.261206
30
0.0
11
0.048896
21
0.267152
31
0.0
0
LINE
8
0
6
CONTINUOUS
10
0.045561
20
0.280333
30
0.0
11
0.044056
21
0.286279
31
0.0
0
LINE
8
0
6
CONTINUOUS
10
0.052361
20
0.253459
30
0.0
11
0.051594
21
0.256488
31
0.0
0
LINE
8
0
6
CONTINUOUS
10
0.041832
20
0.295070
30
0.0
11
0.040863
21
0.294821
31
0.0
0
LINE
8
0
6
CONTINUOUS
10
0.042096
20
0.294027
30
0.0
11
0.041832
21
0.295070
31
0.0
0
LINE
8
0
6
CONTINUOUS
10
0.024636
20
0.286328
30
0.0
11
0.019769
21
0.280076
31
0.0
0
LINE
8
0
6
CONTINUOUS
10
0.027761
20
0.290342
30
0.0
11
0.024636
21
0.286328
31
0.0
0
LINE
8
0
6
CONTINUOUS
10
0.028837
20
0.291726
30
0.0
11
0.027761
21
0.290342
31
0.0
0
LINE
8
0
6
CONTINUOUS
10
0.029691
20
0.291945
30
0.0
11
0.028837
21
0.291726
31
0.0
0
LINE
8
0
6
CONTINUOUS
10
0.024636
20
0.249610
30
0.0
11
0.027761
21
0.247177
31
0.0
0
LINE
8
0
6
CONTINUOUS
10
0.027761
20
0.247177
30
0.0
11
0.028837
21
0.246339
31
0.0
0
LINE
8
0
6
CONTINUOUS
10
0.028837
20
0.246339
30
0.0
11
0.030457
21
0.246753
31
0.0
0
LINE
8
0
6
CONTINUOUS
10
0.023472
20
0.296806
30
0.0
11
0.023011
21
0.300636
31
0.0
0
LINE
8
0
6
CONTINUOUS
10
0.023011
20
0.234933
30
0.0
11
0.023471
21
0.238541
31
0.0
0
LINE
8
0
6
CONTINUOUS
10
0.055615
20
0.252747
30
0.0
11
0.067109
21
0.255775
31
0.0
0
LINE
8
0
6
CONTINUOUS
10
0.064135
20
0.305881
30
0.0
11
0.063188
21
0.304180
31
0.0
0
LINE
8
0
6
CONTINUOUS
10
0.065367
20
0.313094
30
0.0
11
0.065313
21
0.348264
31
0.0
0
LINE
8
0
6
CONTINUOUS
10
0.064850
20
0.348260
30
0.0
11
0.064907
21
0.313178
31
0.0
0
LINE
8
0
6
CONTINUOUS
10
0.079793
20
0.259116
30
0.0
11
0.083030
21
0.259969
31
0.0
0
LINE
8
0
6
CONTINUOUS
10
0.063352
20
0.303765
30
0.0
11
0.066020
21
0.305830
31
0.0
0
LINE
8
0
6
CONTINUOUS
10
0.076556
20
0.258264
30
0.0
11
0.079793
21
0.259116
31
0.0
0
LINE
8
0
6
CONTINUOUS
10
0.077663
20
0.298943
30
0.0
11
0.077246
21
0.303442
31
0.0
0
LINE
8
0
6
CONTINUOUS
10
0.073319
20
0.257411
30
0.0
11
0.076556
21
0.258264
31
0.0
0
LINE
8
0
6
CONTINUOUS
10
0.067109
20
0.255775
30
0.0
11
0.070081
21
0.256558
31
0.0
0
LINE
8
0
6
CONTINUOUS
10
0.055646
20
0.299290
30
0.0
11
0.044151
21
0.296263
31
0.0
0
LINE
8
0
6
CONTINUOUS
10
0.070081
20
0.256558
30
0.0
11
0.073319
21
0.257411
31
0.0
0
LINE
8
0
6
CONTINUOUS
10
0.083030
20
0.259969
30
0.0
11
0.085278
21
0.260561
31
0.0
0
LINE
8
0
6
CONTINUOUS
10
0.064619
20
0.305747
30
0.0
11
0.066020
21
0.305830
31
0.0
0
LINE
8
0
6
CONTINUOUS
10
0.064909
20
0.310025
30
0.0
11
0.064135
21
0.305881
31
0.0
0
LINE
8
0
6
CONTINUOUS
10
0.072965
20
0.306998
30
0.0
11
0.073229
21
0.309959
31
0.0
0
LINE
8
0
6
CONTINUOUS
10
0.070892
20
0.309677
30
0.0
11
0.070442
21
0.306440
31
0.0
0
LINE
8
0
6
CONTINUOUS
10
0.077246
20
0.303442
30
0.0
11
0.076994
21
0.307906
31
0.0
0
LINE
8
0
6
CONTINUOUS
10
0.076994
20
0.307906
30
0.0
11
0.076997
21
0.311242
31
0.0
0
LINE
8
0
6
CONTINUOUS
10
0.076554
20
0.311942
30
0.0
11
0.076552
21
0.308669
31
0.0
0
LINE
8
0
6
CONTINUOUS
10
0.073229
20
0.309959
30
0.0
11
0.073321
21
0.313868
31
0.0
0
LINE
8
0
6
CONTINUOUS
10
0.064907
20
0.313178
30
0.0
11
0.064909
21
0.310025
31
0.0
0
LINE
8
0
6
CONTINUOUS
10
0.065367
20
0.313094
30
0.0
11
0.065368
21
0.309933
31
0.0
0
LINE
8
0
6
CONTINUOUS
10
0.059519
20
0.300821
30
0.0
11
0.058124
21
0.299943
31
0.0
0
LINE
8
0
6
CONTINUOUS
10
0.059796
20
0.300147
30
0.0
11
0.058602
21
0.299132
31
0.0
0
LINE
8
0
6
CONTINUOUS
10
0.058124
20
0.299943
30
0.0
11
0.055646
21
0.299290
31
0.0
0
LINE
8
0
6
CONTINUOUS
10
0.080030
20
0.284500
30
0.0
11
0.077206
21
0.295461
31
0.0
0
LINE
8
0
6
CONTINUOUS
10
0.070442
20
0.306440
30
0.0
11
0.070235
21
0.305581
31
0.0
0
LINE
8
0
6
CONTINUOUS
10
0.059796
20
0.300147
30
0.0
11
0.061475
21
0.301807
31
0.0
0
LINE
8
0
6
CONTINUOUS
10
0.061286
20
0.302334
30
0.0
11
0.059519
21
0.300821
31
0.0
0
LINE
8
0
6
CONTINUOUS
10
0.078241
20
0.293796
30
0.0
11
0.077663
21
0.298943
31
0.0
0
LINE
8
0
6
CONTINUOUS
10
0.063188
20
0.304180
30
0.0
11
0.061286
21
0.302334
31
0.0
0
LINE
8
0
6
CONTINUOUS
10
0.069608
20
0.303621
30
0.0
11
0.070235
21
0.305581
31
0.0
0
LINE
8
0
6
CONTINUOUS
10
0.063352
20
0.303765
30
0.0
11
0.061475
21
0.301807
31
0.0
0
LINE
8
0
6
CONTINUOUS
10
0.076548
20
0.348883
30
0.0
11
0.076534
21
0.348372
31
0.0
0
LINE
8
0
6
CONTINUOUS
10
0.077011
20
0.348888
30
0.0
11
0.076548
21
0.348883
31
0.0
0
LINE
8
0
6
CONTINUOUS
10
0.076997
20
0.348377
30
0.0
11
0.077011
21
0.348888
31
0.0
0
LINE
8
0
6
CONTINUOUS
10
0.074317
20
0.348862
30
0.0
11
0.073262
21
0.348852
31
0.0
0
LINE
8
0
6
CONTINUOUS
10
0.075890
20
0.348877
30
0.0
11
0.076548
21
0.348883
31
0.0
0
LINE
8
0
6
CONTINUOUS
10
0.073262
20
0.348852
30
0.0
11
0.070938
21
0.348829
31
0.0
0
LINE
8
0
6
CONTINUOUS
10
0.070938
20
0.348829
30
0.0
11
0.068614
21
0.348807
31
0.0
0
LINE
8
0
6
CONTINUOUS
10
0.068614
20
0.348807
30
0.0
11
0.066643
21
0.348788
31
0.0
0
LINE
8
0
6
CONTINUOUS
10
0.065327
20
0.348775
30
0.0
11
0.066643
21
0.348788
31
0.0
0
LINE
8
0
6
CONTINUOUS
10
0.064864
20
0.348771
30
0.0
11
0.064850
21
0.348260
31
0.0
0
LINE
8
0
6
CONTINUOUS
10
0.065313
20
0.348264
30
0.0
11
0.065327
21
0.348775
31
0.0
0
LINE
8
0
6
CONTINUOUS
10
0.064864
20
0.348771
30
0.0
11
0.065327
21
0.348775
31
0.0
0
LINE
8
0
6
CONTINUOUS
10
0.076997
20
0.311242
30
0.0
11
0.076997
21
0.348377
31
0.0
0
LINE
8
0
6
CONTINUOUS
10
0.076534
20
0.348372
30
0.0
11
0.076554
21
0.311942
31
0.0
0
LINE
8
0
6
CONTINUOUS
10
0.082003
20
0.277009
30
0.0
11
0.080536
21
0.282580
31
0.0
0
LINE
8
0
6
CONTINUOUS
10
0.080536
20
0.282580
30
0.0
11
0.079069
21
0.288150
31
0.0
0
LINE
8
0
6
CONTINUOUS
10
0.085511
20
0.263694
30
0.0
11
0.084594
21
0.267175
31
0.0
0
LINE
8
0
6
CONTINUOUS
10
0.086061
20
0.261605
30
0.0
11
0.085511
21
0.263694
31
0.0
0
LINE
8
0
6
CONTINUOUS
10
0.086267
20
0.260822
30
0.0
11
0.086061
21
0.261605
31
0.0
0
LINE
8
0
6
CONTINUOUS
10
0.085278
20
0.260561
30
0.0
11
0.086267
21
0.260822
31
0.0
0
LINE
8
0
6
CONTINUOUS
10
0.084594
20
0.267175
30
0.0
11
0.083379
21
0.271788
31
0.0
0
LINE
8
0
6
CONTINUOUS
10
0.077693
20
0.293371
30
0.0
11
0.076478
21
0.297984
31
0.0
0
LINE
8
0
6
CONTINUOUS
10
0.079069
20
0.288150
30
0.0
11
0.077693
21
0.293371
31
0.0
0
LINE
8
0
6
CONTINUOUS
10
0.076478
20
0.297984
30
0.0
11
0.075561
21
0.301465
31
0.0
0
LINE
8
0
6
CONTINUOUS
10
0.083379
20
0.271788
30
0.0
11
0.082003
21
0.277009
31
0.0
0
LINE
8
0
6
CONTINUOUS
10
0.075232
20
0.314166
30
0.0
11
0.075153
21
0.310071
31
0.0
0
LINE
8
0
6
CONTINUOUS
10
0.075153
20
0.310071
30
0.0
11
0.075097
21
0.307497
31
0.0
0
LINE
8
0
6
CONTINUOUS
10
0.075182
20
0.302905
30
0.0
11
0.075000
21
0.303595
31
0.0
0
LINE
8
0
6
CONTINUOUS
10
0.075561
20
0.301465
30
0.0
11
0.075182
21
0.302905
31
0.0
0
LINE
8
0
6
CONTINUOUS
10
0.075000
20
0.303595
30
0.0
11
0.075041
21
0.305152
31
0.0
0
LINE
8
0
6
CONTINUOUS
10
0.075041
20
0.305152
30
0.0
11
0.075080
21
0.306731
31
0.0
0
LINE
8
0
6
CONTINUOUS
10
0.072114
20
0.302723
30
0.0
11
0.074237
21
0.303358
31
0.0
0
LINE
8
0
6
CONTINUOUS
10
0.075097
20
0.307497
30
0.0
11
0.075080
21
0.306731
31
0.0
0
LINE
8
0
6
CONTINUOUS
10
0.075232
20
0.348871
30
0.0
11
0.074317
21
0.348862
31
0.0
0
LINE
8
0
6
CONTINUOUS
10
0.075218
20
0.348359
30
0.0
11
0.075232
21
0.314166
31
0.0
0
LINE
8
0
6
CONTINUOUS
10
0.075232
20
0.348871
30
0.0
11
0.075890
21
0.348877
31
0.0
0
LINE
8
0
6
CONTINUOUS
10
0.079171
20
0.287762
30
0.0
11
0.078241
21
0.293796
31
0.0
0
LINE
8
0
6
CONTINUOUS
10
-0.017886
20
0.415867
30
0.0
11
-0.018267
21
0.403950
31
0.0
0
LINE
8
0
6
CONTINUOUS
10
0.020220
20
0.403950
30
0.0
11
0.019847
21
0.415867
31
0.0
0
LINE
8
0
6
CONTINUOUS
10
-0.017544
20
0.426982
30
0.0
11
-0.017886
21
0.415867
31
0.0
0
LINE
8
0
6
CONTINUOUS
10
0.019847
20
0.415867
30
0.0
11
0.019514
21
0.426982
31
0.0
0
LINE
8
0
6
CONTINUOUS
10
-0.017272
20
0.436299
30
0.0
11
-0.017544
21
0.426982
31
0.0
0
LINE
8
0
6
CONTINUOUS
10
0.019514
20
0.426982
30
0.0
11
0.019249
21
0.436299
31
0.0
0
LINE
8
0
6
CONTINUOUS
10
-0.017087
20
0.442979
30
0.0
11
-0.017272
21
0.436299
31
0.0
0
LINE
8
0
6
CONTINUOUS
10
0.019249
20
0.436299
30
0.0
11
0.019068
21
0.442979
31
0.0
0
LINE
8
0
6
CONTINUOUS
10
-0.016995
20
0.446424
30
0.0
11
-0.017087
21
0.442979
31
0.0
0
LINE
8
0
6
CONTINUOUS
10
0.019068
20
0.442979
30
0.0
11
0.018978
21
0.446424
31
0.0
0
LINE
8
0
6
CONTINUOUS
10
-0.014614
20
0.457745
30
0.0
11
-0.015969
21
0.451657
31
0.0
0
LINE
8
0
6
CONTINUOUS
10
0.018978
20
0.446424
30
0.0
11
0.017993
21
0.451490
31
0.0
0
LINE
8
0
6
CONTINUOUS
10
0.017993
20
0.451490
30
0.0
11
0.017957
21
0.451657
31
0.0
0
LINE
8
0
6
CONTINUOUS
10
-0.016007
20
0.451490
30
0.0
11
-0.016995
21
0.446424
31
0.0
0
LINE
8
0
6
CONTINUOUS
10
-0.015969
20
0.451657
30
0.0
11
-0.016007
21
0.451490
31
0.0
0
LINE
8
0
6
CONTINUOUS
10
-0.004066
20
0.468310
30
0.0
11
-0.008646
21
0.465982
31
0.0
0
LINE
8
0
6
CONTINUOUS
10
-0.008646
20
0.465982
30
0.0
11
-0.012280
21
0.462356
31
0.0
0
LINE
8
0
6
CONTINUOUS
10
-0.012280
20
0.462356
30
0.0
11
-0.014614
21
0.457786
31
0.0
0
LINE
8
0
6
CONTINUOUS
10
-0.014614
20
0.457786
30
0.0
11
-0.015418
21
0.452721
31
0.0
0
LINE
8
0
6
CONTINUOUS
10
-0.015418
20
0.452721
30
0.0
11
-0.015418
21
0.452679
31
0.0
0
LINE
8
0
6
CONTINUOUS
10
-0.014614
20
0.447655
30
0.0
11
-0.015418
21
0.452721
31
0.0
0
LINE
8
0
6
CONTINUOUS
10
-0.012280
20
0.443086
30
0.0
11
-0.014614
21
0.447655
31
0.0
0
LINE
8
0
6
CONTINUOUS
10
-0.008646
20
0.439459
30
0.0
11
-0.012280
21
0.443086
31
0.0
0
LINE
8
0
6
CONTINUOUS
10
-0.004066
20
0.437131
30
0.0
11
-0.008646
21
0.439459
31
0.0
0
LINE
8
0
6
CONTINUOUS
10
0.001011
20
0.436329
30
0.0
11
-0.004066
21
0.437131
31
0.0
0
LINE
8
0
6
CONTINUOUS
10
0.006087
20
0.437131
30
0.0
11
0.001011
21
0.436329
31
0.0
0
LINE
8
0
6
CONTINUOUS
10
0.010667
20
0.439460
30
0.0
11
0.006087
21
0.437131
31
0.0
0
LINE
8
0
6
CONTINUOUS
10
0.014302
20
0.443086
30
0.0
11
0.010667
21
0.439460
31
0.0
0
LINE
8
0
6
CONTINUOUS
10
0.016635
20
0.447655
30
0.0
11
0.014302
21
0.443086
31
0.0
0
LINE
8
0
6
CONTINUOUS
10
0.017439
20
0.452679
30
0.0
11
0.017439
21
0.452721
31
0.0
0
LINE
8
0
6
CONTINUOUS
10
0.017439
20
0.452721
30
0.0
11
0.016635
21
0.447655
31
0.0
0
LINE
8
0
6
CONTINUOUS
10
0.017439
20
0.452721
30
0.0
11
0.016635
21
0.457786
31
0.0
0
LINE
8
0
6
CONTINUOUS
10
0.016635
20
0.457786
30
0.0
11
0.014302
21
0.462356
31
0.0
0
LINE
8
0
6
CONTINUOUS
10
0.014302
20
0.462356
30
0.0
11
0.010667
21
0.465982
31
0.0
0
LINE
8
0
6
CONTINUOUS
10
0.010667
20
0.465982
30
0.0
11
0.006087
21
0.468310
31
0.0
0
LINE
8
0
6
CONTINUOUS
10
0.006087
20
0.468310
30
0.0
11
0.001011
21
0.469112
31
0.0
0
LINE
8
0
6
CONTINUOUS
10
0.001011
20
0.469112
30
0.0
11
-0.004066
21
0.468310
31
0.0
0
LINE
8
0
6
CONTINUOUS
10
0.022826
20
0.307489
30
0.0
11
0.020360
21
0.398782
31
0.0
0
LINE
8
0
6
CONTINUOUS
10
-0.018367
20
0.398781
30
0.0
11
-0.020606
21
0.281983
31
0.0
0
LINE
8
0
6
CONTINUOUS
10
0.017957
20
0.451657
30
0.0
11
0.016635
21
0.457745
31
0.0
0
LINE
8
0
6
CONTINUOUS
10
0.023011
20
0.300636
30
0.0
11
0.022826
21
0.307489
31
0.0
0
LINE
8
0
6
CONTINUOUS
10
0.023011
20
-0.455112
30
0.0
11
0.023011
21
0.226360
31
0.0
0
LINE
8
0
6
CONTINUOUS
10
-0.020989
20
0.237183
30
0.0
11
-0.020989
21
-0.455112
31
0.0
0
LINE
8
0
6
CONTINUOUS
10
-0.009157
20
0.428776
30
0.0
11
-0.008659
21
0.428186
31
0.0
0
LINE
8
0
6
CONTINUOUS
10
0.010681
20
0.428186
30
0.0
11
0.011178
21
0.428776
31
0.0
0
LINE
8
0
6
CONTINUOUS
10
-0.008659
20
0.428186
30
0.0
11
-0.007215
21
0.427653
31
0.0
0
LINE
8
0
6
CONTINUOUS
10
0.009237
20
0.427653
30
0.0
11
0.010681
21
0.428186
31
0.0
0
LINE
8
0
6
CONTINUOUS
10
-0.007215
20
0.427653
30
0.0
11
-0.004966
21
0.427230
31
0.0
0
LINE
8
0
6
CONTINUOUS
10
0.006988
20
0.427230
30
0.0
11
0.009237
21
0.427653
31
0.0
0
LINE
8
0
6
CONTINUOUS
10
-0.004966
20
0.427230
30
0.0
11
-0.002132
21
0.426958
31
0.0
0
LINE
8
0
6
CONTINUOUS
10
-0.002132
20
0.426958
30
0.0
11
0.001011
21
0.426864
31
0.0
0
LINE
8
0
6
CONTINUOUS
10
0.004153
20
0.426958
30
0.0
11
0.006988
21
0.427230
31
0.0
0
LINE
8
0
6
CONTINUOUS
10
0.001011
20
0.426864
30
0.0
11
0.004153
21
0.426958
31
0.0
0
LINE
8
0
6
CONTINUOUS
10
0.053441
20
0.258991
30
0.0
11
0.052223
21
0.263615
31
0.0
0
LINE
8
0
6
CONTINUOUS
10
0.045331
20
0.289779
30
0.0
11
0.046546
21
0.285167
31
0.0
0
LINE
8
0
6
CONTINUOUS
10
0.053441
20
0.258991
30
0.0
11
0.054347
21
0.255553
31
0.0
0
LINE
8
0
6
CONTINUOUS
10
0.046546
20
0.285167
30
0.0
11
0.047921
21
0.279945
31
0.0
0
LINE
8
0
6
CONTINUOUS
10
0.055120
20
0.252617
30
0.0
11
0.055615
21
0.252747
31
0.0
0
LINE
8
0
6
CONTINUOUS
10
0.055120
20
0.252617
30
0.0
11
0.054909
21
0.253419
31
0.0
0
LINE
8
0
6
CONTINUOUS
10
0.047921
20
0.279945
30
0.0
11
0.049389
21
0.274375
31
0.0
0
LINE
8
0
6
CONTINUOUS
10
0.049389
20
0.274375
30
0.0
11
0.050849
21
0.268832
31
0.0
0
LINE
8
0
6
CONTINUOUS
10
0.054347
20
0.255553
30
0.0
11
0.054909
21
0.253419
31
0.0
0
LINE
8
0
6
CONTINUOUS
10
0.044414
20
0.293260
30
0.0
11
0.045331
21
0.289779
31
0.0
0
LINE
8
0
6
CONTINUOUS
10
0.043863
20
0.295349
30
0.0
11
0.044414
21
0.293260
31
0.0
0
LINE
8
0
6
CONTINUOUS
10
0.043657
20
0.296132
30
0.0
11
0.043863
21
0.295349
31
0.0
0
LINE
8
0
6
CONTINUOUS
10
0.044151
20
0.296263
30
0.0
11
0.043657
21
0.296132
31
0.0
0
LINE
8
0
6
CONTINUOUS
10
0.052223
20
0.263615
30
0.0
11
0.050849
21
0.268832
31
0.0
0
LINE
8
0
6
CONTINUOUS
10
-0.014723
20
0.237183
30
0.0
11
-0.014723
21
0.237640
31
0.0
0
LINE
8
0
6
CONTINUOUS
10
-0.014723
20
0.237640
30
0.0
11
-0.014723
21
0.253089
31
0.0
0
LINE
8
0
6
CONTINUOUS
10
-0.014723
20
0.261991
30
0.0
11
-0.014470
21
0.271543
31
0.0
0
LINE
8
0
6
CONTINUOUS
10
-0.014723
20
0.253089
30
0.0
11
-0.014723
21
0.261991
31
0.0
0
LINE
8
0
6
CONTINUOUS
10
-0.014470
20
0.271543
30
0.0
11
-0.014202
21
0.281525
31
0.0
0
LINE
8
0
6
CONTINUOUS
10
-0.078365
20
0.426916
30
0.0
11
-0.078365
21
0.427916
31
0.0
0
LINE
8
0
6
CONTINUOUS
10
-0.078365
20
0.372516
30
0.0
11
-0.078365
21
0.373516
31
0.0
0
ENDSEC
0
EOF
