999
Erzeugt mit innoplus bad 
0
SECTION
2
HEADER
9
$ACADVER
1
AC1009
9
$DWGCODEPAGE
3
ISO8859-1
0
ENDSEC
0
SECTION
2
TABLES
0
TABLE
2
LAYER
70
1
0
LAYER
2
0
70
0
62
7
6
CONTINUOUS
0
ENDTAB
0
ENDSEC
0
SECTION
2
ENTITIES
0
LINE
8
0
6
CONTINUOUS
10
0.086500
20
0.105987
30
0.0
11
0.087059
21
0.105988
31
0.0
0
LINE
8
0
6
CONTINUOUS
10
0.086500
20
0.105141
30
0.0
11
0.086500
21
0.105987
31
0.0
0
LINE
8
0
6
CONTINUOUS
10
0.099000
20
0.105998
30
0.0
11
0.101500
21
0.106000
31
0.0
0
LINE
8
0
6
CONTINUOUS
10
0.096500
20
0.105996
30
0.0
11
0.099000
21
0.105998
31
0.0
0
LINE
8
0
6
CONTINUOUS
10
0.094000
20
0.105994
30
0.0
11
0.096500
21
0.105996
31
0.0
0
LINE
8
0
6
CONTINUOUS
10
0.091500
20
0.105991
30
0.0
11
0.094000
21
0.105994
31
0.0
0
LINE
8
0
6
CONTINUOUS
10
0.089000
20
0.105989
30
0.0
11
0.091500
21
0.105991
31
0.0
0
LINE
8
0
6
CONTINUOUS
10
0.086894
20
0.060428
30
0.0
11
0.087593
21
0.058745
31
0.0
0
LINE
8
0
6
CONTINUOUS
10
0.087593
20
0.058745
30
0.0
11
0.088731
21
0.057309
31
0.0
0
LINE
8
0
6
CONTINUOUS
10
0.086525
20
0.062214
30
0.0
11
0.086894
21
0.060428
31
0.0
0
LINE
8
0
6
CONTINUOUS
10
0.086500
20
0.065856
30
0.0
11
0.086493
21
0.064035
31
0.0
0
LINE
8
0
6
CONTINUOUS
10
0.086493
20
0.064035
30
0.0
11
0.086525
21
0.062214
31
0.0
0
LINE
8
0
6
CONTINUOUS
10
0.086500
20
0.067676
30
0.0
11
0.086500
21
0.065856
31
0.0
0
LINE
8
0
6
CONTINUOUS
10
0.088731
20
0.057309
30
0.0
11
0.089839
21
0.056176
31
0.0
0
LINE
8
0
6
CONTINUOUS
10
0.087059
20
0.105988
30
0.0
11
0.089000
21
0.105989
31
0.0
0
LINE
8
0
6
CONTINUOUS
10
0.086500
20
0.105141
30
0.0
11
0.086500
21
0.067676
31
0.0
0
LINE
8
0
6
CONTINUOUS
10
0.115941
20
0.105988
30
0.0
11
0.116500
21
0.105987
31
0.0
0
LINE
8
0
6
CONTINUOUS
10
0.116500
20
0.105987
30
0.0
11
0.116500
21
0.105141
31
0.0
0
LINE
8
0
6
CONTINUOUS
10
0.101500
20
0.106000
30
0.0
11
0.104000
21
0.105998
31
0.0
0
LINE
8
0
6
CONTINUOUS
10
0.104000
20
0.105998
30
0.0
11
0.106500
21
0.105996
31
0.0
0
LINE
8
0
6
CONTINUOUS
10
0.106500
20
0.105996
30
0.0
11
0.109000
21
0.105994
31
0.0
0
LINE
8
0
6
CONTINUOUS
10
0.109000
20
0.105994
30
0.0
11
0.111500
21
0.105991
31
0.0
0
LINE
8
0
6
CONTINUOUS
10
0.111500
20
0.105991
30
0.0
11
0.114000
21
0.105989
31
0.0
0
LINE
8
0
6
CONTINUOUS
10
0.115407
20
0.058745
30
0.0
11
0.116106
21
0.060428
31
0.0
0
LINE
8
0
6
CONTINUOUS
10
0.114269
20
0.057309
30
0.0
11
0.115407
21
0.058745
31
0.0
0
LINE
8
0
6
CONTINUOUS
10
0.116106
20
0.060428
30
0.0
11
0.116475
21
0.062214
31
0.0
0
LINE
8
0
6
CONTINUOUS
10
0.116507
20
0.064035
30
0.0
11
0.116500
21
0.065856
31
0.0
0
LINE
8
0
6
CONTINUOUS
10
0.116475
20
0.062214
30
0.0
11
0.116507
21
0.064035
31
0.0
0
LINE
8
0
6
CONTINUOUS
10
0.101500
20
0.075480
30
0.0
11
0.102171
21
0.075350
31
0.0
0
LINE
8
0
6
CONTINUOUS
10
0.116500
20
0.065856
30
0.0
11
0.116500
21
0.067676
31
0.0
0
LINE
8
0
6
CONTINUOUS
10
0.113161
20
0.056176
30
0.0
11
0.114269
21
0.057309
31
0.0
0
LINE
8
0
6
CONTINUOUS
10
0.114000
20
0.105989
30
0.0
11
0.115941
21
0.105988
31
0.0
0
LINE
8
0
6
CONTINUOUS
10
0.116500
20
0.067676
30
0.0
11
0.116500
21
0.105141
31
0.0
0
LINE
8
0
6
CONTINUOUS
10
0.082872
20
0.044284
30
0.0
11
0.082330
21
0.043826
31
0.0
0
LINE
8
0
6
CONTINUOUS
10
0.082330
20
0.043826
30
0.0
11
0.081654
21
0.042432
31
0.0
0
LINE
8
0
6
CONTINUOUS
10
0.085079
20
0.017834
30
0.0
11
0.086778
21
0.016721
31
0.0
0
LINE
8
0
6
CONTINUOUS
10
0.084113
20
0.018650
30
0.0
11
0.085079
21
0.017834
31
0.0
0
LINE
8
0
6
CONTINUOUS
10
0.085912
20
0.017472
30
0.0
11
0.084113
21
0.018650
31
0.0
0
LINE
8
0
6
CONTINUOUS
10
0.101500
20
0.015030
30
0.0
11
0.096841
21
0.015196
31
0.0
0
LINE
8
0
6
CONTINUOUS
10
0.097100
20
0.014572
30
0.0
11
0.101500
21
0.014415
31
0.0
0
LINE
8
0
6
CONTINUOUS
10
0.096324
20
0.036825
30
0.0
11
0.101500
21
0.036640
31
0.0
0
LINE
8
0
6
CONTINUOUS
10
0.091500
20
0.037367
30
0.0
11
0.096324
21
0.036825
31
0.0
0
LINE
8
0
6
CONTINUOUS
10
0.092500
20
0.015685
30
0.0
11
0.088772
21
0.016460
31
0.0
0
LINE
8
0
6
CONTINUOUS
10
0.089479
20
0.015766
30
0.0
11
0.093000
21
0.015033
31
0.0
0
LINE
8
0
6
CONTINUOUS
10
0.087358
20
0.038229
30
0.0
11
0.091500
21
0.037367
31
0.0
0
LINE
8
0
6
CONTINUOUS
10
0.084179
20
0.039353
30
0.0
11
0.087358
21
0.038229
31
0.0
0
LINE
8
0
6
CONTINUOUS
10
0.082181
20
0.040662
30
0.0
11
0.084179
21
0.039353
31
0.0
0
LINE
8
0
6
CONTINUOUS
10
0.086778
20
0.016721
30
0.0
11
0.089479
21
0.015766
31
0.0
0
LINE
8
0
6
CONTINUOUS
10
0.088772
20
0.016460
30
0.0
11
0.085912
21
0.017472
31
0.0
0
LINE
8
0
6
CONTINUOUS
10
0.081500
20
0.042066
30
0.0
11
0.082181
21
0.040662
31
0.0
0
LINE
8
0
6
CONTINUOUS
10
0.081654
20
0.042432
30
0.0
11
0.081500
21
0.042066
31
0.0
0
LINE
8
0
6
CONTINUOUS
10
0.087864
20
0.046629
30
0.0
11
0.084799
21
0.045545
31
0.0
0
LINE
8
0
6
CONTINUOUS
10
0.089512
20
0.047061
30
0.0
11
0.087864
21
0.046629
31
0.0
0
LINE
8
0
6
CONTINUOUS
10
0.089500
20
0.066659
30
0.0
11
0.089500
21
0.060442
31
0.0
0
LINE
8
0
6
CONTINUOUS
10
0.089500
20
0.060442
30
0.0
11
0.089500
21
0.054087
31
0.0
0
LINE
8
0
6
CONTINUOUS
10
0.089500
20
0.054087
30
0.0
11
0.089500
21
0.047468
31
0.0
0
LINE
8
0
6
CONTINUOUS
10
0.096218
20
0.075044
30
0.0
11
0.092547
21
0.074432
31
0.0
0
LINE
8
0
6
CONTINUOUS
10
0.089500
20
0.047468
30
0.0
11
0.089500
21
0.046925
31
0.0
0
LINE
8
0
6
CONTINUOUS
10
0.106782
20
0.075044
30
0.0
11
0.102982
21
0.075325
31
0.0
0
LINE
8
0
6
CONTINUOUS
10
0.091271
20
0.047466
30
0.0
11
0.089512
21
0.047061
31
0.0
0
LINE
8
0
6
CONTINUOUS
10
0.115136
20
0.046629
30
0.0
11
0.113487
21
0.047061
31
0.0
0
LINE
8
0
6
CONTINUOUS
10
0.118201
20
0.045545
30
0.0
11
0.115136
21
0.046629
31
0.0
0
LINE
8
0
6
CONTINUOUS
10
0.106676
20
0.036825
30
0.0
11
0.111500
21
0.037367
31
0.0
0
LINE
8
0
6
CONTINUOUS
10
0.113487
20
0.047061
30
0.0
11
0.111729
21
0.047466
31
0.0
0
LINE
8
0
6
CONTINUOUS
10
0.105900
20
0.014572
30
0.0
11
0.110000
21
0.015033
31
0.0
0
LINE
8
0
6
CONTINUOUS
10
0.110500
20
0.015685
30
0.0
11
0.106159
21
0.015196
31
0.0
0
LINE
8
0
6
CONTINUOUS
10
0.111500
20
0.037367
30
0.0
11
0.115642
21
0.038229
31
0.0
0
LINE
8
0
6
CONTINUOUS
10
0.101500
20
0.014415
30
0.0
11
0.105900
21
0.014572
31
0.0
0
LINE
8
0
6
CONTINUOUS
10
0.106159
20
0.015196
30
0.0
11
0.101500
21
0.015030
31
0.0
0
LINE
8
0
6
CONTINUOUS
10
0.087358
20
0.038229
30
0.0
11
0.084179
21
0.039353
31
0.0
0
LINE
8
0
6
CONTINUOUS
10
0.085912
20
0.017472
30
0.0
11
0.088772
21
0.016460
31
0.0
0
LINE
8
0
6
CONTINUOUS
10
0.113500
20
0.054087
30
0.0
11
0.113500
21
0.060442
31
0.0
0
LINE
8
0
6
CONTINUOUS
10
0.120819
20
0.040662
30
0.0
11
0.118821
21
0.039353
31
0.0
0
LINE
8
0
6
CONTINUOUS
10
0.117088
20
0.017472
30
0.0
11
0.118887
21
0.018650
31
0.0
0
LINE
8
0
6
CONTINUOUS
10
0.115642
20
0.038229
30
0.0
11
0.118821
21
0.039353
31
0.0
0
LINE
8
0
6
CONTINUOUS
10
0.084799
20
0.045545
30
0.0
11
0.082872
21
0.044284
31
0.0
0
LINE
8
0
6
CONTINUOUS
10
0.121500
20
0.042066
30
0.0
11
0.121346
21
0.042432
31
0.0
0
LINE
8
0
6
CONTINUOUS
10
0.120819
20
0.040662
30
0.0
11
0.121500
21
0.042066
31
0.0
0
LINE
8
0
6
CONTINUOUS
10
0.120670
20
0.043826
30
0.0
11
0.120128
21
0.044284
31
0.0
0
LINE
8
0
6
CONTINUOUS
10
0.121346
20
0.042432
30
0.0
11
0.120670
21
0.043826
31
0.0
0
LINE
8
0
6
CONTINUOUS
10
0.096841
20
0.015196
30
0.0
11
0.092500
21
0.015685
31
0.0
0
LINE
8
0
6
CONTINUOUS
10
0.093000
20
0.015033
30
0.0
11
0.097100
21
0.014572
31
0.0
0
LINE
8
0
6
CONTINUOUS
10
0.118821
20
0.039353
30
0.0
11
0.120819
21
0.040662
31
0.0
0
LINE
8
0
6
CONTINUOUS
10
0.118887
20
0.018650
30
0.0
11
0.117088
21
0.017472
31
0.0
0
LINE
8
0
6
CONTINUOUS
10
0.117921
20
0.017834
30
0.0
11
0.118887
21
0.018650
31
0.0
0
LINE
8
0
6
CONTINUOUS
10
0.116222
20
0.016721
30
0.0
11
0.117921
21
0.017834
31
0.0
0
LINE
8
0
6
CONTINUOUS
10
0.113500
20
0.047468
30
0.0
11
0.113500
21
0.054087
31
0.0
0
LINE
8
0
6
CONTINUOUS
10
0.113500
20
0.046925
30
0.0
11
0.113500
21
0.047468
31
0.0
0
LINE
8
0
6
CONTINUOUS
10
0.113500
20
0.060442
30
0.0
11
0.113500
21
0.066659
31
0.0
0
LINE
8
0
6
CONTINUOUS
10
0.120128
20
0.044284
30
0.0
11
0.118201
21
0.045545
31
0.0
0
LINE
8
0
6
CONTINUOUS
10
0.101500
20
0.036640
30
0.0
11
0.106676
21
0.036825
31
0.0
0
LINE
8
0
6
CONTINUOUS
10
0.110000
20
0.015033
30
0.0
11
0.113521
21
0.015766
31
0.0
0
LINE
8
0
6
CONTINUOUS
10
0.114228
20
0.016460
30
0.0
11
0.110500
21
0.015685
31
0.0
0
LINE
8
0
6
CONTINUOUS
10
0.113666
20
0.046939
30
0.0
11
0.112737
21
0.047733
31
0.0
0
LINE
8
0
6
CONTINUOUS
10
0.102982
20
0.075325
30
0.0
11
0.101500
21
0.075348
31
0.0
0
LINE
8
0
6
CONTINUOUS
10
0.089500
20
0.072690
30
0.0
11
0.089500
21
0.066659
31
0.0
0
LINE
8
0
6
CONTINUOUS
10
0.089654
20
0.073056
30
0.0
11
0.089500
21
0.072690
31
0.0
0
LINE
8
0
6
CONTINUOUS
10
0.090215
20
0.073553
30
0.0
11
0.089654
21
0.073056
31
0.0
0
LINE
8
0
6
CONTINUOUS
10
0.101500
20
0.075348
30
0.0
11
0.100018
21
0.075325
31
0.0
0
LINE
8
0
6
CONTINUOUS
10
0.112785
20
0.073553
30
0.0
11
0.110453
21
0.074432
31
0.0
0
LINE
8
0
6
CONTINUOUS
10
0.110453
20
0.074432
30
0.0
11
0.106782
21
0.075044
31
0.0
0
LINE
8
0
6
CONTINUOUS
10
0.092547
20
0.074432
30
0.0
11
0.090215
21
0.073553
31
0.0
0
LINE
8
0
6
CONTINUOUS
10
0.100018
20
0.075325
30
0.0
11
0.096218
21
0.075044
31
0.0
0
LINE
8
0
6
CONTINUOUS
10
0.118821
20
0.039353
30
0.0
11
0.115642
21
0.038229
31
0.0
0
LINE
8
0
6
CONTINUOUS
10
0.114228
20
0.016460
30
0.0
11
0.117088
21
0.017472
31
0.0
0
LINE
8
0
6
CONTINUOUS
10
0.096324
20
0.036825
30
0.0
11
0.091500
21
0.037367
31
0.0
0
LINE
8
0
6
CONTINUOUS
10
0.092500
20
0.015685
30
0.0
11
0.096841
21
0.015196
31
0.0
0
LINE
8
0
6
CONTINUOUS
10
0.082181
20
0.040662
30
0.0
11
0.081500
21
0.042066
31
0.0
0
LINE
8
0
6
CONTINUOUS
10
0.083500
20
0.019914
30
0.0
11
0.084113
21
0.018650
31
0.0
0
LINE
8
0
6
CONTINUOUS
10
0.081500
20
0.042066
30
0.0
11
0.083500
21
0.019914
31
0.0
0
LINE
8
0
6
CONTINUOUS
10
0.084179
20
0.039353
30
0.0
11
0.082181
21
0.040662
31
0.0
0
LINE
8
0
6
CONTINUOUS
10
0.084113
20
0.018650
30
0.0
11
0.085912
21
0.017472
31
0.0
0
LINE
8
0
6
CONTINUOUS
10
0.101500
20
0.036640
30
0.0
11
0.096324
21
0.036825
31
0.0
0
LINE
8
0
6
CONTINUOUS
10
0.096841
20
0.015196
30
0.0
11
0.101500
21
0.015030
31
0.0
0
LINE
8
0
6
CONTINUOUS
10
0.111500
20
0.037367
30
0.0
11
0.106676
21
0.036825
31
0.0
0
LINE
8
0
6
CONTINUOUS
10
0.106159
20
0.015196
30
0.0
11
0.110500
21
0.015685
31
0.0
0
LINE
8
0
6
CONTINUOUS
10
0.106676
20
0.036825
30
0.0
11
0.101500
21
0.036640
31
0.0
0
LINE
8
0
6
CONTINUOUS
10
0.101500
20
0.015030
30
0.0
11
0.106159
21
0.015196
31
0.0
0
LINE
8
0
6
CONTINUOUS
10
0.113346
20
0.073056
30
0.0
11
0.112785
21
0.073553
31
0.0
0
LINE
8
0
6
CONTINUOUS
10
0.113500
20
0.072690
30
0.0
11
0.113346
21
0.073056
31
0.0
0
LINE
8
0
6
CONTINUOUS
10
0.113500
20
0.066659
30
0.0
11
0.113500
21
0.072690
31
0.0
0
LINE
8
0
6
CONTINUOUS
10
0.091500
20
0.037367
30
0.0
11
0.087358
21
0.038229
31
0.0
0
LINE
8
0
6
CONTINUOUS
10
0.088772
20
0.016460
30
0.0
11
0.092500
21
0.015685
31
0.0
0
LINE
8
0
6
CONTINUOUS
10
0.121500
20
0.042066
30
0.0
11
0.120819
21
0.040662
31
0.0
0
LINE
8
0
6
CONTINUOUS
10
0.119500
20
0.019914
30
0.0
11
0.121500
21
0.042066
31
0.0
0
LINE
8
0
6
CONTINUOUS
10
0.118887
20
0.018650
30
0.0
11
0.119500
21
0.019914
31
0.0
0
LINE
8
0
6
CONTINUOUS
10
0.115642
20
0.038229
30
0.0
11
0.111500
21
0.037367
31
0.0
0
LINE
8
0
6
CONTINUOUS
10
0.110500
20
0.015685
30
0.0
11
0.114228
21
0.016460
31
0.0
0
LINE
8
0
6
CONTINUOUS
10
0.117088
20
0.017472
30
0.0
11
0.114228
21
0.016460
31
0.0
0
LINE
8
0
6
CONTINUOUS
10
0.113521
20
0.015766
30
0.0
11
0.116222
21
0.016721
31
0.0
0
LINE
8
0
6
CONTINUOUS
10
0.111892
20
0.015184
30
0.0
11
0.111892
21
0.015628
31
0.0
0
LINE
8
0
6
CONTINUOUS
10
0.111982
20
0.015390
30
0.0
11
0.111892
21
0.015184
31
0.0
0
LINE
8
0
6
CONTINUOUS
10
0.111892
20
0.015184
30
0.0
11
0.111283
21
0.015061
31
0.0
0
LINE
8
0
6
CONTINUOUS
10
0.111892
20
0.015628
30
0.0
11
0.111892
21
0.015184
31
0.0
0
LINE
8
0
6
CONTINUOUS
10
0.111283
20
0.015061
30
0.0
11
0.110526
21
0.015085
31
0.0
0
LINE
8
0
6
CONTINUOUS
10
0.111892
20
0.015184
30
0.0
11
0.111982
21
0.015390
31
0.0
0
LINE
8
0
6
CONTINUOUS
10
0.111283
20
0.015061
30
0.0
11
0.111892
21
0.015184
31
0.0
0
LINE
8
0
6
CONTINUOUS
10
0.110526
20
0.015085
30
0.0
11
0.111283
21
0.015061
31
0.0
0
LINE
8
0
6
CONTINUOUS
10
0.107956
20
0.014158
30
0.0
11
0.107956
21
0.014601
31
0.0
0
LINE
8
0
6
CONTINUOUS
10
0.107956
20
0.014158
30
0.0
11
0.107500
21
0.013993
31
0.0
0
LINE
8
0
6
CONTINUOUS
10
0.107500
20
0.013993
30
0.0
11
0.106744
21
0.013968
31
0.0
0
LINE
8
0
6
CONTINUOUS
10
0.106744
20
0.013968
30
0.0
11
0.106134
21
0.014092
31
0.0
0
LINE
8
0
6
CONTINUOUS
10
0.106744
20
0.014411
30
0.0
11
0.106744
21
0.013968
31
0.0
0
LINE
8
0
6
CONTINUOUS
10
0.107500
20
0.013993
30
0.0
11
0.107956
21
0.014158
31
0.0
0
LINE
8
0
6
CONTINUOUS
10
0.106744
20
0.013968
30
0.0
11
0.107500
21
0.013993
31
0.0
0
LINE
8
0
6
CONTINUOUS
10
0.106134
20
0.014092
30
0.0
11
0.106744
21
0.013968
31
0.0
0
LINE
8
0
6
CONTINUOUS
10
0.102200
20
0.013638
30
0.0
11
0.102500
21
0.013828
31
0.0
0
LINE
8
0
6
CONTINUOUS
10
0.101500
20
0.014000
30
0.0
11
0.101500
21
0.013557
31
0.0
0
LINE
8
0
6
CONTINUOUS
10
0.102200
20
0.013638
30
0.0
11
0.102200
21
0.014081
31
0.0
0
LINE
8
0
6
CONTINUOUS
10
0.101500
20
0.013557
30
0.0
11
0.102200
21
0.013638
31
0.0
0
LINE
8
0
6
CONTINUOUS
10
0.101500
20
0.013557
30
0.0
11
0.101500
21
0.014000
31
0.0
0
LINE
8
0
6
CONTINUOUS
10
0.100800
20
0.013638
30
0.0
11
0.101500
21
0.013557
31
0.0
0
LINE
8
0
6
CONTINUOUS
10
0.100500
20
0.013828
30
0.0
11
0.100800
21
0.013638
31
0.0
0
LINE
8
0
6
CONTINUOUS
10
0.102200
20
0.013638
30
0.0
11
0.102500
21
0.013828
31
0.0
0
LINE
8
0
6
CONTINUOUS
10
0.102200
20
0.013638
30
0.0
11
0.101500
21
0.013557
31
0.0
0
LINE
8
0
6
CONTINUOUS
10
0.101500
20
0.013557
30
0.0
11
0.100800
21
0.013638
31
0.0
0
LINE
8
0
6
CONTINUOUS
10
0.100800
20
0.013638
30
0.0
11
0.100500
21
0.013828
31
0.0
0
LINE
8
0
6
CONTINUOUS
10
0.091108
20
0.015184
30
0.0
11
0.091108
21
0.015628
31
0.0
0
LINE
8
0
6
CONTINUOUS
10
0.091018
20
0.015390
30
0.0
11
0.091108
21
0.015184
31
0.0
0
LINE
8
0
6
CONTINUOUS
10
0.091108
20
0.015184
30
0.0
11
0.091718
21
0.015061
31
0.0
0
LINE
8
0
6
CONTINUOUS
10
0.091718
20
0.015061
30
0.0
11
0.092474
21
0.015085
31
0.0
0
LINE
8
0
6
CONTINUOUS
10
0.091108
20
0.015184
30
0.0
11
0.091018
21
0.015390
31
0.0
0
LINE
8
0
6
CONTINUOUS
10
0.091718
20
0.015061
30
0.0
11
0.091108
21
0.015184
31
0.0
0
LINE
8
0
6
CONTINUOUS
10
0.092474
20
0.015085
30
0.0
11
0.091718
21
0.015061
31
0.0
0
LINE
8
0
6
CONTINUOUS
10
0.095044
20
0.014158
30
0.0
11
0.095500
21
0.013993
31
0.0
0
LINE
8
0
6
CONTINUOUS
10
0.096256
20
0.013968
30
0.0
11
0.096256
21
0.014411
31
0.0
0
LINE
8
0
6
CONTINUOUS
10
0.095500
20
0.013993
30
0.0
11
0.096256
21
0.013968
31
0.0
0
LINE
8
0
6
CONTINUOUS
10
0.095500
20
0.014436
30
0.0
11
0.095500
21
0.013993
31
0.0
0
LINE
8
0
6
CONTINUOUS
10
0.096256
20
0.013968
30
0.0
11
0.096866
21
0.014092
31
0.0
0
LINE
8
0
6
CONTINUOUS
10
0.095500
20
0.013993
30
0.0
11
0.095044
21
0.014158
31
0.0
0
LINE
8
0
6
CONTINUOUS
10
0.096256
20
0.013968
30
0.0
11
0.095500
21
0.013993
31
0.0
0
LINE
8
0
6
CONTINUOUS
10
0.096866
20
0.014092
30
0.0
11
0.096256
21
0.013968
31
0.0
0
LINE
8
0
6
CONTINUOUS
10
0.100500
20
0.013828
30
0.0
11
0.100800
21
0.013638
31
0.0
0
LINE
8
0
6
CONTINUOUS
10
0.101500
20
0.013557
30
0.0
11
0.101500
21
0.014000
31
0.0
0
LINE
8
0
6
CONTINUOUS
10
0.100800
20
0.013638
30
0.0
11
0.101500
21
0.013557
31
0.0
0
LINE
8
0
6
CONTINUOUS
10
0.100800
20
0.014081
30
0.0
11
0.100800
21
0.013638
31
0.0
0
LINE
8
0
6
CONTINUOUS
10
0.101500
20
0.013557
30
0.0
11
0.102200
21
0.013638
31
0.0
0
LINE
8
0
6
CONTINUOUS
10
0.102200
20
0.013638
30
0.0
11
0.102500
21
0.013828
31
0.0
0
LINE
8
0
6
CONTINUOUS
10
0.102200
20
0.014081
30
0.0
11
0.102200
21
0.013638
31
0.0
0
LINE
8
0
6
CONTINUOUS
10
0.100800
20
0.013638
30
0.0
11
0.100500
21
0.013828
31
0.0
0
LINE
8
0
6
CONTINUOUS
10
0.101500
20
0.013557
30
0.0
11
0.100800
21
0.013638
31
0.0
0
LINE
8
0
6
CONTINUOUS
10
0.102200
20
0.013638
30
0.0
11
0.101500
21
0.013557
31
0.0
0
LINE
8
0
6
CONTINUOUS
10
0.102500
20
0.013828
30
0.0
11
0.102200
21
0.013638
31
0.0
0
LINE
8
0
6
CONTINUOUS
10
0.093708
20
0.014936
30
0.0
11
0.097466
21
0.014514
31
0.0
0
LINE
8
0
6
CONTINUOUS
10
0.105534
20
0.014514
30
0.0
11
0.109292
21
0.014936
31
0.0
0
LINE
8
0
6
CONTINUOUS
10
0.101500
20
0.014370
30
0.0
11
0.105534
21
0.014514
31
0.0
0
LINE
8
0
6
CONTINUOUS
10
0.097466
20
0.014514
30
0.0
11
0.101500
21
0.014370
31
0.0
0
LINE
8
0
6
CONTINUOUS
10
0.092706
20
0.014869
30
0.0
11
0.095306
21
0.014340
31
0.0
0
LINE
8
0
6
CONTINUOUS
10
0.095115
20
0.014413
30
0.0
11
0.092438
21
0.014963
31
0.0
0
LINE
8
0
6
CONTINUOUS
10
0.095306
20
0.014340
30
0.0
11
0.098288
21
0.014008
31
0.0
0
LINE
8
0
6
CONTINUOUS
10
0.098212
20
0.014071
30
0.0
11
0.095115
21
0.014413
31
0.0
0
LINE
8
0
6
CONTINUOUS
10
0.098288
20
0.014008
30
0.0
11
0.101500
21
0.013884
31
0.0
0
LINE
8
0
6
CONTINUOUS
10
0.101500
20
0.013946
30
0.0
11
0.098212
21
0.014071
31
0.0
0
LINE
8
0
6
CONTINUOUS
10
0.092438
20
0.014963
30
0.0
11
0.095115
21
0.014413
31
0.0
0
LINE
8
0
6
CONTINUOUS
10
0.095115
20
0.014413
30
0.0
11
0.098212
21
0.014071
31
0.0
0
LINE
8
0
6
CONTINUOUS
10
0.098212
20
0.014071
30
0.0
11
0.101500
21
0.013946
31
0.0
0
LINE
8
0
6
CONTINUOUS
10
0.092438
20
0.014963
30
0.0
11
0.090412
21
0.015689
31
0.0
0
LINE
8
0
6
CONTINUOUS
10
0.092706
20
0.014869
30
0.0
11
0.092438
21
0.014963
31
0.0
0
LINE
8
0
6
CONTINUOUS
10
0.090412
20
0.015689
30
0.0
11
0.092438
21
0.014963
31
0.0
0
LINE
8
0
6
CONTINUOUS
10
0.110562
20
0.014963
30
0.0
11
0.107885
21
0.014413
31
0.0
0
LINE
8
0
6
CONTINUOUS
10
0.107694
20
0.014340
30
0.0
11
0.110294
21
0.014869
31
0.0
0
LINE
8
0
6
CONTINUOUS
10
0.107885
20
0.014413
30
0.0
11
0.104788
21
0.014071
31
0.0
0
LINE
8
0
6
CONTINUOUS
10
0.104712
20
0.014008
30
0.0
11
0.107694
21
0.014340
31
0.0
0
LINE
8
0
6
CONTINUOUS
10
0.104788
20
0.014071
30
0.0
11
0.101500
21
0.013946
31
0.0
0
LINE
8
0
6
CONTINUOUS
10
0.101500
20
0.013884
30
0.0
11
0.104712
21
0.014008
31
0.0
0
LINE
8
0
6
CONTINUOUS
10
0.107885
20
0.014413
30
0.0
11
0.110562
21
0.014963
31
0.0
0
LINE
8
0
6
CONTINUOUS
10
0.104788
20
0.014071
30
0.0
11
0.107885
21
0.014413
31
0.0
0
LINE
8
0
6
CONTINUOUS
10
0.101500
20
0.013946
30
0.0
11
0.104788
21
0.014071
31
0.0
0
LINE
8
0
6
CONTINUOUS
10
0.110562
20
0.014963
30
0.0
11
0.110294
21
0.014869
31
0.0
0
LINE
8
0
6
CONTINUOUS
10
0.112588
20
0.015689
30
0.0
11
0.110562
21
0.014963
31
0.0
0
LINE
8
0
6
CONTINUOUS
10
0.110562
20
0.014963
30
0.0
11
0.112588
21
0.015689
31
0.0
0
LINE
8
0
6
CONTINUOUS
10
-0.093744
20
-0.064318
30
0.0
11
-0.093744
21
-0.063760
31
0.0
0
LINE
8
0
6
CONTINUOUS
10
-0.103256
20
-0.024462
30
0.0
11
-0.103256
21
-0.063760
31
0.0
0
LINE
8
0
6
CONTINUOUS
10
-0.100320
20
-0.062602
30
0.0
11
-0.100320
21
-0.063160
31
0.0
0
LINE
8
0
6
CONTINUOUS
10
-0.094106
20
-0.063839
30
0.0
11
-0.094560
21
-0.063660
31
0.0
0
LINE
8
0
6
CONTINUOUS
10
-0.095805
20
-0.063315
30
0.0
11
-0.096680
21
-0.063160
31
0.0
0
LINE
8
0
6
CONTINUOUS
10
-0.100320
20
-0.063160
30
0.0
11
-0.101195
21
-0.063315
31
0.0
0
LINE
8
0
6
CONTINUOUS
10
-0.102440
20
-0.063660
30
0.0
11
-0.102894
21
-0.063839
31
0.0
0
LINE
8
0
6
CONTINUOUS
10
-0.095137
20
-0.063432
30
0.0
11
-0.095805
21
-0.063315
31
0.0
0
LINE
8
0
6
CONTINUOUS
10
-0.101863
20
-0.063432
30
0.0
11
-0.102440
21
-0.063660
31
0.0
0
LINE
8
0
6
CONTINUOUS
10
-0.098500
20
-0.065564
30
0.0
11
-0.096680
21
-0.065469
31
0.0
0
LINE
8
0
6
CONTINUOUS
10
-0.096680
20
-0.065469
30
0.0
11
-0.095137
21
-0.065200
31
0.0
0
LINE
8
0
6
CONTINUOUS
10
-0.095137
20
-0.065200
30
0.0
11
-0.094106
21
-0.064796
31
0.0
0
LINE
8
0
6
CONTINUOUS
10
-0.094106
20
-0.064796
30
0.0
11
-0.093744
21
-0.064318
31
0.0
0
LINE
8
0
6
CONTINUOUS
10
-0.093744
20
-0.064318
30
0.0
11
-0.094106
21
-0.063839
31
0.0
0
LINE
8
0
6
CONTINUOUS
10
-0.100320
20
-0.065469
30
0.0
11
-0.098500
21
-0.065564
31
0.0
0
LINE
8
0
6
CONTINUOUS
10
-0.101863
20
-0.065200
30
0.0
11
-0.100320
21
-0.065469
31
0.0
0
LINE
8
0
6
CONTINUOUS
10
-0.102894
20
-0.064796
30
0.0
11
-0.101863
21
-0.065200
31
0.0
0
LINE
8
0
6
CONTINUOUS
10
-0.103256
20
-0.064318
30
0.0
11
-0.102894
21
-0.064796
31
0.0
0
LINE
8
0
6
CONTINUOUS
10
-0.098500
20
-0.063065
30
0.0
11
-0.100320
21
-0.063160
31
0.0
0
LINE
8
0
6
CONTINUOUS
10
-0.103530
20
-0.017558
30
0.0
11
-0.103256
21
-0.018568
31
0.0
0
LINE
8
0
6
CONTINUOUS
10
-0.095137
20
-0.063432
30
0.0
11
-0.094560
21
-0.063660
31
0.0
0
LINE
8
0
6
CONTINUOUS
10
-0.101863
20
-0.063432
30
0.0
11
-0.101195
21
-0.063315
31
0.0
0
LINE
8
0
6
CONTINUOUS
10
-0.094541
20
-0.017431
30
0.0
11
-0.093539
21
-0.016159
31
0.0
0
LINE
8
0
6
CONTINUOUS
10
-0.091975
20
-0.015130
30
0.0
11
-0.091284
21
-0.014573
31
0.0
0
LINE
8
0
6
CONTINUOUS
10
-0.093470
20
-0.017558
30
0.0
11
-0.092724
21
-0.016126
31
0.0
0
LINE
8
0
6
CONTINUOUS
10
-0.095101
20
-0.024060
30
0.0
11
-0.095099
21
-0.021250
31
0.0
0
LINE
8
0
6
CONTINUOUS
10
-0.080314
20
0.007831
30
0.0
11
-0.082125
21
0.012359
31
0.0
0
LINE
8
0
6
CONTINUOUS
10
-0.089143
20
-0.013374
30
0.0
11
-0.085143
21
-0.010355
31
0.0
0
LINE
8
0
6
CONTINUOUS
10
-0.082125
20
-0.006356
30
0.0
11
-0.080314
21
-0.001828
31
0.0
0
LINE
8
0
6
CONTINUOUS
10
-0.085143
20
-0.010355
30
0.0
11
-0.082125
21
-0.006356
31
0.0
0
LINE
8
0
6
CONTINUOUS
10
-0.082125
20
0.012359
30
0.0
11
-0.085143
21
0.016358
31
0.0
0
LINE
8
0
6
CONTINUOUS
10
-0.093670
20
0.021188
30
0.0
11
-0.098500
21
0.021867
31
0.0
0
LINE
8
0
6
CONTINUOUS
10
-0.089143
20
0.019377
30
0.0
11
-0.093670
21
0.021188
31
0.0
0
LINE
8
0
6
CONTINUOUS
10
-0.085143
20
0.016358
30
0.0
11
-0.089143
21
0.019377
31
0.0
0
LINE
8
0
6
CONTINUOUS
10
-0.080314
20
-0.001828
30
0.0
11
-0.079634
21
0.003002
31
0.0
0
LINE
8
0
6
CONTINUOUS
10
-0.079634
20
0.003002
30
0.0
11
-0.080314
21
0.007831
31
0.0
0
LINE
8
0
6
CONTINUOUS
10
-0.095137
20
-0.062874
30
0.0
11
-0.095101
21
-0.024060
31
0.0
0
LINE
8
0
6
CONTINUOUS
10
-0.107857
20
-0.013374
30
0.0
11
-0.105313
21
-0.014622
31
0.0
0
LINE
8
0
6
CONTINUOUS
10
-0.101899
20
-0.024060
30
0.0
11
-0.101901
21
-0.021250
31
0.0
0
LINE
8
0
6
CONTINUOUS
10
-0.114875
20
0.012359
30
0.0
11
-0.116686
21
0.007831
31
0.0
0
LINE
8
0
6
CONTINUOUS
10
-0.111857
20
-0.010355
30
0.0
11
-0.107857
21
-0.013374
31
0.0
0
LINE
8
0
6
CONTINUOUS
10
-0.116686
20
-0.001828
30
0.0
11
-0.114875
21
-0.006356
31
0.0
0
LINE
8
0
6
CONTINUOUS
10
-0.114875
20
-0.006356
30
0.0
11
-0.111857
21
-0.010355
31
0.0
0
LINE
8
0
6
CONTINUOUS
10
-0.111857
20
0.016358
30
0.0
11
-0.114875
21
0.012359
31
0.0
0
LINE
8
0
6
CONTINUOUS
10
-0.098500
20
0.021867
30
0.0
11
-0.103330
21
0.021188
31
0.0
0
LINE
8
0
6
CONTINUOUS
10
-0.103330
20
0.021188
30
0.0
11
-0.107857
21
0.019377
31
0.0
0
LINE
8
0
6
CONTINUOUS
10
-0.107857
20
0.019377
30
0.0
11
-0.111857
21
0.016358
31
0.0
0
LINE
8
0
6
CONTINUOUS
10
-0.117366
20
0.003002
30
0.0
11
-0.116686
21
-0.001828
31
0.0
0
LINE
8
0
6
CONTINUOUS
10
-0.116686
20
0.007831
30
0.0
11
-0.117366
21
0.003002
31
0.0
0
LINE
8
0
6
CONTINUOUS
10
-0.103256
20
-0.064318
30
0.0
11
-0.102894
21
-0.063839
31
0.0
0
LINE
8
0
6
CONTINUOUS
10
-0.103256
20
-0.063760
30
0.0
11
-0.103256
21
-0.064318
31
0.0
0
LINE
8
0
6
CONTINUOUS
10
-0.103256
20
-0.018568
30
0.0
11
-0.103256
21
-0.021619
31
0.0
0
LINE
8
0
6
CONTINUOUS
10
-0.104276
20
-0.016126
30
0.0
11
-0.103530
21
-0.017558
31
0.0
0
LINE
8
0
6
CONTINUOUS
10
-0.092724
20
-0.016126
30
0.0
11
-0.092018
21
-0.015146
31
0.0
0
LINE
8
0
6
CONTINUOUS
10
-0.093744
20
-0.018568
30
0.0
11
-0.093470
21
-0.017558
31
0.0
0
LINE
8
0
6
CONTINUOUS
10
-0.093695
20
-0.017466
30
0.0
11
-0.092797
21
-0.016091
31
0.0
0
LINE
8
0
6
CONTINUOUS
10
-0.092797
20
-0.016091
30
0.0
11
-0.091975
21
-0.015130
31
0.0
0
LINE
8
0
6
CONTINUOUS
10
-0.100320
20
-0.021938
30
0.0
11
-0.100320
21
-0.062602
31
0.0
0
LINE
8
0
6
CONTINUOUS
10
-0.105716
20
-0.014573
30
0.0
11
-0.105025
21
-0.015130
31
0.0
0
LINE
8
0
6
CONTINUOUS
10
-0.091687
20
-0.014622
30
0.0
11
-0.092533
21
-0.015220
31
0.0
0
LINE
8
0
6
CONTINUOUS
10
-0.094106
20
-0.018475
30
0.0
11
-0.093695
21
-0.017466
31
0.0
0
LINE
8
0
6
CONTINUOUS
10
-0.093744
20
-0.024462
30
0.0
11
-0.093744
21
-0.021619
31
0.0
0
LINE
8
0
6
CONTINUOUS
10
-0.096680
20
-0.021938
30
0.0
11
-0.096680
21
-0.019003
31
0.0
0
LINE
8
0
6
CONTINUOUS
10
-0.093744
20
-0.063760
30
0.0
11
-0.093744
21
-0.024462
31
0.0
0
LINE
8
0
6
CONTINUOUS
10
-0.098500
20
-0.010487
30
0.0
11
-0.098500
21
-0.014397
31
0.0
0
LINE
8
0
6
CONTINUOUS
10
-0.103305
20
-0.017466
30
0.0
11
-0.102894
21
-0.018475
31
0.0
0
LINE
8
0
6
CONTINUOUS
10
-0.093744
20
-0.021619
30
0.0
11
-0.093744
21
-0.018568
31
0.0
0
LINE
8
0
6
CONTINUOUS
10
-0.098500
20
-0.021264
30
0.0
11
-0.098500
21
-0.062507
31
0.0
0
LINE
8
0
6
CONTINUOUS
10
-0.098500
20
-0.018290
30
0.0
11
-0.098500
21
-0.014397
31
0.0
0
LINE
8
0
6
CONTINUOUS
10
-0.101863
20
-0.062874
30
0.0
11
-0.101899
21
-0.024060
31
0.0
0
LINE
8
0
6
CONTINUOUS
10
-0.102459
20
-0.017431
30
0.0
11
-0.103461
21
-0.016159
31
0.0
0
LINE
8
0
6
CONTINUOUS
10
-0.104982
20
-0.015146
30
0.0
11
-0.104276
21
-0.016126
31
0.0
0
LINE
8
0
6
CONTINUOUS
10
-0.107857
20
-0.013374
30
0.0
11
-0.105716
21
-0.014573
31
0.0
0
LINE
8
0
6
CONTINUOUS
10
-0.105025
20
-0.015130
30
0.0
11
-0.104203
21
-0.016091
31
0.0
0
LINE
8
0
6
CONTINUOUS
10
-0.091565
20
-0.014607
30
0.0
11
-0.089143
21
-0.013374
31
0.0
0
LINE
8
0
6
CONTINUOUS
10
-0.089143
20
-0.013374
30
0.0
11
-0.091687
21
-0.014622
31
0.0
0
LINE
8
0
6
CONTINUOUS
10
-0.098500
20
-0.006563
30
0.0
11
-0.098500
21
-0.010487
31
0.0
0
LINE
8
0
6
CONTINUOUS
10
-0.103256
20
-0.021619
30
0.0
11
-0.103256
21
-0.024462
31
0.0
0
LINE
8
0
6
CONTINUOUS
10
-0.098500
20
-0.021264
30
0.0
11
-0.098500
21
-0.018290
31
0.0
0
LINE
8
0
6
CONTINUOUS
10
-0.096546
20
-0.016437
30
0.0
11
-0.096680
21
-0.019003
31
0.0
0
LINE
8
0
6
CONTINUOUS
10
-0.104467
20
-0.015220
30
0.0
11
-0.105313
21
-0.014622
31
0.0
0
LINE
8
0
6
CONTINUOUS
10
-0.107857
20
-0.013374
30
0.0
11
-0.105435
21
-0.014607
31
0.0
0
LINE
8
0
6
CONTINUOUS
10
-0.103461
20
-0.016159
30
0.0
11
-0.104467
21
-0.015220
31
0.0
0
LINE
8
0
6
CONTINUOUS
10
-0.092533
20
-0.015220
30
0.0
11
-0.093539
21
-0.016159
31
0.0
0
LINE
8
0
6
CONTINUOUS
10
-0.091284
20
-0.014573
30
0.0
11
-0.089143
21
-0.013374
31
0.0
0
LINE
8
0
6
CONTINUOUS
10
-0.100320
20
-0.021938
30
0.0
11
-0.100320
21
-0.019003
31
0.0
0
LINE
8
0
6
CONTINUOUS
10
-0.095079
20
-0.018462
30
0.0
11
-0.094599
21
-0.018468
31
0.0
0
LINE
8
0
6
CONTINUOUS
10
-0.094541
20
-0.017431
30
0.0
11
-0.095079
21
-0.018462
31
0.0
0
LINE
8
0
6
CONTINUOUS
10
-0.098500
20
-0.002620
30
0.0
11
-0.098500
21
-0.006563
31
0.0
0
LINE
8
0
6
CONTINUOUS
10
-0.101921
20
-0.018462
30
0.0
11
-0.101901
21
-0.021250
31
0.0
0
LINE
8
0
6
CONTINUOUS
10
-0.096680
20
-0.063160
30
0.0
11
-0.096680
21
-0.062602
31
0.0
0
LINE
8
0
6
CONTINUOUS
10
-0.098500
20
-0.063065
30
0.0
11
-0.096680
21
-0.063160
31
0.0
0
LINE
8
0
6
CONTINUOUS
10
-0.098500
20
-0.062507
30
0.0
11
-0.098500
21
-0.063065
31
0.0
0
LINE
8
0
6
CONTINUOUS
10
-0.101921
20
-0.018462
30
0.0
11
-0.102459
21
-0.017431
31
0.0
0
LINE
8
0
6
CONTINUOUS
10
-0.096680
20
-0.021938
30
0.0
11
-0.096680
21
-0.062602
31
0.0
0
LINE
8
0
6
CONTINUOUS
10
-0.081577
20
-0.006971
30
0.0
11
-0.081516
21
-0.006805
31
0.0
0
LINE
8
0
6
CONTINUOUS
10
-0.111944
20
-0.010442
30
0.0
11
-0.108015
21
-0.013480
31
0.0
0
LINE
8
0
6
CONTINUOUS
10
-0.114752
20
-0.009733
30
0.0
11
-0.113683
21
-0.016696
31
0.0
0
LINE
8
0
6
CONTINUOUS
10
-0.113683
20
-0.016696
30
0.0
11
-0.113478
21
-0.021893
31
0.0
0
LINE
8
0
6
CONTINUOUS
10
-0.103466
20
-0.016414
30
0.0
11
-0.108110
21
-0.014536
31
0.0
0
LINE
8
0
6
CONTINUOUS
10
-0.103256
20
-0.019484
30
0.0
11
-0.103787
21
-0.019458
31
0.0
0
LINE
8
0
6
CONTINUOUS
10
-0.112218
20
-0.017399
30
0.0
11
-0.112333
21
-0.022540
31
0.0
0
LINE
8
0
6
CONTINUOUS
10
-0.108872
20
-0.023011
30
0.0
11
-0.108593
21
-0.018664
31
0.0
0
LINE
8
0
6
CONTINUOUS
10
-0.112135
20
-0.011541
30
0.0
11
-0.112218
21
-0.017399
31
0.0
0
LINE
8
0
6
CONTINUOUS
10
-0.112135
20
-0.011541
30
0.0
11
-0.108110
21
-0.014536
31
0.0
0
LINE
8
0
6
CONTINUOUS
10
-0.115157
20
-0.007703
30
0.0
11
-0.114752
21
-0.009733
31
0.0
0
LINE
8
0
6
CONTINUOUS
10
-0.112135
20
-0.011541
30
0.0
11
-0.112032
21
-0.010531
31
0.0
0
LINE
8
0
6
CONTINUOUS
10
-0.115484
20
-0.006805
30
0.0
11
-0.115423
21
-0.006971
31
0.0
0
LINE
8
0
6
CONTINUOUS
10
-0.084796
20
-0.010233
30
0.0
11
-0.084536
21
-0.010024
31
0.0
0
LINE
8
0
6
CONTINUOUS
10
-0.114954
20
0.012502
30
0.0
11
-0.111935
21
0.016437
31
0.0
0
LINE
8
0
6
CONTINUOUS
10
-0.103418
20
0.021354
30
0.0
11
-0.098500
21
0.022002
31
0.0
0
LINE
8
0
6
CONTINUOUS
10
-0.111935
20
-0.010433
30
0.0
11
-0.114954
21
-0.006498
31
0.0
0
LINE
8
0
6
CONTINUOUS
10
-0.117500
20
0.003002
30
0.0
11
-0.116853
21
0.007919
31
0.0
0
LINE
8
0
6
CONTINUOUS
10
-0.117500
20
0.003002
30
0.0
11
-0.116853
21
-0.001916
31
0.0
0
LINE
8
0
6
CONTINUOUS
10
-0.108000
20
0.019456
30
0.0
11
-0.103418
21
0.021354
31
0.0
0
LINE
8
0
6
CONTINUOUS
10
-0.111935
20
0.016437
30
0.0
11
-0.108000
21
0.019456
31
0.0
0
LINE
8
0
6
CONTINUOUS
10
-0.108000
20
-0.013453
30
0.0
11
-0.111935
21
-0.010433
31
0.0
0
LINE
8
0
6
CONTINUOUS
10
-0.116853
20
0.007919
30
0.0
11
-0.114954
21
0.012502
31
0.0
0
LINE
8
0
6
CONTINUOUS
10
-0.114954
20
-0.006498
30
0.0
11
-0.116853
21
-0.001916
31
0.0
0
LINE
8
0
6
CONTINUOUS
10
-0.114763
20
-0.013268
30
0.0
11
-0.114136
21
-0.013750
31
0.0
0
LINE
8
0
6
CONTINUOUS
10
-0.120716
20
-0.002956
30
0.0
11
-0.118419
21
-0.008504
31
0.0
0
LINE
8
0
6
CONTINUOUS
10
-0.104453
20
0.025216
30
0.0
11
-0.110000
21
0.022918
31
0.0
0
LINE
8
0
6
CONTINUOUS
10
-0.114763
20
0.019263
30
0.0
11
-0.118419
21
0.014499
31
0.0
0
LINE
8
0
6
CONTINUOUS
10
-0.120716
20
0.008951
30
0.0
11
-0.121500
21
0.002997
31
0.0
0
LINE
8
0
6
CONTINUOUS
10
-0.118419
20
-0.008504
30
0.0
11
-0.114763
21
-0.013268
31
0.0
0
LINE
8
0
6
CONTINUOUS
10
-0.098500
20
0.026000
30
0.0
11
-0.104453
21
0.025216
31
0.0
0
LINE
8
0
6
CONTINUOUS
10
-0.121500
20
0.002997
30
0.0
11
-0.120716
21
-0.002956
31
0.0
0
LINE
8
0
6
CONTINUOUS
10
-0.110000
20
0.022918
30
0.0
11
-0.114763
21
0.019263
31
0.0
0
LINE
8
0
6
CONTINUOUS
10
-0.118419
20
0.014499
30
0.0
11
-0.120716
21
0.008951
31
0.0
0
LINE
8
0
6
CONTINUOUS
10
-0.115423
20
-0.006971
30
0.0
11
-0.115157
21
-0.007703
31
0.0
0
LINE
8
0
6
CONTINUOUS
10
-0.088985
20
-0.013480
30
0.0
11
-0.085057
21
-0.010442
31
0.0
0
LINE
8
0
6
CONTINUOUS
10
-0.083317
20
-0.016696
30
0.0
11
-0.082248
21
-0.009733
31
0.0
0
LINE
8
0
6
CONTINUOUS
10
-0.083522
20
-0.021893
30
0.0
11
-0.083317
21
-0.016696
31
0.0
0
LINE
8
0
6
CONTINUOUS
10
-0.088890
20
-0.014536
30
0.0
11
-0.093534
21
-0.016414
31
0.0
0
LINE
8
0
6
CONTINUOUS
10
-0.093213
20
-0.019458
30
0.0
11
-0.093744
21
-0.019484
31
0.0
0
LINE
8
0
6
CONTINUOUS
10
-0.088407
20
-0.018664
30
0.0
11
-0.088128
21
-0.023011
31
0.0
0
LINE
8
0
6
CONTINUOUS
10
-0.084667
20
-0.022540
30
0.0
11
-0.084782
21
-0.017399
31
0.0
0
LINE
8
0
6
CONTINUOUS
10
-0.084782
20
-0.017399
30
0.0
11
-0.084865
21
-0.011541
31
0.0
0
LINE
8
0
6
CONTINUOUS
10
-0.088890
20
-0.014536
30
0.0
11
-0.084865
21
-0.011541
31
0.0
0
LINE
8
0
6
CONTINUOUS
10
-0.084968
20
-0.010531
30
0.0
11
-0.084865
21
-0.011541
31
0.0
0
LINE
8
0
6
CONTINUOUS
10
-0.082248
20
-0.009733
30
0.0
11
-0.081843
21
-0.007703
31
0.0
0
LINE
8
0
6
CONTINUOUS
10
-0.085065
20
0.016437
30
0.0
11
-0.082046
21
0.012502
31
0.0
0
LINE
8
0
6
CONTINUOUS
10
-0.098500
20
0.022002
30
0.0
11
-0.093582
21
0.021354
31
0.0
0
LINE
8
0
6
CONTINUOUS
10
-0.082046
20
-0.006498
30
0.0
11
-0.085065
21
-0.010433
31
0.0
0
LINE
8
0
6
CONTINUOUS
10
-0.080147
20
0.007919
30
0.0
11
-0.079500
21
0.003002
31
0.0
0
LINE
8
0
6
CONTINUOUS
10
-0.080147
20
-0.001916
30
0.0
11
-0.079500
21
0.003002
31
0.0
0
LINE
8
0
6
CONTINUOUS
10
-0.093582
20
0.021354
30
0.0
11
-0.089000
21
0.019456
31
0.0
0
LINE
8
0
6
CONTINUOUS
10
-0.089000
20
0.019456
30
0.0
11
-0.085065
21
0.016437
31
0.0
0
LINE
8
0
6
CONTINUOUS
10
-0.085065
20
-0.010433
30
0.0
11
-0.089000
21
-0.013453
31
0.0
0
LINE
8
0
6
CONTINUOUS
10
-0.082046
20
0.012502
30
0.0
11
-0.080147
21
0.007919
31
0.0
0
LINE
8
0
6
CONTINUOUS
10
-0.080147
20
-0.001916
30
0.0
11
-0.082046
21
-0.006498
31
0.0
0
LINE
8
0
6
CONTINUOUS
10
-0.082864
20
-0.013750
30
0.0
11
-0.082237
21
-0.013268
31
0.0
0
LINE
8
0
6
CONTINUOUS
10
-0.078581
20
-0.008504
30
0.0
11
-0.076284
21
-0.002956
31
0.0
0
LINE
8
0
6
CONTINUOUS
10
-0.087000
20
0.022918
30
0.0
11
-0.092547
21
0.025216
31
0.0
0
LINE
8
0
6
CONTINUOUS
10
-0.078581
20
0.014499
30
0.0
11
-0.082237
21
0.019263
31
0.0
0
LINE
8
0
6
CONTINUOUS
10
-0.075500
20
0.002997
30
0.0
11
-0.076284
21
0.008951
31
0.0
0
LINE
8
0
6
CONTINUOUS
10
-0.082237
20
-0.013268
30
0.0
11
-0.078581
21
-0.008504
31
0.0
0
LINE
8
0
6
CONTINUOUS
10
-0.092547
20
0.025216
30
0.0
11
-0.098500
21
0.026000
31
0.0
0
LINE
8
0
6
CONTINUOUS
10
-0.076284
20
-0.002956
30
0.0
11
-0.075500
21
0.002997
31
0.0
0
LINE
8
0
6
CONTINUOUS
10
-0.082237
20
0.019263
30
0.0
11
-0.082296
21
0.019308
31
0.0
0
LINE
8
0
6
CONTINUOUS
10
-0.085374
20
0.021671
30
0.0
11
-0.087000
21
0.022918
31
0.0
0
LINE
8
0
6
CONTINUOUS
10
-0.076284
20
0.008951
30
0.0
11
-0.078581
21
0.014499
31
0.0
0
LINE
8
0
6
CONTINUOUS
10
-0.081843
20
-0.007703
30
0.0
11
-0.081577
21
-0.006971
31
0.0
0
LINE
8
0
6
CONTINUOUS
10
-0.113403
20
-0.024074
30
0.0
11
-0.111613
21
-0.076449
31
0.0
0
LINE
8
0
6
CONTINUOUS
10
-0.112264
20
-0.024696
30
0.0
11
-0.110611
21
-0.076449
31
0.0
0
LINE
8
0
6
CONTINUOUS
10
-0.085387
20
-0.076449
30
0.0
11
-0.083597
21
-0.024074
31
0.0
0
LINE
8
0
6
CONTINUOUS
10
-0.084736
20
-0.024696
30
0.0
11
-0.086389
21
-0.076449
31
0.0
0
LINE
8
0
6
CONTINUOUS
10
-0.111613
20
-0.076449
30
0.0
11
-0.111579
21
-0.077448
31
0.0
0
LINE
8
0
6
CONTINUOUS
10
-0.111579
20
-0.077448
30
0.0
11
-0.110579
21
-0.077448
31
0.0
0
LINE
8
0
6
CONTINUOUS
10
-0.107557
20
-0.077448
30
0.0
11
-0.103272
21
-0.077448
31
0.0
0
LINE
8
0
6
CONTINUOUS
10
-0.110611
20
-0.076449
30
0.0
11
-0.110579
21
-0.077448
31
0.0
0
LINE
8
0
6
CONTINUOUS
10
-0.110579
20
-0.077448
30
0.0
11
-0.107557
21
-0.077448
31
0.0
0
LINE
8
0
6
CONTINUOUS
10
-0.103272
20
-0.077448
30
0.0
11
-0.098500
21
-0.077448
31
0.0
0
LINE
8
0
6
CONTINUOUS
10
-0.085421
20
-0.077448
30
0.0
11
-0.085387
21
-0.076449
31
0.0
0
LINE
8
0
6
CONTINUOUS
10
-0.086421
20
-0.077448
30
0.0
11
-0.085421
21
-0.077448
31
0.0
0
LINE
8
0
6
CONTINUOUS
10
-0.093728
20
-0.077448
30
0.0
11
-0.089443
21
-0.077448
31
0.0
0
LINE
8
0
6
CONTINUOUS
10
-0.086421
20
-0.077448
30
0.0
11
-0.086389
21
-0.076449
31
0.0
0
LINE
8
0
6
CONTINUOUS
10
-0.089443
20
-0.077448
30
0.0
11
-0.086421
21
-0.077448
31
0.0
0
LINE
8
0
6
CONTINUOUS
10
-0.098500
20
-0.077448
30
0.0
11
-0.093728
21
-0.077448
31
0.0
0
LINE
8
0
6
CONTINUOUS
10
-0.083597
20
-0.024074
30
0.0
11
-0.083522
21
-0.021893
31
0.0
0
LINE
8
0
6
CONTINUOUS
10
-0.112264
20
-0.024696
30
0.0
11
-0.112333
21
-0.022540
31
0.0
0
LINE
8
0
6
CONTINUOUS
10
-0.113478
20
-0.021893
30
0.0
11
-0.113403
21
-0.024074
31
0.0
0
LINE
8
0
6
CONTINUOUS
10
-0.084736
20
-0.024696
30
0.0
11
-0.084667
21
-0.022540
31
0.0
0
LINE
8
0
6
CONTINUOUS
10
-0.112204
20
-0.010233
30
0.0
11
-0.111944
21
-0.010442
31
0.0
0
LINE
8
0
6
CONTINUOUS
10
-0.109721
20
-0.077448
30
0.0
11
-0.110624
21
-0.078800
31
0.0
0
LINE
8
0
6
CONTINUOUS
10
-0.112380
20
-0.083972
30
0.0
11
-0.112500
21
-0.085800
31
0.0
0
LINE
8
0
6
CONTINUOUS
10
-0.112023
20
-0.082176
30
0.0
11
-0.112380
21
-0.083972
31
0.0
0
LINE
8
0
6
CONTINUOUS
10
-0.111434
20
-0.080442
30
0.0
11
-0.112023
21
-0.082176
31
0.0
0
LINE
8
0
6
CONTINUOUS
10
-0.110624
20
-0.078800
30
0.0
11
-0.111434
21
-0.080442
31
0.0
0
LINE
8
0
6
CONTINUOUS
10
-0.084977
20
-0.082176
30
0.0
11
-0.085566
21
-0.080442
31
0.0
0
LINE
8
0
6
CONTINUOUS
10
-0.085566
20
-0.080442
30
0.0
11
-0.086376
21
-0.078800
31
0.0
0
LINE
8
0
6
CONTINUOUS
10
-0.086376
20
-0.078800
30
0.0
11
-0.087279
21
-0.077448
31
0.0
0
LINE
8
0
6
CONTINUOUS
10
-0.084500
20
-0.085800
30
0.0
11
-0.084620
21
-0.083972
31
0.0
0
LINE
8
0
6
CONTINUOUS
10
-0.084620
20
-0.083972
30
0.0
11
-0.084977
21
-0.082176
31
0.0
0
LINE
8
0
6
CONTINUOUS
10
-0.084537
20
-0.096150
30
0.0
11
-0.084653
21
-0.096041
31
0.0
0
LINE
8
0
6
CONTINUOUS
10
-0.112347
20
-0.096041
30
0.0
11
-0.112463
21
-0.096150
31
0.0
0
LINE
8
0
6
CONTINUOUS
10
-0.112500
20
-0.105352
30
0.0
11
-0.112500
21
-0.105500
31
0.0
0
LINE
8
0
6
CONTINUOUS
10
-0.084500
20
-0.105500
30
0.0
11
-0.084500
21
-0.105352
31
0.0
0
LINE
8
0
6
CONTINUOUS
10
-0.098500
20
-0.096150
30
0.0
11
-0.102114
21
-0.096150
31
0.0
0
LINE
8
0
6
CONTINUOUS
10
-0.086408
20
-0.096150
30
0.0
11
-0.088627
21
-0.096150
31
0.0
0
LINE
8
0
6
CONTINUOUS
10
-0.112463
20
-0.096150
30
0.0
11
-0.112500
21
-0.096300
31
0.0
0
LINE
8
0
6
CONTINUOUS
10
-0.111987
20
-0.096150
30
0.0
11
-0.112463
21
-0.096150
31
0.0
0
LINE
8
0
6
CONTINUOUS
10
-0.108373
20
-0.096150
30
0.0
11
-0.110592
21
-0.096150
31
0.0
0
LINE
8
0
6
CONTINUOUS
10
-0.085013
20
-0.096150
30
0.0
11
-0.086408
21
-0.096150
31
0.0
0
LINE
8
0
6
CONTINUOUS
10
-0.091519
20
-0.096150
30
0.0
11
-0.094886
21
-0.096150
31
0.0
0
LINE
8
0
6
CONTINUOUS
10
-0.094886
20
-0.096150
30
0.0
11
-0.098500
21
-0.096150
31
0.0
0
LINE
8
0
6
CONTINUOUS
10
-0.105481
20
-0.096150
30
0.0
11
-0.108373
21
-0.096150
31
0.0
0
LINE
8
0
6
CONTINUOUS
10
-0.102114
20
-0.096150
30
0.0
11
-0.105481
21
-0.096150
31
0.0
0
LINE
8
0
6
CONTINUOUS
10
-0.084500
20
-0.096300
30
0.0
11
-0.084537
21
-0.096150
31
0.0
0
LINE
8
0
6
CONTINUOUS
10
-0.084537
20
-0.096150
30
0.0
11
-0.085013
21
-0.096150
31
0.0
0
LINE
8
0
6
CONTINUOUS
10
-0.110592
20
-0.096150
30
0.0
11
-0.111987
21
-0.096150
31
0.0
0
LINE
8
0
6
CONTINUOUS
10
-0.088627
20
-0.096150
30
0.0
11
-0.091519
21
-0.096150
31
0.0
0
LINE
8
0
6
CONTINUOUS
10
-0.084500
20
-0.096000
30
0.0
11
-0.084500
21
-0.095816
31
0.0
0
LINE
8
0
6
CONTINUOUS
10
-0.112500
20
-0.095816
30
0.0
11
-0.112500
21
-0.096000
31
0.0
0
LINE
8
0
6
CONTINUOUS
10
-0.105423
20
-0.096041
30
0.0
11
-0.102084
21
-0.096041
31
0.0
0
LINE
8
0
6
CONTINUOUS
10
-0.102123
20
-0.096000
30
0.0
11
-0.105500
21
-0.096000
31
0.0
0
LINE
8
0
6
CONTINUOUS
10
-0.091577
20
-0.096041
30
0.0
11
-0.088709
21
-0.096041
31
0.0
0
LINE
8
0
6
CONTINUOUS
10
-0.088601
20
-0.096000
30
0.0
11
-0.091500
21
-0.096000
31
0.0
0
LINE
8
0
6
CONTINUOUS
10
-0.111875
20
-0.096041
30
0.0
11
-0.110492
21
-0.096041
31
0.0
0
LINE
8
0
6
CONTINUOUS
10
-0.110624
20
-0.096000
30
0.0
11
-0.112023
21
-0.096000
31
0.0
0
LINE
8
0
6
CONTINUOUS
10
-0.084653
20
-0.096041
30
0.0
11
-0.084500
21
-0.096000
31
0.0
0
LINE
8
0
6
CONTINUOUS
10
-0.085125
20
-0.096041
30
0.0
11
-0.084653
21
-0.096041
31
0.0
0
LINE
8
0
6
CONTINUOUS
10
-0.084500
20
-0.096000
30
0.0
11
-0.084977
21
-0.096000
31
0.0
0
LINE
8
0
6
CONTINUOUS
10
-0.112347
20
-0.096041
30
0.0
11
-0.111875
21
-0.096041
31
0.0
0
LINE
8
0
6
CONTINUOUS
10
-0.112500
20
-0.096000
30
0.0
11
-0.112347
21
-0.096041
31
0.0
0
LINE
8
0
6
CONTINUOUS
10
-0.112023
20
-0.096000
30
0.0
11
-0.112500
21
-0.096000
31
0.0
0
LINE
8
0
6
CONTINUOUS
10
-0.108291
20
-0.096041
30
0.0
11
-0.105423
21
-0.096041
31
0.0
0
LINE
8
0
6
CONTINUOUS
10
-0.105500
20
-0.096000
30
0.0
11
-0.108399
21
-0.096000
31
0.0
0
LINE
8
0
6
CONTINUOUS
10
-0.098500
20
-0.096041
30
0.0
11
-0.094916
21
-0.096041
31
0.0
0
LINE
8
0
6
CONTINUOUS
10
-0.094877
20
-0.096000
30
0.0
11
-0.098500
21
-0.096000
31
0.0
0
LINE
8
0
6
CONTINUOUS
10
-0.086508
20
-0.096041
30
0.0
11
-0.085125
21
-0.096041
31
0.0
0
LINE
8
0
6
CONTINUOUS
10
-0.084977
20
-0.096000
30
0.0
11
-0.086376
21
-0.096000
31
0.0
0
LINE
8
0
6
CONTINUOUS
10
-0.110492
20
-0.096041
30
0.0
11
-0.108291
21
-0.096041
31
0.0
0
LINE
8
0
6
CONTINUOUS
10
-0.108399
20
-0.096000
30
0.0
11
-0.110624
21
-0.096000
31
0.0
0
LINE
8
0
6
CONTINUOUS
10
-0.094916
20
-0.096041
30
0.0
11
-0.091577
21
-0.096041
31
0.0
0
LINE
8
0
6
CONTINUOUS
10
-0.091500
20
-0.096000
30
0.0
11
-0.094877
21
-0.096000
31
0.0
0
LINE
8
0
6
CONTINUOUS
10
-0.088709
20
-0.096041
30
0.0
11
-0.086508
21
-0.096041
31
0.0
0
LINE
8
0
6
CONTINUOUS
10
-0.086376
20
-0.096000
30
0.0
11
-0.088601
21
-0.096000
31
0.0
0
LINE
8
0
6
CONTINUOUS
10
-0.102084
20
-0.096041
30
0.0
11
-0.098500
21
-0.096041
31
0.0
0
LINE
8
0
6
CONTINUOUS
10
-0.098500
20
-0.096000
30
0.0
11
-0.102123
21
-0.096000
31
0.0
0
LINE
8
0
6
CONTINUOUS
10
-0.084500
20
-0.095816
30
0.0
11
-0.084500
21
-0.085800
31
0.0
0
LINE
8
0
6
CONTINUOUS
10
-0.112500
20
-0.085800
30
0.0
11
-0.112500
21
-0.095816
31
0.0
0
LINE
8
0
6
CONTINUOUS
10
-0.084500
20
-0.096410
30
0.0
11
-0.084500
21
-0.096300
31
0.0
0
LINE
8
0
6
CONTINUOUS
10
-0.112500
20
-0.096300
30
0.0
11
-0.112500
21
-0.096410
31
0.0
0
LINE
8
0
6
CONTINUOUS
10
-0.088957
20
-0.106000
30
0.0
11
-0.086812
21
-0.106000
31
0.0
0
LINE
8
0
6
CONTINUOUS
10
-0.088705
20
-0.105854
30
0.0
11
-0.086504
21
-0.105854
31
0.0
0
LINE
8
0
6
CONTINUOUS
10
-0.095007
20
-0.106000
30
0.0
11
-0.091752
21
-0.106000
31
0.0
0
LINE
8
0
6
CONTINUOUS
10
-0.091574
20
-0.105854
30
0.0
11
-0.094915
21
-0.105854
31
0.0
0
LINE
8
0
6
CONTINUOUS
10
-0.084977
20
-0.105500
30
0.0
11
-0.086376
21
-0.105500
31
0.0
0
LINE
8
0
6
CONTINUOUS
10
-0.086812
20
-0.106000
30
0.0
11
-0.085464
21
-0.106000
31
0.0
0
LINE
8
0
6
CONTINUOUS
10
-0.085120
20
-0.105854
30
0.0
11
-0.086504
21
-0.105854
31
0.0
0
LINE
8
0
6
CONTINUOUS
10
-0.094877
20
-0.105500
30
0.0
11
-0.098500
21
-0.105500
31
0.0
0
LINE
8
0
6
CONTINUOUS
10
-0.098500
20
-0.106000
30
0.0
11
-0.095007
21
-0.106000
31
0.0
0
LINE
8
0
6
CONTINUOUS
10
-0.094915
20
-0.105854
30
0.0
11
-0.098500
21
-0.105854
31
0.0
0
LINE
8
0
6
CONTINUOUS
10
-0.110188
20
-0.106000
30
0.0
11
-0.108043
21
-0.106000
31
0.0
0
LINE
8
0
6
CONTINUOUS
10
-0.108295
20
-0.105854
30
0.0
11
-0.110496
21
-0.105854
31
0.0
0
LINE
8
0
6
CONTINUOUS
10
-0.111536
20
-0.106000
30
0.0
11
-0.110188
21
-0.106000
31
0.0
0
LINE
8
0
6
CONTINUOUS
10
-0.110624
20
-0.105500
30
0.0
11
-0.112023
21
-0.105500
31
0.0
0
LINE
8
0
6
CONTINUOUS
10
-0.111880
20
-0.105854
30
0.0
11
-0.110496
21
-0.105854
31
0.0
0
LINE
8
0
6
CONTINUOUS
10
-0.108043
20
-0.106000
30
0.0
11
-0.105248
21
-0.106000
31
0.0
0
LINE
8
0
6
CONTINUOUS
10
-0.105426
20
-0.105854
30
0.0
11
-0.108295
21
-0.105854
31
0.0
0
LINE
8
0
6
CONTINUOUS
10
-0.112352
20
-0.105854
30
0.0
11
-0.111996
21
-0.106000
31
0.0
0
LINE
8
0
6
CONTINUOUS
10
-0.111996
20
-0.106000
30
0.0
11
-0.111536
21
-0.106000
31
0.0
0
LINE
8
0
6
CONTINUOUS
10
-0.112500
20
-0.105500
30
0.0
11
-0.112352
21
-0.105854
31
0.0
0
LINE
8
0
6
CONTINUOUS
10
-0.112023
20
-0.105500
30
0.0
11
-0.112500
21
-0.105500
31
0.0
0
LINE
8
0
6
CONTINUOUS
10
-0.112352
20
-0.105854
30
0.0
11
-0.111880
21
-0.105854
31
0.0
0
LINE
8
0
6
CONTINUOUS
10
-0.091752
20
-0.106000
30
0.0
11
-0.088957
21
-0.106000
31
0.0
0
LINE
8
0
6
CONTINUOUS
10
-0.088705
20
-0.105854
30
0.0
11
-0.091574
21
-0.105854
31
0.0
0
LINE
8
0
6
CONTINUOUS
10
-0.084648
20
-0.105854
30
0.0
11
-0.084500
21
-0.105500
31
0.0
0
LINE
8
0
6
CONTINUOUS
10
-0.084500
20
-0.105500
30
0.0
11
-0.084977
21
-0.105500
31
0.0
0
LINE
8
0
6
CONTINUOUS
10
-0.085004
20
-0.106000
30
0.0
11
-0.084648
21
-0.105854
31
0.0
0
LINE
8
0
6
CONTINUOUS
10
-0.085464
20
-0.106000
30
0.0
11
-0.085004
21
-0.106000
31
0.0
0
LINE
8
0
6
CONTINUOUS
10
-0.084648
20
-0.105854
30
0.0
11
-0.085120
21
-0.105854
31
0.0
0
LINE
8
0
6
CONTINUOUS
10
-0.102123
20
-0.105500
30
0.0
11
-0.105500
21
-0.105500
31
0.0
0
LINE
8
0
6
CONTINUOUS
10
-0.105248
20
-0.106000
30
0.0
11
-0.101993
21
-0.106000
31
0.0
0
LINE
8
0
6
CONTINUOUS
10
-0.102085
20
-0.105854
30
0.0
11
-0.105426
21
-0.105854
31
0.0
0
LINE
8
0
6
CONTINUOUS
10
-0.101993
20
-0.106000
30
0.0
11
-0.098500
21
-0.106000
31
0.0
0
LINE
8
0
6
CONTINUOUS
10
-0.098500
20
-0.105500
30
0.0
11
-0.102123
21
-0.105500
31
0.0
0
LINE
8
0
6
CONTINUOUS
10
-0.102085
20
-0.105854
30
0.0
11
-0.098500
21
-0.105854
31
0.0
0
LINE
8
0
6
CONTINUOUS
10
-0.112500
20
-0.096410
30
0.0
11
-0.112500
21
-0.105352
31
0.0
0
LINE
8
0
6
CONTINUOUS
10
-0.084500
20
-0.105352
30
0.0
11
-0.084500
21
-0.096410
31
0.0
0
LINE
8
0
6
CONTINUOUS
10
-0.112464
20
-0.010024
30
0.0
11
-0.112204
21
-0.010233
31
0.0
0
LINE
8
0
6
CONTINUOUS
10
-0.088973
20
-0.013500
30
0.0
11
-0.084796
21
-0.010233
31
0.0
0
LINE
8
0
6
CONTINUOUS
10
-0.085057
20
-0.010442
30
0.0
11
-0.084796
21
-0.010233
31
0.0
0
LINE
8
0
6
CONTINUOUS
10
-0.112204
20
-0.010233
30
0.0
11
-0.108027
21
-0.013500
31
0.0
0
LINE
8
0
6
CONTINUOUS
10
-0.075035
20
0.028794
30
0.0
11
-0.071896
21
0.032285
31
0.0
0
LINE
8
0
6
CONTINUOUS
10
-0.077576
20
0.025693
30
0.0
11
-0.077039
21
0.026422
31
0.0
0
LINE
8
0
6
CONTINUOUS
10
-0.078078
20
0.024935
30
0.0
11
-0.077576
21
0.025693
31
0.0
0
LINE
8
0
6
CONTINUOUS
10
-0.078406
20
0.024510
30
0.0
11
-0.078078
21
0.024935
31
0.0
0
LINE
8
0
6
CONTINUOUS
10
-0.078929
20
0.023835
30
0.0
11
-0.078406
21
0.024510
31
0.0
0
LINE
8
0
6
CONTINUOUS
10
-0.079271
20
0.023315
30
0.0
11
-0.078929
21
0.023835
31
0.0
0
LINE
8
0
6
CONTINUOUS
10
-0.077098
20
0.026385
30
0.0
11
-0.075035
21
0.028794
31
0.0
0
LINE
8
0
6
CONTINUOUS
10
-0.071956
20
0.032328
30
0.0
11
-0.075197
21
0.028909
31
0.0
0
LINE
8
0
6
CONTINUOUS
10
-0.075063
20
0.028809
30
0.0
11
-0.071956
21
0.032328
31
0.0
0
LINE
8
0
6
CONTINUOUS
10
-0.077940
20
0.025438
30
0.0
11
-0.077124
21
0.026505
31
0.0
0
LINE
8
0
6
CONTINUOUS
10
-0.077368
20
0.026773
30
0.0
11
-0.078357
21
0.025562
31
0.0
0
LINE
8
0
6
CONTINUOUS
10
-0.078685
20
0.024427
30
0.0
11
-0.077940
21
0.025438
31
0.0
0
LINE
8
0
6
CONTINUOUS
10
-0.078357
20
0.025562
30
0.0
11
-0.079116
21
0.024443
31
0.0
0
LINE
8
0
6
CONTINUOUS
10
-0.079256
20
0.023665
30
0.0
11
-0.078685
21
0.024427
31
0.0
0
LINE
8
0
6
CONTINUOUS
10
-0.079116
20
0.024443
30
0.0
11
-0.079640
21
0.023590
31
0.0
0
LINE
8
0
6
CONTINUOUS
10
-0.079640
20
0.023590
30
0.0
11
-0.080183
21
0.022922
31
0.0
0
LINE
8
0
6
CONTINUOUS
10
-0.077124
20
0.026505
30
0.0
11
-0.075063
21
0.028809
31
0.0
0
LINE
8
0
6
CONTINUOUS
10
-0.070912
20
0.034105
30
0.0
11
-0.070958
21
0.034952
31
0.0
0
LINE
8
0
6
CONTINUOUS
10
-0.070972
20
0.034149
30
0.0
11
-0.071018
21
0.034995
31
0.0
0
LINE
8
0
6
CONTINUOUS
10
-0.071190
20
0.034300
30
0.0
11
-0.071178
21
0.035229
31
0.0
0
LINE
8
0
6
CONTINUOUS
10
-0.071331
20
0.035514
30
0.0
11
-0.072422
21
0.036496
31
0.0
0
LINE
8
0
6
CONTINUOUS
10
-0.072422
20
0.036496
30
0.0
11
-0.071178
21
0.035229
31
0.0
0
LINE
8
0
6
CONTINUOUS
10
-0.070912
20
0.034105
30
0.0
11
-0.070972
21
0.034149
31
0.0
0
LINE
8
0
6
CONTINUOUS
10
-0.071896
20
0.032285
30
0.0
11
-0.070912
21
0.034105
31
0.0
0
LINE
8
0
6
CONTINUOUS
10
-0.071956
20
0.032328
30
0.0
11
-0.070972
21
0.034149
31
0.0
0
LINE
8
0
6
CONTINUOUS
10
-0.071178
20
0.035229
30
0.0
11
-0.071018
21
0.034995
31
0.0
0
LINE
8
0
6
CONTINUOUS
10
-0.070958
20
0.034952
30
0.0
11
-0.071331
21
0.035514
31
0.0
0
LINE
8
0
6
CONTINUOUS
10
-0.071018
20
0.034995
30
0.0
11
-0.070958
21
0.034952
31
0.0
0
LINE
8
0
6
CONTINUOUS
10
-0.082444
20
0.025532
30
0.0
11
-0.085937
21
0.020930
31
0.0
0
LINE
8
0
6
CONTINUOUS
10
-0.077368
20
0.026773
30
0.0
11
-0.075197
21
0.028909
31
0.0
0
LINE
8
0
6
CONTINUOUS
10
-0.080183
20
0.022922
30
0.0
11
-0.081413
21
0.023628
31
0.0
0
LINE
8
0
6
CONTINUOUS
10
-0.083490
20
0.018900
30
0.0
11
-0.080183
21
0.022922
31
0.0
0
LINE
8
0
6
CONTINUOUS
10
-0.076556
20
0.035541
30
0.0
11
-0.078755
21
0.031394
31
0.0
0
LINE
8
0
6
CONTINUOUS
10
-0.080293
20
0.028696
30
0.0
11
-0.080793
21
0.027941
31
0.0
0
LINE
8
0
6
CONTINUOUS
10
-0.080793
20
0.027941
30
0.0
11
-0.081333
21
0.027209
31
0.0
0
LINE
8
0
6
CONTINUOUS
10
-0.081619
20
0.026755
30
0.0
11
-0.082072
21
0.026032
31
0.0
0
LINE
8
0
6
CONTINUOUS
10
-0.081333
20
0.027209
30
0.0
11
-0.081619
21
0.026755
31
0.0
0
LINE
8
0
6
CONTINUOUS
10
-0.082072
20
0.026032
30
0.0
11
-0.082444
21
0.025532
31
0.0
0
LINE
8
0
6
CONTINUOUS
10
-0.078755
20
0.031394
30
0.0
11
-0.080308
21
0.028628
31
0.0
0
LINE
8
0
6
CONTINUOUS
10
-0.076495
20
0.035500
30
0.0
11
-0.078731
21
0.031372
31
0.0
0
LINE
8
0
6
CONTINUOUS
10
-0.076495
20
0.035500
30
0.0
11
-0.078591
21
0.031280
31
0.0
0
LINE
8
0
6
CONTINUOUS
10
-0.080648
20
0.027162
30
0.0
11
-0.079851
21
0.028508
31
0.0
0
LINE
8
0
6
CONTINUOUS
10
-0.080187
20
0.028645
30
0.0
11
-0.080908
21
0.027512
31
0.0
0
LINE
8
0
6
CONTINUOUS
10
-0.081438
20
0.026065
30
0.0
11
-0.080648
21
0.027162
31
0.0
0
LINE
8
0
6
CONTINUOUS
10
-0.080908
20
0.027512
30
0.0
11
-0.081601
21
0.026464
31
0.0
0
LINE
8
0
6
CONTINUOUS
10
-0.082058
20
0.025280
30
0.0
11
-0.081438
21
0.026065
31
0.0
0
LINE
8
0
6
CONTINUOUS
10
-0.081601
20
0.026464
30
0.0
11
-0.082120
21
0.025667
31
0.0
0
LINE
8
0
6
CONTINUOUS
10
-0.082499
20
0.024540
30
0.0
11
-0.082058
21
0.025280
31
0.0
0
LINE
8
0
6
CONTINUOUS
10
-0.078731
20
0.031372
30
0.0
11
-0.080187
21
0.028645
31
0.0
0
LINE
8
0
6
CONTINUOUS
10
-0.074374
20
0.037339
30
0.0
11
-0.075185
21
0.037091
31
0.0
0
LINE
8
0
6
CONTINUOUS
10
-0.074313
20
0.037298
30
0.0
11
-0.075124
21
0.037050
31
0.0
0
LINE
8
0
6
CONTINUOUS
10
-0.074039
20
0.037227
30
0.0
11
-0.074907
21
0.036897
31
0.0
0
LINE
8
0
6
CONTINUOUS
10
-0.073056
20
0.035588
30
0.0
11
-0.072422
21
0.036496
31
0.0
0
LINE
8
0
6
CONTINUOUS
10
-0.072422
20
0.036496
30
0.0
11
-0.073718
21
0.037182
31
0.0
0
LINE
8
0
6
CONTINUOUS
10
-0.074039
20
0.037227
30
0.0
11
-0.072422
21
0.036496
31
0.0
0
LINE
8
0
6
CONTINUOUS
10
-0.075185
20
0.037091
30
0.0
11
-0.076556
21
0.035541
31
0.0
0
LINE
8
0
6
CONTINUOUS
10
-0.075124
20
0.037050
30
0.0
11
-0.075185
21
0.037091
31
0.0
0
LINE
8
0
6
CONTINUOUS
10
-0.075124
20
0.037050
30
0.0
11
-0.076495
21
0.035500
31
0.0
0
LINE
8
0
6
CONTINUOUS
10
-0.074374
20
0.037339
30
0.0
11
-0.074313
21
0.037298
31
0.0
0
LINE
8
0
6
CONTINUOUS
10
-0.073718
20
0.037182
30
0.0
11
-0.074374
21
0.037339
31
0.0
0
LINE
8
0
6
CONTINUOUS
10
-0.074313
20
0.037298
30
0.0
11
-0.074039
21
0.037227
31
0.0
0
LINE
8
0
6
CONTINUOUS
10
-0.078591
20
0.031280
30
0.0
11
-0.079851
21
0.028508
31
0.0
0
LINE
8
0
6
CONTINUOUS
10
-0.082532
20
0.025118
30
0.0
11
-0.085788
21
0.020722
31
0.0
0
LINE
8
0
6
CONTINUOUS
10
-0.081413
20
0.023628
30
0.0
11
-0.082499
21
0.024540
31
0.0
0
LINE
8
0
6
CONTINUOUS
10
-0.082499
20
0.024540
30
0.0
11
-0.085384
21
0.020341
31
0.0
0
LINE
8
0
6
CONTINUOUS
10
-0.082854
20
0.018570
30
0.0
11
-0.079271
21
0.023315
31
0.0
0
LINE
8
0
6
CONTINUOUS
10
-0.082854
20
0.018570
30
0.0
11
-0.082900
21
0.018600
31
0.0
0
LINE
8
0
6
CONTINUOUS
10
-0.085937
20
0.020930
30
0.0
11
-0.085838
21
0.020783
31
0.0
0
ENDSEC
0
EOF
