999
Erzeugt mit innoplus bad 
0
SECTION
2
HEADER
9
$ACADVER
1
AC1009
9
$DWGCODEPAGE
3
ISO8859-1
0
ENDSEC
0
SECTION
2
TABLES
0
TABLE
2
LAYER
70
1
0
LAYER
2
0
70
0
62
7
6
CONTINUOUS
0
ENDTAB
0
ENDSEC
0
SECTION
2
ENTITIES
0
LINE
8
0
6
CONTINUOUS
10
0.021171
20
0.063124
30
0.0
11
0.024310
21
0.066615
31
0.0
0
LINE
8
0
6
CONTINUOUS
10
0.018630
20
0.060023
30
0.0
11
0.019167
21
0.060753
31
0.0
0
LINE
8
0
6
CONTINUOUS
10
0.018128
20
0.059265
30
0.0
11
0.018630
21
0.060023
31
0.0
0
LINE
8
0
6
CONTINUOUS
10
0.017800
20
0.058841
30
0.0
11
0.018128
21
0.059265
31
0.0
0
LINE
8
0
6
CONTINUOUS
10
0.017277
20
0.058166
30
0.0
11
0.017800
21
0.058841
31
0.0
0
LINE
8
0
6
CONTINUOUS
10
0.016935
20
0.057645
30
0.0
11
0.017277
21
0.058166
31
0.0
0
LINE
8
0
6
CONTINUOUS
10
0.019108
20
0.060715
30
0.0
11
0.021171
21
0.063124
31
0.0
0
LINE
8
0
6
CONTINUOUS
10
0.024250
20
0.066659
30
0.0
11
0.021009
21
0.063239
31
0.0
0
LINE
8
0
6
CONTINUOUS
10
0.021143
20
0.063139
30
0.0
11
0.024250
21
0.066659
31
0.0
0
LINE
8
0
6
CONTINUOUS
10
0.018267
20
0.059768
30
0.0
11
0.019082
21
0.060835
31
0.0
0
LINE
8
0
6
CONTINUOUS
10
0.018838
20
0.061103
30
0.0
11
0.017849
21
0.059892
31
0.0
0
LINE
8
0
6
CONTINUOUS
10
0.017521
20
0.058757
30
0.0
11
0.018267
21
0.059768
31
0.0
0
LINE
8
0
6
CONTINUOUS
10
0.017849
20
0.059892
30
0.0
11
0.017090
21
0.058773
31
0.0
0
LINE
8
0
6
CONTINUOUS
10
0.016950
20
0.057995
30
0.0
11
0.017521
21
0.058757
31
0.0
0
LINE
8
0
6
CONTINUOUS
10
0.017090
20
0.058773
30
0.0
11
0.016566
21
0.057920
31
0.0
0
LINE
8
0
6
CONTINUOUS
10
0.016566
20
0.057920
30
0.0
11
0.016023
21
0.057253
31
0.0
0
LINE
8
0
6
CONTINUOUS
10
0.019082
20
0.060835
30
0.0
11
0.021143
21
0.063139
31
0.0
0
LINE
8
0
6
CONTINUOUS
10
0.025294
20
0.068436
30
0.0
11
0.025248
21
0.069282
31
0.0
0
LINE
8
0
6
CONTINUOUS
10
0.025234
20
0.068479
30
0.0
11
0.025188
21
0.069326
31
0.0
0
LINE
8
0
6
CONTINUOUS
10
0.025016
20
0.068631
30
0.0
11
0.025028
21
0.069559
31
0.0
0
LINE
8
0
6
CONTINUOUS
10
0.024875
20
0.069844
30
0.0
11
0.023785
21
0.070826
31
0.0
0
LINE
8
0
6
CONTINUOUS
10
0.023785
20
0.070826
30
0.0
11
0.025028
21
0.069559
31
0.0
0
LINE
8
0
6
CONTINUOUS
10
0.025294
20
0.068436
30
0.0
11
0.025234
21
0.068479
31
0.0
0
LINE
8
0
6
CONTINUOUS
10
0.024310
20
0.066615
30
0.0
11
0.025294
21
0.068436
31
0.0
0
LINE
8
0
6
CONTINUOUS
10
0.024250
20
0.066659
30
0.0
11
0.025234
21
0.068479
31
0.0
0
LINE
8
0
6
CONTINUOUS
10
0.025028
20
0.069559
30
0.0
11
0.025188
21
0.069326
31
0.0
0
LINE
8
0
6
CONTINUOUS
10
0.025248
20
0.069282
30
0.0
11
0.024875
21
0.069844
31
0.0
0
LINE
8
0
6
CONTINUOUS
10
0.025188
20
0.069326
30
0.0
11
0.025248
21
0.069282
31
0.0
0
LINE
8
0
6
CONTINUOUS
10
0.013763
20
0.059862
30
0.0
11
0.010269
21
0.055260
31
0.0
0
LINE
8
0
6
CONTINUOUS
10
0.018838
20
0.061103
30
0.0
11
0.021009
21
0.063239
31
0.0
0
LINE
8
0
6
CONTINUOUS
10
0.016023
20
0.057253
30
0.0
11
0.014793
21
0.057958
31
0.0
0
LINE
8
0
6
CONTINUOUS
10
0.012716
20
0.053231
30
0.0
11
0.016023
21
0.057253
31
0.0
0
LINE
8
0
6
CONTINUOUS
10
0.019650
20
0.069872
30
0.0
11
0.017451
21
0.065724
31
0.0
0
LINE
8
0
6
CONTINUOUS
10
0.015913
20
0.063026
30
0.0
11
0.015413
21
0.062272
31
0.0
0
LINE
8
0
6
CONTINUOUS
10
0.015413
20
0.062272
30
0.0
11
0.014873
21
0.061540
31
0.0
0
LINE
8
0
6
CONTINUOUS
10
0.014588
20
0.061085
30
0.0
11
0.014134
21
0.060362
31
0.0
0
LINE
8
0
6
CONTINUOUS
10
0.014873
20
0.061540
30
0.0
11
0.014588
21
0.061085
31
0.0
0
LINE
8
0
6
CONTINUOUS
10
0.014134
20
0.060362
30
0.0
11
0.013763
21
0.059862
31
0.0
0
LINE
8
0
6
CONTINUOUS
10
0.017451
20
0.065724
30
0.0
11
0.015898
21
0.062958
31
0.0
0
LINE
8
0
6
CONTINUOUS
10
0.019711
20
0.069831
30
0.0
11
0.017475
21
0.065703
31
0.0
0
LINE
8
0
6
CONTINUOUS
10
0.019711
20
0.069831
30
0.0
11
0.017615
21
0.065611
31
0.0
0
LINE
8
0
6
CONTINUOUS
10
0.015558
20
0.061493
30
0.0
11
0.016355
21
0.062838
31
0.0
0
LINE
8
0
6
CONTINUOUS
10
0.016019
20
0.062975
30
0.0
11
0.015298
21
0.061843
31
0.0
0
LINE
8
0
6
CONTINUOUS
10
0.014768
20
0.060396
30
0.0
11
0.015558
21
0.061493
31
0.0
0
LINE
8
0
6
CONTINUOUS
10
0.015298
20
0.061843
30
0.0
11
0.014605
21
0.060794
31
0.0
0
LINE
8
0
6
CONTINUOUS
10
0.014148
20
0.059610
30
0.0
11
0.014768
21
0.060396
31
0.0
0
LINE
8
0
6
CONTINUOUS
10
0.014605
20
0.060794
30
0.0
11
0.014086
21
0.059997
31
0.0
0
LINE
8
0
6
CONTINUOUS
10
0.013707
20
0.058871
30
0.0
11
0.014148
21
0.059610
31
0.0
0
LINE
8
0
6
CONTINUOUS
10
0.017475
20
0.065703
30
0.0
11
0.016019
21
0.062975
31
0.0
0
LINE
8
0
6
CONTINUOUS
10
0.021832
20
0.071670
30
0.0
11
0.021021
21
0.071422
31
0.0
0
LINE
8
0
6
CONTINUOUS
10
0.021893
20
0.071629
30
0.0
11
0.021082
21
0.071381
31
0.0
0
LINE
8
0
6
CONTINUOUS
10
0.022167
20
0.071558
30
0.0
11
0.021299
21
0.071228
31
0.0
0
LINE
8
0
6
CONTINUOUS
10
0.023151
20
0.069919
30
0.0
11
0.023785
21
0.070826
31
0.0
0
LINE
8
0
6
CONTINUOUS
10
0.023785
20
0.070826
30
0.0
11
0.022488
21
0.071513
31
0.0
0
LINE
8
0
6
CONTINUOUS
10
0.022167
20
0.071558
30
0.0
11
0.023785
21
0.070826
31
0.0
0
LINE
8
0
6
CONTINUOUS
10
0.021021
20
0.071422
30
0.0
11
0.019650
21
0.069872
31
0.0
0
LINE
8
0
6
CONTINUOUS
10
0.021082
20
0.071381
30
0.0
11
0.021021
21
0.071422
31
0.0
0
LINE
8
0
6
CONTINUOUS
10
0.021082
20
0.071381
30
0.0
11
0.019711
21
0.069831
31
0.0
0
LINE
8
0
6
CONTINUOUS
10
0.021832
20
0.071670
30
0.0
11
0.021893
21
0.071629
31
0.0
0
LINE
8
0
6
CONTINUOUS
10
0.022488
20
0.071513
30
0.0
11
0.021832
21
0.071670
31
0.0
0
LINE
8
0
6
CONTINUOUS
10
0.021893
20
0.071629
30
0.0
11
0.022167
21
0.071558
31
0.0
0
LINE
8
0
6
CONTINUOUS
10
0.017615
20
0.065611
30
0.0
11
0.016355
21
0.062838
31
0.0
0
LINE
8
0
6
CONTINUOUS
10
0.013674
20
0.059449
30
0.0
11
0.010418
21
0.055052
31
0.0
0
LINE
8
0
6
CONTINUOUS
10
0.014793
20
0.057958
30
0.0
11
0.013707
21
0.058871
31
0.0
0
LINE
8
0
6
CONTINUOUS
10
0.013707
20
0.058871
30
0.0
11
0.010822
21
0.054672
31
0.0
0
LINE
8
0
6
CONTINUOUS
10
0.013352
20
0.052900
30
0.0
11
0.016935
21
0.057645
31
0.0
0
LINE
8
0
6
CONTINUOUS
10
0.002462
20
-0.029988
30
0.0
11
0.002462
21
-0.029430
31
0.0
0
LINE
8
0
6
CONTINUOUS
10
-0.007050
20
0.009869
30
0.0
11
-0.007050
21
-0.029430
31
0.0
0
LINE
8
0
6
CONTINUOUS
10
-0.004114
20
-0.028271
30
0.0
11
-0.004114
21
-0.028829
31
0.0
0
LINE
8
0
6
CONTINUOUS
10
0.002100
20
-0.029508
30
0.0
11
0.001646
21
-0.029330
31
0.0
0
LINE
8
0
6
CONTINUOUS
10
0.000401
20
-0.028984
30
0.0
11
-0.000474
21
-0.028829
31
0.0
0
LINE
8
0
6
CONTINUOUS
10
-0.004114
20
-0.028829
30
0.0
11
-0.004989
21
-0.028984
31
0.0
0
LINE
8
0
6
CONTINUOUS
10
-0.006234
20
-0.029330
30
0.0
11
-0.006688
21
-0.029508
31
0.0
0
LINE
8
0
6
CONTINUOUS
10
0.001069
20
-0.029102
30
0.0
11
0.000401
21
-0.028984
31
0.0
0
LINE
8
0
6
CONTINUOUS
10
-0.005657
20
-0.029102
30
0.0
11
-0.006234
21
-0.029330
31
0.0
0
LINE
8
0
6
CONTINUOUS
10
-0.002294
20
-0.031234
30
0.0
11
-0.000474
21
-0.031139
31
0.0
0
LINE
8
0
6
CONTINUOUS
10
-0.000474
20
-0.031139
30
0.0
11
0.001069
21
-0.030869
31
0.0
0
LINE
8
0
6
CONTINUOUS
10
0.001069
20
-0.030869
30
0.0
11
0.002100
21
-0.030465
31
0.0
0
LINE
8
0
6
CONTINUOUS
10
0.002100
20
-0.030465
30
0.0
11
0.002462
21
-0.029988
31
0.0
0
LINE
8
0
6
CONTINUOUS
10
0.002462
20
-0.029988
30
0.0
11
0.002100
21
-0.029508
31
0.0
0
LINE
8
0
6
CONTINUOUS
10
-0.004114
20
-0.031139
30
0.0
11
-0.002294
21
-0.031234
31
0.0
0
LINE
8
0
6
CONTINUOUS
10
-0.005657
20
-0.030869
30
0.0
11
-0.004114
21
-0.031139
31
0.0
0
LINE
8
0
6
CONTINUOUS
10
-0.006688
20
-0.030465
30
0.0
11
-0.005657
21
-0.030869
31
0.0
0
LINE
8
0
6
CONTINUOUS
10
-0.007050
20
-0.029988
30
0.0
11
-0.006688
21
-0.030465
31
0.0
0
LINE
8
0
6
CONTINUOUS
10
-0.002294
20
-0.028734
30
0.0
11
-0.004114
21
-0.028829
31
0.0
0
LINE
8
0
6
CONTINUOUS
10
-0.007324
20
0.016773
30
0.0
11
-0.007050
21
0.015763
31
0.0
0
LINE
8
0
6
CONTINUOUS
10
0.001069
20
-0.029102
30
0.0
11
0.001646
21
-0.029330
31
0.0
0
LINE
8
0
6
CONTINUOUS
10
-0.005657
20
-0.029102
30
0.0
11
-0.004989
21
-0.028984
31
0.0
0
LINE
8
0
6
CONTINUOUS
10
0.001665
20
0.016899
30
0.0
11
0.002667
21
0.018172
31
0.0
0
LINE
8
0
6
CONTINUOUS
10
0.004231
20
0.019200
30
0.0
11
0.004922
21
0.019757
31
0.0
0
LINE
8
0
6
CONTINUOUS
10
0.002736
20
0.016773
30
0.0
11
0.003482
21
0.018204
31
0.0
0
LINE
8
0
6
CONTINUOUS
10
0.001105
20
0.010271
30
0.0
11
0.001107
21
0.013080
31
0.0
0
LINE
8
0
6
CONTINUOUS
10
0.015893
20
0.042162
30
0.0
11
0.014081
21
0.046689
31
0.0
0
LINE
8
0
6
CONTINUOUS
10
0.007063
20
0.020957
30
0.0
11
0.011063
21
0.023975
31
0.0
0
LINE
8
0
6
CONTINUOUS
10
0.014081
20
0.027975
30
0.0
11
0.015893
21
0.032502
31
0.0
0
LINE
8
0
6
CONTINUOUS
10
0.011063
20
0.023975
30
0.0
11
0.014081
21
0.027975
31
0.0
0
LINE
8
0
6
CONTINUOUS
10
0.014081
20
0.046689
30
0.0
11
0.011063
21
0.050689
31
0.0
0
LINE
8
0
6
CONTINUOUS
10
0.002536
20
0.055518
30
0.0
11
-0.002294
21
0.056198
31
0.0
0
LINE
8
0
6
CONTINUOUS
10
0.007063
20
0.053707
30
0.0
11
0.002536
21
0.055518
31
0.0
0
LINE
8
0
6
CONTINUOUS
10
0.011063
20
0.050689
30
0.0
11
0.007063
21
0.053707
31
0.0
0
LINE
8
0
6
CONTINUOUS
10
0.015893
20
0.032502
30
0.0
11
0.016572
21
0.037332
31
0.0
0
LINE
8
0
6
CONTINUOUS
10
0.016572
20
0.037332
30
0.0
11
0.015893
21
0.042162
31
0.0
0
LINE
8
0
6
CONTINUOUS
10
0.001069
20
-0.028543
30
0.0
11
0.001105
21
0.010271
31
0.0
0
LINE
8
0
6
CONTINUOUS
10
-0.011651
20
0.020957
30
0.0
11
-0.009107
21
0.019708
31
0.0
0
LINE
8
0
6
CONTINUOUS
10
-0.005693
20
0.010271
30
0.0
11
-0.005695
21
0.013080
31
0.0
0
LINE
8
0
6
CONTINUOUS
10
-0.018669
20
0.046689
30
0.0
11
-0.020480
21
0.042162
31
0.0
0
LINE
8
0
6
CONTINUOUS
10
-0.015651
20
0.023975
30
0.0
11
-0.011651
21
0.020957
31
0.0
0
LINE
8
0
6
CONTINUOUS
10
-0.020480
20
0.032502
30
0.0
11
-0.018669
21
0.027975
31
0.0
0
LINE
8
0
6
CONTINUOUS
10
-0.018669
20
0.027975
30
0.0
11
-0.015651
21
0.023975
31
0.0
0
LINE
8
0
6
CONTINUOUS
10
-0.015651
20
0.050689
30
0.0
11
-0.018669
21
0.046689
31
0.0
0
LINE
8
0
6
CONTINUOUS
10
-0.002294
20
0.056198
30
0.0
11
-0.007123
21
0.055518
31
0.0
0
LINE
8
0
6
CONTINUOUS
10
-0.007123
20
0.055518
30
0.0
11
-0.011651
21
0.053707
31
0.0
0
LINE
8
0
6
CONTINUOUS
10
-0.011651
20
0.053707
30
0.0
11
-0.015651
21
0.050689
31
0.0
0
LINE
8
0
6
CONTINUOUS
10
-0.021160
20
0.037332
30
0.0
11
-0.020480
21
0.032502
31
0.0
0
LINE
8
0
6
CONTINUOUS
10
-0.020480
20
0.042162
30
0.0
11
-0.021160
21
0.037332
31
0.0
0
LINE
8
0
6
CONTINUOUS
10
-0.007050
20
-0.029988
30
0.0
11
-0.006688
21
-0.029508
31
0.0
0
LINE
8
0
6
CONTINUOUS
10
-0.007050
20
-0.029430
30
0.0
11
-0.007050
21
-0.029988
31
0.0
0
LINE
8
0
6
CONTINUOUS
10
-0.007050
20
0.015763
30
0.0
11
-0.007050
21
0.012711
31
0.0
0
LINE
8
0
6
CONTINUOUS
10
-0.008070
20
0.018204
30
0.0
11
-0.007324
21
0.016773
31
0.0
0
LINE
8
0
6
CONTINUOUS
10
0.003482
20
0.018204
30
0.0
11
0.004188
21
0.019184
31
0.0
0
LINE
8
0
6
CONTINUOUS
10
0.002462
20
0.015763
30
0.0
11
0.002736
21
0.016773
31
0.0
0
LINE
8
0
6
CONTINUOUS
10
0.002511
20
0.016865
30
0.0
11
0.003409
21
0.018239
31
0.0
0
LINE
8
0
6
CONTINUOUS
10
0.003409
20
0.018239
30
0.0
11
0.004231
21
0.019200
31
0.0
0
LINE
8
0
6
CONTINUOUS
10
-0.004114
20
0.012392
30
0.0
11
-0.004114
21
-0.028271
31
0.0
0
LINE
8
0
6
CONTINUOUS
10
-0.009510
20
0.019757
30
0.0
11
-0.008819
21
0.019200
31
0.0
0
LINE
8
0
6
CONTINUOUS
10
0.004519
20
0.019708
30
0.0
11
0.003673
21
0.019110
31
0.0
0
LINE
8
0
6
CONTINUOUS
10
0.002100
20
0.015856
30
0.0
11
0.002511
21
0.016865
31
0.0
0
LINE
8
0
6
CONTINUOUS
10
0.002462
20
0.009869
30
0.0
11
0.002462
21
0.012711
31
0.0
0
LINE
8
0
6
CONTINUOUS
10
-0.000474
20
0.012392
30
0.0
11
-0.000474
21
0.015327
31
0.0
0
LINE
8
0
6
CONTINUOUS
10
0.002462
20
-0.029430
30
0.0
11
0.002462
21
0.009869
31
0.0
0
LINE
8
0
6
CONTINUOUS
10
-0.002294
20
0.023843
30
0.0
11
-0.002294
21
0.019933
31
0.0
0
LINE
8
0
6
CONTINUOUS
10
-0.007099
20
0.016865
30
0.0
11
-0.006688
21
0.015856
31
0.0
0
LINE
8
0
6
CONTINUOUS
10
0.002462
20
0.012711
30
0.0
11
0.002462
21
0.015763
31
0.0
0
LINE
8
0
6
CONTINUOUS
10
-0.002294
20
0.013066
30
0.0
11
-0.002294
21
-0.028176
31
0.0
0
LINE
8
0
6
CONTINUOUS
10
-0.002294
20
0.016041
30
0.0
11
-0.002294
21
0.019933
31
0.0
0
LINE
8
0
6
CONTINUOUS
10
-0.005657
20
-0.028543
30
0.0
11
-0.005693
21
0.010271
31
0.0
0
LINE
8
0
6
CONTINUOUS
10
-0.006253
20
0.016899
30
0.0
11
-0.007255
21
0.018172
31
0.0
0
LINE
8
0
6
CONTINUOUS
10
-0.008776
20
0.019184
30
0.0
11
-0.008070
21
0.018204
31
0.0
0
LINE
8
0
6
CONTINUOUS
10
-0.011651
20
0.020957
30
0.0
11
-0.009510
21
0.019757
31
0.0
0
LINE
8
0
6
CONTINUOUS
10
-0.008819
20
0.019200
30
0.0
11
-0.007997
21
0.018239
31
0.0
0
LINE
8
0
6
CONTINUOUS
10
0.004641
20
0.019723
30
0.0
11
0.007063
21
0.020957
31
0.0
0
LINE
8
0
6
CONTINUOUS
10
0.007063
20
0.020957
30
0.0
11
0.004519
21
0.019708
31
0.0
0
LINE
8
0
6
CONTINUOUS
10
-0.002294
20
0.027768
30
0.0
11
-0.002294
21
0.023843
31
0.0
0
LINE
8
0
6
CONTINUOUS
10
-0.007050
20
0.012711
30
0.0
11
-0.007050
21
0.009869
31
0.0
0
LINE
8
0
6
CONTINUOUS
10
-0.002294
20
0.013066
30
0.0
11
-0.002294
21
0.016041
31
0.0
0
LINE
8
0
6
CONTINUOUS
10
-0.000340
20
0.017893
30
0.0
11
-0.000474
21
0.015327
31
0.0
0
LINE
8
0
6
CONTINUOUS
10
-0.008261
20
0.019110
30
0.0
11
-0.009107
21
0.019708
31
0.0
0
LINE
8
0
6
CONTINUOUS
10
-0.011651
20
0.020957
30
0.0
11
-0.009229
21
0.019723
31
0.0
0
LINE
8
0
6
CONTINUOUS
10
-0.007255
20
0.018172
30
0.0
11
-0.008261
21
0.019110
31
0.0
0
LINE
8
0
6
CONTINUOUS
10
0.003673
20
0.019110
30
0.0
11
0.002667
21
0.018172
31
0.0
0
LINE
8
0
6
CONTINUOUS
10
0.004922
20
0.019757
30
0.0
11
0.007063
21
0.020957
31
0.0
0
LINE
8
0
6
CONTINUOUS
10
-0.004114
20
0.012392
30
0.0
11
-0.004114
21
0.015327
31
0.0
0
LINE
8
0
6
CONTINUOUS
10
0.001127
20
0.015869
30
0.0
11
0.001607
21
0.015862
31
0.0
0
LINE
8
0
6
CONTINUOUS
10
0.001665
20
0.016899
30
0.0
11
0.001127
21
0.015869
31
0.0
0
LINE
8
0
6
CONTINUOUS
10
-0.002294
20
0.031710
30
0.0
11
-0.002294
21
0.027768
31
0.0
0
LINE
8
0
6
CONTINUOUS
10
-0.005715
20
0.015869
30
0.0
11
-0.005695
21
0.013080
31
0.0
0
LINE
8
0
6
CONTINUOUS
10
-0.000474
20
-0.028829
30
0.0
11
-0.000474
21
-0.028271
31
0.0
0
LINE
8
0
6
CONTINUOUS
10
-0.002294
20
-0.028734
30
0.0
11
-0.000474
21
-0.028829
31
0.0
0
LINE
8
0
6
CONTINUOUS
10
-0.002294
20
-0.028176
30
0.0
11
-0.002294
21
-0.028734
31
0.0
0
LINE
8
0
6
CONTINUOUS
10
-0.005715
20
0.015869
30
0.0
11
-0.006253
21
0.016899
31
0.0
0
LINE
8
0
6
CONTINUOUS
10
-0.000474
20
0.012392
30
0.0
11
-0.000474
21
-0.028271
31
0.0
0
LINE
8
0
6
CONTINUOUS
10
0.014629
20
0.027360
30
0.0
11
0.014690
21
0.027526
31
0.0
0
LINE
8
0
6
CONTINUOUS
10
-0.015737
20
0.023889
30
0.0
11
-0.011809
21
0.020851
31
0.0
0
LINE
8
0
6
CONTINUOUS
10
-0.018546
20
0.024597
30
0.0
11
-0.017477
21
0.017635
31
0.0
0
LINE
8
0
6
CONTINUOUS
10
-0.017477
20
0.017635
30
0.0
11
-0.017272
21
0.012438
31
0.0
0
LINE
8
0
6
CONTINUOUS
10
-0.007260
20
0.017917
30
0.0
11
-0.011904
21
0.019794
31
0.0
0
LINE
8
0
6
CONTINUOUS
10
-0.007050
20
0.014847
30
0.0
11
-0.007580
21
0.014873
31
0.0
0
LINE
8
0
6
CONTINUOUS
10
-0.016012
20
0.016932
30
0.0
11
-0.016127
21
0.011790
31
0.0
0
LINE
8
0
6
CONTINUOUS
10
-0.012666
20
0.011320
30
0.0
11
-0.012386
21
0.015666
31
0.0
0
LINE
8
0
6
CONTINUOUS
10
-0.015929
20
0.022790
30
0.0
11
-0.016012
21
0.016932
31
0.0
0
LINE
8
0
6
CONTINUOUS
10
-0.015929
20
0.022790
30
0.0
11
-0.011904
21
0.019794
31
0.0
0
LINE
8
0
6
CONTINUOUS
10
-0.018950
20
0.026627
30
0.0
11
-0.018546
21
0.024597
31
0.0
0
LINE
8
0
6
CONTINUOUS
10
-0.015929
20
0.022790
30
0.0
11
-0.015826
21
0.023800
31
0.0
0
LINE
8
0
6
CONTINUOUS
10
-0.019278
20
0.027526
30
0.0
11
-0.019217
21
0.027360
31
0.0
0
LINE
8
0
6
CONTINUOUS
10
0.011410
20
0.024098
30
0.0
11
0.011670
21
0.024307
31
0.0
0
LINE
8
0
6
CONTINUOUS
10
-0.018748
20
0.046832
30
0.0
11
-0.015729
21
0.050767
31
0.0
0
LINE
8
0
6
CONTINUOUS
10
-0.007211
20
0.055685
30
0.0
11
-0.002294
21
0.056332
31
0.0
0
LINE
8
0
6
CONTINUOUS
10
-0.015729
20
0.023897
30
0.0
11
-0.018748
21
0.027832
31
0.0
0
LINE
8
0
6
CONTINUOUS
10
-0.021294
20
0.037332
30
0.0
11
-0.020646
21
0.042250
31
0.0
0
LINE
8
0
6
CONTINUOUS
10
-0.021294
20
0.037332
30
0.0
11
-0.020646
21
0.032414
31
0.0
0
LINE
8
0
6
CONTINUOUS
10
-0.011794
20
0.053787
30
0.0
11
-0.007211
21
0.055685
31
0.0
0
LINE
8
0
6
CONTINUOUS
10
-0.015729
20
0.050767
30
0.0
11
-0.011794
21
0.053787
31
0.0
0
LINE
8
0
6
CONTINUOUS
10
-0.011794
20
0.020878
30
0.0
11
-0.015729
21
0.023897
31
0.0
0
LINE
8
0
6
CONTINUOUS
10
-0.020646
20
0.042250
30
0.0
11
-0.018748
21
0.046832
31
0.0
0
LINE
8
0
6
CONTINUOUS
10
-0.018748
20
0.027832
30
0.0
11
-0.020646
21
0.032414
31
0.0
0
LINE
8
0
6
CONTINUOUS
10
-0.018557
20
0.021063
30
0.0
11
-0.017930
21
0.020581
31
0.0
0
LINE
8
0
6
CONTINUOUS
10
-0.024510
20
0.031374
30
0.0
11
-0.022212
21
0.025827
31
0.0
0
LINE
8
0
6
CONTINUOUS
10
-0.008247
20
0.059547
30
0.0
11
-0.013794
21
0.057249
31
0.0
0
LINE
8
0
6
CONTINUOUS
10
-0.018557
20
0.053593
30
0.0
11
-0.022212
21
0.048829
31
0.0
0
LINE
8
0
6
CONTINUOUS
10
-0.024510
20
0.043281
30
0.0
11
-0.025294
21
0.037328
31
0.0
0
LINE
8
0
6
CONTINUOUS
10
-0.022212
20
0.025827
30
0.0
11
-0.018557
21
0.021063
31
0.0
0
LINE
8
0
6
CONTINUOUS
10
-0.002294
20
0.060330
30
0.0
11
-0.008247
21
0.059547
31
0.0
0
LINE
8
0
6
CONTINUOUS
10
-0.025294
20
0.037328
30
0.0
11
-0.024510
21
0.031374
31
0.0
0
LINE
8
0
6
CONTINUOUS
10
-0.013794
20
0.057249
30
0.0
11
-0.018557
21
0.053593
31
0.0
0
LINE
8
0
6
CONTINUOUS
10
-0.022212
20
0.048829
30
0.0
11
-0.024510
21
0.043281
31
0.0
0
LINE
8
0
6
CONTINUOUS
10
-0.019217
20
0.027360
30
0.0
11
-0.018950
21
0.026627
31
0.0
0
LINE
8
0
6
CONTINUOUS
10
0.007221
20
0.020851
30
0.0
11
0.011150
21
0.023889
31
0.0
0
LINE
8
0
6
CONTINUOUS
10
0.012889
20
0.017635
30
0.0
11
0.013959
21
0.024597
31
0.0
0
LINE
8
0
6
CONTINUOUS
10
0.012684
20
0.012438
30
0.0
11
0.012889
21
0.017635
31
0.0
0
LINE
8
0
6
CONTINUOUS
10
0.007317
20
0.019794
30
0.0
11
0.002672
21
0.017917
31
0.0
0
LINE
8
0
6
CONTINUOUS
10
0.002993
20
0.014873
30
0.0
11
0.002462
21
0.014847
31
0.0
0
LINE
8
0
6
CONTINUOUS
10
0.007799
20
0.015666
30
0.0
11
0.008078
21
0.011320
31
0.0
0
LINE
8
0
6
CONTINUOUS
10
0.011539
20
0.011790
30
0.0
11
0.011424
21
0.016932
31
0.0
0
LINE
8
0
6
CONTINUOUS
10
0.011424
20
0.016932
30
0.0
11
0.011341
21
0.022790
31
0.0
0
LINE
8
0
6
CONTINUOUS
10
0.007317
20
0.019794
30
0.0
11
0.011341
21
0.022790
31
0.0
0
LINE
8
0
6
CONTINUOUS
10
0.011238
20
0.023800
30
0.0
11
0.011341
21
0.022790
31
0.0
0
LINE
8
0
6
CONTINUOUS
10
0.013959
20
0.024597
30
0.0
11
0.014363
21
0.026627
31
0.0
0
LINE
8
0
6
CONTINUOUS
10
0.011141
20
0.050767
30
0.0
11
0.014161
21
0.046832
31
0.0
0
LINE
8
0
6
CONTINUOUS
10
-0.002294
20
0.056332
30
0.0
11
0.002624
21
0.055685
31
0.0
0
LINE
8
0
6
CONTINUOUS
10
0.014161
20
0.027832
30
0.0
11
0.011141
21
0.023897
31
0.0
0
LINE
8
0
6
CONTINUOUS
10
0.016059
20
0.042250
30
0.0
11
0.016706
21
0.037332
31
0.0
0
LINE
8
0
6
CONTINUOUS
10
0.016059
20
0.032414
30
0.0
11
0.016706
21
0.037332
31
0.0
0
LINE
8
0
6
CONTINUOUS
10
0.002624
20
0.055685
30
0.0
11
0.007206
21
0.053787
31
0.0
0
LINE
8
0
6
CONTINUOUS
10
0.007206
20
0.053787
30
0.0
11
0.011141
21
0.050767
31
0.0
0
LINE
8
0
6
CONTINUOUS
10
0.011141
20
0.023897
30
0.0
11
0.007206
21
0.020878
31
0.0
0
LINE
8
0
6
CONTINUOUS
10
0.014161
20
0.046832
30
0.0
11
0.016059
21
0.042250
31
0.0
0
LINE
8
0
6
CONTINUOUS
10
0.016059
20
0.032414
30
0.0
11
0.014161
21
0.027832
31
0.0
0
LINE
8
0
6
CONTINUOUS
10
0.013342
20
0.020581
30
0.0
11
0.013970
21
0.021063
31
0.0
0
LINE
8
0
6
CONTINUOUS
10
0.017625
20
0.025827
30
0.0
11
0.019922
21
0.031374
31
0.0
0
LINE
8
0
6
CONTINUOUS
10
0.009206
20
0.057249
30
0.0
11
0.003659
21
0.059547
31
0.0
0
LINE
8
0
6
CONTINUOUS
10
0.017625
20
0.048829
30
0.0
11
0.013970
21
0.053593
31
0.0
0
LINE
8
0
6
CONTINUOUS
10
0.020706
20
0.037328
30
0.0
11
0.019922
21
0.043281
31
0.0
0
LINE
8
0
6
CONTINUOUS
10
0.013970
20
0.021063
30
0.0
11
0.017625
21
0.025827
31
0.0
0
LINE
8
0
6
CONTINUOUS
10
0.003659
20
0.059547
30
0.0
11
-0.002294
21
0.060330
31
0.0
0
LINE
8
0
6
CONTINUOUS
10
0.019922
20
0.031374
30
0.0
11
0.020706
21
0.037328
31
0.0
0
LINE
8
0
6
CONTINUOUS
10
0.013970
20
0.053593
30
0.0
11
0.013910
21
0.053639
31
0.0
0
LINE
8
0
6
CONTINUOUS
10
0.010832
20
0.056001
30
0.0
11
0.009206
21
0.057249
31
0.0
0
LINE
8
0
6
CONTINUOUS
10
0.019922
20
0.043281
30
0.0
11
0.017625
21
0.048829
31
0.0
0
LINE
8
0
6
CONTINUOUS
10
0.014363
20
0.026627
30
0.0
11
0.014629
21
0.027360
31
0.0
0
LINE
8
0
6
CONTINUOUS
10
-0.017197
20
0.010256
30
0.0
11
-0.015407
21
-0.042118
31
0.0
0
LINE
8
0
6
CONTINUOUS
10
-0.016058
20
0.009635
30
0.0
11
-0.014404
21
-0.042118
31
0.0
0
LINE
8
0
6
CONTINUOUS
10
0.010819
20
-0.042118
30
0.0
11
0.012609
21
0.010256
31
0.0
0
LINE
8
0
6
CONTINUOUS
10
0.011470
20
0.009635
30
0.0
11
0.009817
21
-0.042118
31
0.0
0
LINE
8
0
6
CONTINUOUS
10
-0.015407
20
-0.042118
30
0.0
11
-0.015373
21
-0.043118
31
0.0
0
LINE
8
0
6
CONTINUOUS
10
-0.015373
20
-0.043118
30
0.0
11
-0.014373
21
-0.043118
31
0.0
0
LINE
8
0
6
CONTINUOUS
10
-0.011351
20
-0.043118
30
0.0
11
-0.007066
21
-0.043118
31
0.0
0
LINE
8
0
6
CONTINUOUS
10
-0.014404
20
-0.042118
30
0.0
11
-0.014373
21
-0.043118
31
0.0
0
LINE
8
0
6
CONTINUOUS
10
-0.014373
20
-0.043118
30
0.0
11
-0.011351
21
-0.043118
31
0.0
0
LINE
8
0
6
CONTINUOUS
10
-0.007066
20
-0.043118
30
0.0
11
-0.002294
21
-0.043118
31
0.0
0
LINE
8
0
6
CONTINUOUS
10
0.010785
20
-0.043118
30
0.0
11
0.010819
21
-0.042118
31
0.0
0
LINE
8
0
6
CONTINUOUS
10
0.009785
20
-0.043118
30
0.0
11
0.010785
21
-0.043118
31
0.0
0
LINE
8
0
6
CONTINUOUS
10
0.002478
20
-0.043118
30
0.0
11
0.006763
21
-0.043118
31
0.0
0
LINE
8
0
6
CONTINUOUS
10
0.009785
20
-0.043118
30
0.0
11
0.009817
21
-0.042118
31
0.0
0
LINE
8
0
6
CONTINUOUS
10
0.006763
20
-0.043118
30
0.0
11
0.009785
21
-0.043118
31
0.0
0
LINE
8
0
6
CONTINUOUS
10
-0.002294
20
-0.043118
30
0.0
11
0.002478
21
-0.043118
31
0.0
0
LINE
8
0
6
CONTINUOUS
10
0.012609
20
0.010256
30
0.0
11
0.012684
21
0.012438
31
0.0
0
LINE
8
0
6
CONTINUOUS
10
-0.016058
20
0.009635
30
0.0
11
-0.016127
21
0.011790
31
0.0
0
LINE
8
0
6
CONTINUOUS
10
-0.017272
20
0.012438
30
0.0
11
-0.017197
21
0.010256
31
0.0
0
LINE
8
0
6
CONTINUOUS
10
0.011470
20
0.009635
30
0.0
11
0.011539
21
0.011790
31
0.0
0
LINE
8
0
6
CONTINUOUS
10
-0.015997
20
0.024098
30
0.0
11
-0.015737
21
0.023889
31
0.0
0
LINE
8
0
6
CONTINUOUS
10
-0.013515
20
-0.043118
30
0.0
11
-0.014418
21
-0.044469
31
0.0
0
LINE
8
0
6
CONTINUOUS
10
-0.016174
20
-0.049642
30
0.0
11
-0.016294
21
-0.051469
31
0.0
0
LINE
8
0
6
CONTINUOUS
10
-0.015817
20
-0.047846
30
0.0
11
-0.016174
21
-0.049642
31
0.0
0
LINE
8
0
6
CONTINUOUS
10
-0.015228
20
-0.046112
30
0.0
11
-0.015817
21
-0.047846
31
0.0
0
LINE
8
0
6
CONTINUOUS
10
-0.014418
20
-0.044469
30
0.0
11
-0.015228
21
-0.046112
31
0.0
0
LINE
8
0
6
CONTINUOUS
10
0.011229
20
-0.047846
30
0.0
11
0.010640
21
-0.046112
31
0.0
0
LINE
8
0
6
CONTINUOUS
10
0.010640
20
-0.046112
30
0.0
11
0.009830
21
-0.044469
31
0.0
0
LINE
8
0
6
CONTINUOUS
10
0.009830
20
-0.044469
30
0.0
11
0.008927
21
-0.043118
31
0.0
0
LINE
8
0
6
CONTINUOUS
10
0.011706
20
-0.051469
30
0.0
11
0.011586
21
-0.049642
31
0.0
0
LINE
8
0
6
CONTINUOUS
10
0.011586
20
-0.049642
30
0.0
11
0.011229
21
-0.047846
31
0.0
0
LINE
8
0
6
CONTINUOUS
10
0.011669
20
-0.061819
30
0.0
11
0.011553
21
-0.061711
31
0.0
0
LINE
8
0
6
CONTINUOUS
10
-0.016141
20
-0.061711
30
0.0
11
-0.016257
21
-0.061819
31
0.0
0
LINE
8
0
6
CONTINUOUS
10
-0.016294
20
-0.071021
30
0.0
11
-0.016294
21
-0.071170
31
0.0
0
LINE
8
0
6
CONTINUOUS
10
0.011706
20
-0.071170
30
0.0
11
0.011706
21
-0.071021
31
0.0
0
LINE
8
0
6
CONTINUOUS
10
-0.002294
20
-0.061819
30
0.0
11
-0.005908
21
-0.061819
31
0.0
0
LINE
8
0
6
CONTINUOUS
10
0.009798
20
-0.061819
30
0.0
11
0.007579
21
-0.061819
31
0.0
0
LINE
8
0
6
CONTINUOUS
10
-0.016257
20
-0.061819
30
0.0
11
-0.016294
21
-0.061969
31
0.0
0
LINE
8
0
6
CONTINUOUS
10
-0.015781
20
-0.061819
30
0.0
11
-0.016257
21
-0.061819
31
0.0
0
LINE
8
0
6
CONTINUOUS
10
-0.012167
20
-0.061819
30
0.0
11
-0.014386
21
-0.061819
31
0.0
0
LINE
8
0
6
CONTINUOUS
10
0.011193
20
-0.061819
30
0.0
11
0.009798
21
-0.061819
31
0.0
0
LINE
8
0
6
CONTINUOUS
10
0.004688
20
-0.061819
30
0.0
11
0.001320
21
-0.061819
31
0.0
0
LINE
8
0
6
CONTINUOUS
10
0.001320
20
-0.061819
30
0.0
11
-0.002294
21
-0.061819
31
0.0
0
LINE
8
0
6
CONTINUOUS
10
-0.009275
20
-0.061819
30
0.0
11
-0.012167
21
-0.061819
31
0.0
0
LINE
8
0
6
CONTINUOUS
10
-0.005908
20
-0.061819
30
0.0
11
-0.009275
21
-0.061819
31
0.0
0
LINE
8
0
6
CONTINUOUS
10
0.011706
20
-0.061969
30
0.0
11
0.011669
21
-0.061819
31
0.0
0
LINE
8
0
6
CONTINUOUS
10
0.011669
20
-0.061819
30
0.0
11
0.011193
21
-0.061819
31
0.0
0
LINE
8
0
6
CONTINUOUS
10
-0.014386
20
-0.061819
30
0.0
11
-0.015781
21
-0.061819
31
0.0
0
LINE
8
0
6
CONTINUOUS
10
0.007579
20
-0.061819
30
0.0
11
0.004688
21
-0.061819
31
0.0
0
LINE
8
0
6
CONTINUOUS
10
0.011706
20
-0.061669
30
0.0
11
0.011706
21
-0.061485
31
0.0
0
LINE
8
0
6
CONTINUOUS
10
-0.016294
20
-0.061485
30
0.0
11
-0.016294
21
-0.061669
31
0.0
0
LINE
8
0
6
CONTINUOUS
10
-0.009217
20
-0.061711
30
0.0
11
-0.005878
21
-0.061711
31
0.0
0
LINE
8
0
6
CONTINUOUS
10
-0.005917
20
-0.061669
30
0.0
11
-0.009294
21
-0.061669
31
0.0
0
LINE
8
0
6
CONTINUOUS
10
0.004630
20
-0.061711
30
0.0
11
0.007497
21
-0.061711
31
0.0
0
LINE
8
0
6
CONTINUOUS
10
0.007606
20
-0.061669
30
0.0
11
0.004706
21
-0.061669
31
0.0
0
LINE
8
0
6
CONTINUOUS
10
-0.015669
20
-0.061711
30
0.0
11
-0.014286
21
-0.061711
31
0.0
0
LINE
8
0
6
CONTINUOUS
10
-0.014418
20
-0.061669
30
0.0
11
-0.015817
21
-0.061669
31
0.0
0
LINE
8
0
6
CONTINUOUS
10
0.011553
20
-0.061711
30
0.0
11
0.011706
21
-0.061669
31
0.0
0
LINE
8
0
6
CONTINUOUS
10
0.011081
20
-0.061711
30
0.0
11
0.011553
21
-0.061711
31
0.0
0
LINE
8
0
6
CONTINUOUS
10
0.011706
20
-0.061669
30
0.0
11
0.011229
21
-0.061669
31
0.0
0
LINE
8
0
6
CONTINUOUS
10
-0.016141
20
-0.061711
30
0.0
11
-0.015669
21
-0.061711
31
0.0
0
LINE
8
0
6
CONTINUOUS
10
-0.016294
20
-0.061669
30
0.0
11
-0.016141
21
-0.061711
31
0.0
0
LINE
8
0
6
CONTINUOUS
10
-0.015817
20
-0.061669
30
0.0
11
-0.016294
21
-0.061669
31
0.0
0
LINE
8
0
6
CONTINUOUS
10
-0.012085
20
-0.061711
30
0.0
11
-0.009217
21
-0.061711
31
0.0
0
LINE
8
0
6
CONTINUOUS
10
-0.009294
20
-0.061669
30
0.0
11
-0.012193
21
-0.061669
31
0.0
0
LINE
8
0
6
CONTINUOUS
10
-0.002294
20
-0.061711
30
0.0
11
0.001290
21
-0.061711
31
0.0
0
LINE
8
0
6
CONTINUOUS
10
0.001330
20
-0.061669
30
0.0
11
-0.002294
21
-0.061669
31
0.0
0
LINE
8
0
6
CONTINUOUS
10
0.009698
20
-0.061711
30
0.0
11
0.011081
21
-0.061711
31
0.0
0
LINE
8
0
6
CONTINUOUS
10
0.011229
20
-0.061669
30
0.0
11
0.009830
21
-0.061669
31
0.0
0
LINE
8
0
6
CONTINUOUS
10
-0.014286
20
-0.061711
30
0.0
11
-0.012085
21
-0.061711
31
0.0
0
LINE
8
0
6
CONTINUOUS
10
-0.012193
20
-0.061669
30
0.0
11
-0.014418
21
-0.061669
31
0.0
0
LINE
8
0
6
CONTINUOUS
10
0.001290
20
-0.061711
30
0.0
11
0.004630
21
-0.061711
31
0.0
0
LINE
8
0
6
CONTINUOUS
10
0.004706
20
-0.061669
30
0.0
11
0.001330
21
-0.061669
31
0.0
0
LINE
8
0
6
CONTINUOUS
10
0.007497
20
-0.061711
30
0.0
11
0.009698
21
-0.061711
31
0.0
0
LINE
8
0
6
CONTINUOUS
10
0.009830
20
-0.061669
30
0.0
11
0.007606
21
-0.061669
31
0.0
0
LINE
8
0
6
CONTINUOUS
10
-0.005878
20
-0.061711
30
0.0
11
-0.002294
21
-0.061711
31
0.0
0
LINE
8
0
6
CONTINUOUS
10
-0.002294
20
-0.061669
30
0.0
11
-0.005917
21
-0.061669
31
0.0
0
LINE
8
0
6
CONTINUOUS
10
0.011706
20
-0.061485
30
0.0
11
0.011706
21
-0.051469
31
0.0
0
LINE
8
0
6
CONTINUOUS
10
-0.016294
20
-0.051469
30
0.0
11
-0.016294
21
-0.061485
31
0.0
0
LINE
8
0
6
CONTINUOUS
10
0.011706
20
-0.062079
30
0.0
11
0.011706
21
-0.061969
31
0.0
0
LINE
8
0
6
CONTINUOUS
10
-0.016294
20
-0.061969
30
0.0
11
-0.016294
21
-0.062079
31
0.0
0
LINE
8
0
6
CONTINUOUS
10
0.007249
20
-0.071670
30
0.0
11
0.009394
21
-0.071670
31
0.0
0
LINE
8
0
6
CONTINUOUS
10
0.007501
20
-0.071523
30
0.0
11
0.009703
21
-0.071523
31
0.0
0
LINE
8
0
6
CONTINUOUS
10
0.001199
20
-0.071670
30
0.0
11
0.004454
21
-0.071670
31
0.0
0
LINE
8
0
6
CONTINUOUS
10
0.004632
20
-0.071523
30
0.0
11
0.001291
21
-0.071523
31
0.0
0
LINE
8
0
6
CONTINUOUS
10
0.011229
20
-0.071170
30
0.0
11
0.009830
21
-0.071170
31
0.0
0
LINE
8
0
6
CONTINUOUS
10
0.009394
20
-0.071670
30
0.0
11
0.010742
21
-0.071670
31
0.0
0
LINE
8
0
6
CONTINUOUS
10
0.011086
20
-0.071523
30
0.0
11
0.009703
21
-0.071523
31
0.0
0
LINE
8
0
6
CONTINUOUS
10
0.001330
20
-0.071170
30
0.0
11
-0.002294
21
-0.071170
31
0.0
0
LINE
8
0
6
CONTINUOUS
10
-0.002294
20
-0.071670
30
0.0
11
0.001199
21
-0.071670
31
0.0
0
LINE
8
0
6
CONTINUOUS
10
0.001291
20
-0.071523
30
0.0
11
-0.002294
21
-0.071523
31
0.0
0
LINE
8
0
6
CONTINUOUS
10
-0.013982
20
-0.071670
30
0.0
11
-0.011837
21
-0.071670
31
0.0
0
LINE
8
0
6
CONTINUOUS
10
-0.012089
20
-0.071523
30
0.0
11
-0.014290
21
-0.071523
31
0.0
0
LINE
8
0
6
CONTINUOUS
10
-0.015330
20
-0.071670
30
0.0
11
-0.013982
21
-0.071670
31
0.0
0
LINE
8
0
6
CONTINUOUS
10
-0.014418
20
-0.071170
30
0.0
11
-0.015817
21
-0.071170
31
0.0
0
LINE
8
0
6
CONTINUOUS
10
-0.015674
20
-0.071523
30
0.0
11
-0.014290
21
-0.071523
31
0.0
0
LINE
8
0
6
CONTINUOUS
10
-0.011837
20
-0.071670
30
0.0
11
-0.009042
21
-0.071670
31
0.0
0
LINE
8
0
6
CONTINUOUS
10
-0.009220
20
-0.071523
30
0.0
11
-0.012089
21
-0.071523
31
0.0
0
LINE
8
0
6
CONTINUOUS
10
-0.016146
20
-0.071523
30
0.0
11
-0.015790
21
-0.071670
31
0.0
0
LINE
8
0
6
CONTINUOUS
10
-0.015790
20
-0.071670
30
0.0
11
-0.015330
21
-0.071670
31
0.0
0
LINE
8
0
6
CONTINUOUS
10
-0.016294
20
-0.071170
30
0.0
11
-0.016146
21
-0.071523
31
0.0
0
LINE
8
0
6
CONTINUOUS
10
-0.015817
20
-0.071170
30
0.0
11
-0.016294
21
-0.071170
31
0.0
0
LINE
8
0
6
CONTINUOUS
10
-0.016146
20
-0.071523
30
0.0
11
-0.015674
21
-0.071523
31
0.0
0
LINE
8
0
6
CONTINUOUS
10
0.004454
20
-0.071670
30
0.0
11
0.007249
21
-0.071670
31
0.0
0
LINE
8
0
6
CONTINUOUS
10
0.007501
20
-0.071523
30
0.0
11
0.004632
21
-0.071523
31
0.0
0
LINE
8
0
6
CONTINUOUS
10
0.011558
20
-0.071523
30
0.0
11
0.011706
21
-0.071170
31
0.0
0
LINE
8
0
6
CONTINUOUS
10
0.011706
20
-0.071170
30
0.0
11
0.011229
21
-0.071170
31
0.0
0
LINE
8
0
6
CONTINUOUS
10
0.011202
20
-0.071670
30
0.0
11
0.011558
21
-0.071523
31
0.0
0
LINE
8
0
6
CONTINUOUS
10
0.010742
20
-0.071670
30
0.0
11
0.011202
21
-0.071670
31
0.0
0
LINE
8
0
6
CONTINUOUS
10
0.011558
20
-0.071523
30
0.0
11
0.011086
21
-0.071523
31
0.0
0
LINE
8
0
6
CONTINUOUS
10
-0.005917
20
-0.071170
30
0.0
11
-0.009294
21
-0.071170
31
0.0
0
LINE
8
0
6
CONTINUOUS
10
-0.009042
20
-0.071670
30
0.0
11
-0.005787
21
-0.071670
31
0.0
0
LINE
8
0
6
CONTINUOUS
10
-0.005879
20
-0.071523
30
0.0
11
-0.009220
21
-0.071523
31
0.0
0
LINE
8
0
6
CONTINUOUS
10
-0.005787
20
-0.071670
30
0.0
11
-0.002294
21
-0.071670
31
0.0
0
LINE
8
0
6
CONTINUOUS
10
-0.002294
20
-0.071170
30
0.0
11
-0.005917
21
-0.071170
31
0.0
0
LINE
8
0
6
CONTINUOUS
10
-0.005879
20
-0.071523
30
0.0
11
-0.002294
21
-0.071523
31
0.0
0
LINE
8
0
6
CONTINUOUS
10
-0.016294
20
-0.062079
30
0.0
11
-0.016294
21
-0.071021
31
0.0
0
LINE
8
0
6
CONTINUOUS
10
0.011706
20
-0.071021
30
0.0
11
0.011706
21
-0.062079
31
0.0
0
LINE
8
0
6
CONTINUOUS
10
-0.016257
20
0.024307
30
0.0
11
-0.015997
21
0.024098
31
0.0
0
LINE
8
0
6
CONTINUOUS
10
0.007233
20
0.020831
30
0.0
11
0.011410
21
0.024098
31
0.0
0
LINE
8
0
6
CONTINUOUS
10
0.011150
20
0.023889
30
0.0
11
0.011410
21
0.024098
31
0.0
0
LINE
8
0
6
CONTINUOUS
10
-0.015997
20
0.024098
30
0.0
11
-0.011821
21
0.020831
31
0.0
0
LINE
8
0
6
CONTINUOUS
10
0.010269
20
0.055260
30
0.0
11
0.010368
21
0.055113
31
0.0
0
LINE
8
0
6
CONTINUOUS
10
0.013352
20
0.052900
30
0.0
11
0.013307
21
0.052931
31
0.0
0
ENDSEC
0
EOF
