999
Erzeugt mit innoplus bad 
0
SECTION
2
HEADER
9
$ACADVER
1
AC1009
9
$DWGCODEPAGE
3
ISO8859-1
0
ENDSEC
0
SECTION
2
TABLES
0
TABLE
2
LAYER
70
1
0
LAYER
2
0
70
0
62
7
6
CONTINUOUS
0
ENDTAB
0
ENDSEC
0
SECTION
2
ENTITIES
0
LINE
8
0
6
CONTINUOUS
10
0.061151
20
-0.041054
30
0.0
11
0.060752
21
-0.041610
31
0.0
0
LINE
8
0
6
CONTINUOUS
10
0.061358
20
-0.041326
30
0.0
11
0.061770
21
-0.040634
31
0.0
0
LINE
8
0
6
CONTINUOUS
10
0.066836
20
-0.039081
30
0.0
11
0.063231
21
-0.038716
31
0.0
0
LINE
8
0
6
CONTINUOUS
10
0.066836
20
-0.039081
30
0.0
11
0.063656
21
-0.039302
31
0.0
0
LINE
8
0
6
CONTINUOUS
10
0.064391
20
-0.039482
30
0.0
11
0.068226
21
-0.039341
31
0.0
0
LINE
8
0
6
CONTINUOUS
10
0.070786
20
-0.039003
30
0.0
11
0.068698
21
-0.039090
31
0.0
0
LINE
8
0
6
CONTINUOUS
10
0.063231
20
-0.038716
30
0.0
11
0.066649
21
-0.039003
31
0.0
0
LINE
8
0
6
CONTINUOUS
10
0.060753
20
-0.038878
30
0.0
11
0.060023
21
-0.039382
31
0.0
0
LINE
8
0
6
CONTINUOUS
10
0.061624
20
-0.040584
30
0.0
11
0.062184
21
-0.040303
31
0.0
0
LINE
8
0
6
CONTINUOUS
10
0.060981
20
-0.039795
30
0.0
11
0.060395
21
-0.040171
31
0.0
0
LINE
8
0
6
CONTINUOUS
10
0.068234
20
-0.037060
30
0.0
11
0.064663
21
-0.036612
31
0.0
0
LINE
8
0
6
CONTINUOUS
10
0.059580
20
-0.041326
30
0.0
11
0.059848
21
-0.040634
31
0.0
0
LINE
8
0
6
CONTINUOUS
10
0.059265
20
-0.039883
30
0.0
11
0.058841
21
-0.040767
31
0.0
0
LINE
8
0
6
CONTINUOUS
10
0.058166
20
-0.040379
30
0.0
11
0.057645
21
-0.041205
31
0.0
0
LINE
8
0
6
CONTINUOUS
10
0.059338
20
-0.042026
30
0.0
11
0.059580
21
-0.041326
31
0.0
0
LINE
8
0
6
CONTINUOUS
10
0.058841
20
-0.040767
30
0.0
11
0.058643
21
-0.041745
31
0.0
0
LINE
8
0
6
CONTINUOUS
10
0.060395
20
-0.040171
30
0.0
11
0.059848
21
-0.040634
31
0.0
0
LINE
8
0
6
CONTINUOUS
10
0.060753
20
-0.038878
30
0.0
11
0.063231
21
-0.038716
31
0.0
0
LINE
8
0
6
CONTINUOUS
10
0.060715
20
-0.037899
30
0.0
11
0.063124
21
-0.037408
31
0.0
0
LINE
8
0
6
CONTINUOUS
10
0.066659
20
-0.037551
30
0.0
11
0.063239
21
-0.036901
31
0.0
0
LINE
8
0
6
CONTINUOUS
10
0.063139
20
-0.037112
30
0.0
11
0.066659
21
-0.037551
31
0.0
0
LINE
8
0
6
CONTINUOUS
10
0.059768
20
-0.038250
30
0.0
11
0.060835
21
-0.037613
31
0.0
0
LINE
8
0
6
CONTINUOUS
10
0.061103
20
-0.037316
30
0.0
11
0.059892
21
-0.037999
31
0.0
0
LINE
8
0
6
CONTINUOUS
10
0.058757
20
-0.039086
30
0.0
11
0.059768
21
-0.038250
31
0.0
0
LINE
8
0
6
CONTINUOUS
10
0.059892
20
-0.037999
30
0.0
11
0.058773
21
-0.038903
31
0.0
0
LINE
8
0
6
CONTINUOUS
10
0.057995
20
-0.040174
30
0.0
11
0.058757
21
-0.039086
31
0.0
0
LINE
8
0
6
CONTINUOUS
10
0.058773
20
-0.038903
30
0.0
11
0.057920
21
-0.040012
31
0.0
0
LINE
8
0
6
CONTINUOUS
10
0.057920
20
-0.040012
30
0.0
11
0.057253
21
-0.040882
31
0.0
0
LINE
8
0
6
CONTINUOUS
10
0.060835
20
-0.037613
30
0.0
11
0.063139
21
-0.037112
31
0.0
0
LINE
8
0
6
CONTINUOUS
10
0.069919
20
-0.037060
30
0.0
11
0.068234
21
-0.037060
31
0.0
0
LINE
8
0
6
CONTINUOUS
10
0.069780
20
-0.039003
30
0.0
11
0.070786
21
-0.039003
31
0.0
0
LINE
8
0
6
CONTINUOUS
10
0.068459
20
-0.039003
30
0.0
11
0.069194
21
-0.039003
31
0.0
0
LINE
8
0
6
CONTINUOUS
10
0.068479
20
-0.037551
30
0.0
11
0.069326
21
-0.037551
31
0.0
0
LINE
8
0
6
CONTINUOUS
10
0.070471
20
-0.039355
30
0.0
11
0.068698
21
-0.039090
31
0.0
0
LINE
8
0
6
CONTINUOUS
10
0.068226
20
-0.039341
30
0.0
11
0.070471
21
-0.039355
31
0.0
0
LINE
8
0
6
CONTINUOUS
10
0.070826
20
-0.037060
30
0.0
11
0.069919
21
-0.037060
31
0.0
0
LINE
8
0
6
CONTINUOUS
10
0.068631
20
-0.037423
30
0.0
11
0.069559
21
-0.037423
31
0.0
0
LINE
8
0
6
CONTINUOUS
10
0.070826
20
-0.037060
30
0.0
11
0.069559
21
-0.037423
31
0.0
0
LINE
8
0
6
CONTINUOUS
10
0.068459
20
-0.039003
30
0.0
11
0.068436
21
-0.037987
31
0.0
0
LINE
8
0
6
CONTINUOUS
10
0.068436
20
-0.037987
30
0.0
11
0.068479
21
-0.037551
31
0.0
0
LINE
8
0
6
CONTINUOUS
10
0.066659
20
-0.037551
30
0.0
11
0.068479
21
-0.037551
31
0.0
0
LINE
8
0
6
CONTINUOUS
10
0.068459
20
-0.039003
30
0.0
11
0.066649
21
-0.039003
31
0.0
0
LINE
8
0
6
CONTINUOUS
10
0.069194
20
-0.039003
30
0.0
11
0.069780
21
-0.039003
31
0.0
0
LINE
8
0
6
CONTINUOUS
10
0.063656
20
-0.039302
30
0.0
11
0.060981
21
-0.039795
31
0.0
0
LINE
8
0
6
CONTINUOUS
10
0.069559
20
-0.037423
30
0.0
11
0.069326
21
-0.037551
31
0.0
0
LINE
8
0
6
CONTINUOUS
10
0.069326
20
-0.037551
30
0.0
11
0.069282
21
-0.037987
31
0.0
0
LINE
8
0
6
CONTINUOUS
10
0.062272
20
-0.037040
30
0.0
11
0.061103
21
-0.037316
31
0.0
0
LINE
8
0
6
CONTINUOUS
10
0.064663
20
-0.036612
30
0.0
11
0.062272
21
-0.037040
31
0.0
0
LINE
8
0
6
CONTINUOUS
10
0.061103
20
-0.037316
30
0.0
11
0.063239
21
-0.036901
31
0.0
0
LINE
8
0
6
CONTINUOUS
10
0.058643
20
-0.041745
30
0.0
11
0.053149
21
-0.067636
31
0.0
0
LINE
8
0
6
CONTINUOUS
10
0.059338
20
-0.042026
30
0.0
11
0.053613
21
-0.069941
31
0.0
0
LINE
8
0
6
CONTINUOUS
10
0.057253
20
-0.040882
30
0.0
11
0.053231
21
-0.059201
31
0.0
0
LINE
8
0
6
CONTINUOUS
10
0.070471
20
-0.039355
30
0.0
11
0.071148
21
-0.039090
31
0.0
0
LINE
8
0
6
CONTINUOUS
10
0.070786
20
-0.039003
30
0.0
11
0.070471
21
-0.039355
31
0.0
0
LINE
8
0
6
CONTINUOUS
10
0.070786
20
-0.039003
30
0.0
11
0.071148
21
-0.039090
31
0.0
0
LINE
8
0
6
CONTINUOUS
10
0.071148
20
-0.039090
30
0.0
11
0.071468
21
-0.039003
31
0.0
0
LINE
8
0
6
CONTINUOUS
10
0.060752
20
-0.041610
30
0.0
11
0.060389
21
-0.042206
31
0.0
0
LINE
8
0
6
CONTINUOUS
10
0.060992
20
-0.042026
30
0.0
11
0.061358
21
-0.041326
31
0.0
0
LINE
8
0
6
CONTINUOUS
10
0.061624
20
-0.040584
30
0.0
11
0.061151
21
-0.041054
31
0.0
0
LINE
8
0
6
CONTINUOUS
10
0.061770
20
-0.040634
30
0.0
11
0.062263
21
-0.040171
31
0.0
0
LINE
8
0
6
CONTINUOUS
10
0.070786
20
-0.039003
30
0.0
11
0.071468
21
-0.039003
31
0.0
0
LINE
8
0
6
CONTINUOUS
10
0.071558
20
-0.037423
30
0.0
11
0.070826
21
-0.037060
31
0.0
0
LINE
8
0
6
CONTINUOUS
10
0.071518
20
-0.039003
30
0.0
11
0.071670
21
-0.037987
31
0.0
0
LINE
8
0
6
CONTINUOUS
10
0.071468
20
-0.039003
30
0.0
11
0.071518
21
-0.039003
31
0.0
0
LINE
8
0
6
CONTINUOUS
10
0.062184
20
-0.040303
30
0.0
11
0.065369
21
-0.039302
31
0.0
0
LINE
8
0
6
CONTINUOUS
10
0.071670
20
-0.037987
30
0.0
11
0.071629
21
-0.037551
31
0.0
0
LINE
8
0
6
CONTINUOUS
10
0.071629
20
-0.037551
30
0.0
11
0.071558
21
-0.037423
31
0.0
0
LINE
8
0
6
CONTINUOUS
10
0.054919
20
-0.069615
30
0.0
11
0.060992
21
-0.042026
31
0.0
0
LINE
8
0
6
CONTINUOUS
10
0.060389
20
-0.042206
30
0.0
11
0.054293
21
-0.070724
31
0.0
0
LINE
8
0
6
CONTINUOUS
10
0.052900
20
-0.063987
30
0.0
11
0.057645
21
-0.041205
31
0.0
0
LINE
8
0
6
CONTINUOUS
10
0.042138
20
0.044031
30
0.0
11
0.046662
21
0.044031
31
0.0
0
LINE
8
0
6
CONTINUOUS
10
0.018466
20
0.044031
30
0.0
11
0.019146
21
0.044031
31
0.0
0
LINE
8
0
6
CONTINUOUS
10
0.018466
20
0.044768
30
0.0
11
0.018466
21
0.044031
31
0.0
0
LINE
8
0
6
CONTINUOUS
10
0.019146
20
0.044031
30
0.0
11
0.020957
21
0.044031
31
0.0
0
LINE
8
0
6
CONTINUOUS
10
0.020957
20
0.044031
30
0.0
11
0.023975
21
0.044031
31
0.0
0
LINE
8
0
6
CONTINUOUS
10
0.053652
20
0.044031
30
0.0
11
0.055502
21
0.044031
31
0.0
0
LINE
8
0
6
CONTINUOUS
10
0.037332
20
0.044031
30
0.0
11
0.042138
21
0.044031
31
0.0
0
LINE
8
0
6
CONTINUOUS
10
0.032502
20
0.044031
30
0.0
11
0.037332
21
0.044031
31
0.0
0
LINE
8
0
6
CONTINUOUS
10
0.056198
20
0.044031
30
0.0
11
0.056198
21
0.044768
31
0.0
0
LINE
8
0
6
CONTINUOUS
10
0.055502
20
0.044031
30
0.0
11
0.056198
21
0.044031
31
0.0
0
LINE
8
0
6
CONTINUOUS
10
0.027975
20
0.044031
30
0.0
11
0.032502
21
0.044031
31
0.0
0
LINE
8
0
6
CONTINUOUS
10
0.050671
20
0.044031
30
0.0
11
0.053652
21
0.044031
31
0.0
0
LINE
8
0
6
CONTINUOUS
10
0.023975
20
0.044031
30
0.0
11
0.027975
21
0.044031
31
0.0
0
LINE
8
0
6
CONTINUOUS
10
0.046662
20
0.044031
30
0.0
11
0.050671
21
0.044031
31
0.0
0
LINE
8
0
6
CONTINUOUS
10
0.020254
20
0.044768
30
0.0
11
0.020254
21
0.042373
31
0.0
0
LINE
8
0
6
CONTINUOUS
10
0.054410
20
0.042373
30
0.0
11
0.054410
21
0.044768
31
0.0
0
LINE
8
0
6
CONTINUOUS
10
-0.028829
20
0.095124
30
0.0
11
-0.028984
21
0.094518
31
0.0
0
LINE
8
0
6
CONTINUOUS
10
-0.030676
20
0.085463
30
0.0
11
0.008881
21
0.075830
31
0.0
0
LINE
8
0
6
CONTINUOUS
10
0.009049
20
0.076184
30
0.0
11
-0.030581
21
0.085839
31
0.0
0
LINE
8
0
6
CONTINUOUS
10
-0.029508
20
0.092453
30
0.0
11
-0.029988
21
0.090564
31
0.0
0
LINE
8
0
6
CONTINUOUS
10
-0.028984
20
0.094518
30
0.0
11
-0.029102
21
0.094054
31
0.0
0
LINE
8
0
6
CONTINUOUS
10
-0.029508
20
0.092453
30
0.0
11
-0.029330
21
0.093159
31
0.0
0
LINE
8
0
6
CONTINUOUS
10
0.016113
20
0.072448
30
0.0
11
0.017204
21
0.070512
31
0.0
0
LINE
8
0
6
CONTINUOUS
10
0.018466
20
0.065288
30
0.0
11
0.018466
21
0.044768
31
0.0
0
LINE
8
0
6
CONTINUOUS
10
0.056198
20
0.044768
30
0.0
11
0.056198
21
0.065288
31
0.0
0
LINE
8
0
6
CONTINUOUS
10
-0.029102
20
0.094054
30
0.0
11
-0.029330
21
0.093159
31
0.0
0
LINE
8
0
6
CONTINUOUS
10
0.016899
20
0.082571
30
0.0
11
0.018172
21
0.082094
31
0.0
0
LINE
8
0
6
CONTINUOUS
10
0.016620
20
0.076493
30
0.0
11
0.016519
21
0.074526
31
0.0
0
LINE
8
0
6
CONTINUOUS
10
0.010271
20
0.084416
30
0.0
11
0.013080
21
0.083688
31
0.0
0
LINE
8
0
6
CONTINUOUS
10
0.046689
20
0.081900
30
0.0
11
0.042162
21
0.081900
31
0.0
0
LINE
8
0
6
CONTINUOUS
10
0.023975
20
0.081900
30
0.0
11
0.020957
21
0.081900
31
0.0
0
LINE
8
0
6
CONTINUOUS
10
0.032502
20
0.081900
30
0.0
11
0.027975
21
0.081900
31
0.0
0
LINE
8
0
6
CONTINUOUS
10
0.027975
20
0.081900
30
0.0
11
0.023975
21
0.081900
31
0.0
0
LINE
8
0
6
CONTINUOUS
10
0.050689
20
0.081900
30
0.0
11
0.046689
21
0.081900
31
0.0
0
LINE
8
0
6
CONTINUOUS
10
0.056198
20
0.081900
30
0.0
11
0.055518
21
0.081900
31
0.0
0
LINE
8
0
6
CONTINUOUS
10
0.056198
20
0.081042
30
0.0
11
0.056198
21
0.081900
31
0.0
0
LINE
8
0
6
CONTINUOUS
10
0.055518
20
0.081900
30
0.0
11
0.053707
21
0.081900
31
0.0
0
LINE
8
0
6
CONTINUOUS
10
0.053707
20
0.081900
30
0.0
11
0.050689
21
0.081900
31
0.0
0
LINE
8
0
6
CONTINUOUS
10
0.037332
20
0.081900
30
0.0
11
0.032502
21
0.081900
31
0.0
0
LINE
8
0
6
CONTINUOUS
10
0.042162
20
0.081900
30
0.0
11
0.037332
21
0.081900
31
0.0
0
LINE
8
0
6
CONTINUOUS
10
-0.028543
20
0.093891
30
0.0
11
0.010271
21
0.084416
31
0.0
0
LINE
8
0
6
CONTINUOUS
10
0.019933
20
0.083658
30
0.0
11
0.016041
21
0.084437
31
0.0
0
LINE
8
0
6
CONTINUOUS
10
0.016865
20
0.080699
30
0.0
11
0.018239
21
0.079938
31
0.0
0
LINE
8
0
6
CONTINUOUS
10
0.016484
20
0.072492
30
0.0
11
0.017671
21
0.070552
31
0.0
0
LINE
8
0
6
CONTINUOUS
10
0.019226
20
0.067651
30
0.0
11
0.018658
21
0.068836
31
0.0
0
LINE
8
0
6
CONTINUOUS
10
0.018053
20
0.068756
30
0.0
11
0.018466
21
0.067437
31
0.0
0
LINE
8
0
6
CONTINUOUS
10
0.019708
20
0.081900
30
0.0
11
0.019110
21
0.081900
31
0.0
0
LINE
8
0
6
CONTINUOUS
10
0.035667
20
0.081900
30
0.0
11
0.031710
21
0.082136
31
0.0
0
LINE
8
0
6
CONTINUOUS
10
0.015856
20
0.081110
30
0.0
11
0.016865
21
0.080699
31
0.0
0
LINE
8
0
6
CONTINUOUS
10
0.015380
20
0.075096
30
0.0
11
0.016484
21
0.072492
31
0.0
0
LINE
8
0
6
CONTINUOUS
10
0.016484
20
0.072492
30
0.0
11
0.016519
21
0.074526
31
0.0
0
LINE
8
0
6
CONTINUOUS
10
0.011914
20
0.075444
30
0.0
11
0.009049
21
0.076184
31
0.0
0
LINE
8
0
6
CONTINUOUS
10
0.008881
20
0.075830
30
0.0
11
0.011741
21
0.075091
31
0.0
0
LINE
8
0
6
CONTINUOUS
10
0.016041
20
0.084437
30
0.0
11
0.013066
21
0.085210
31
0.0
0
LINE
8
0
6
CONTINUOUS
10
0.012392
20
0.085003
30
0.0
11
0.015327
21
0.084243
31
0.0
0
LINE
8
0
6
CONTINUOUS
10
0.023843
20
0.083009
30
0.0
11
0.019933
21
0.083658
31
0.0
0
LINE
8
0
6
CONTINUOUS
10
0.013066
20
0.085210
30
0.0
11
-0.028176
21
0.095336
31
0.0
0
LINE
8
0
6
CONTINUOUS
10
0.056198
20
0.067865
30
0.0
11
0.056198
21
0.070672
31
0.0
0
LINE
8
0
6
CONTINUOUS
10
0.056198
20
0.065288
30
0.0
11
0.056198
21
0.067865
31
0.0
0
LINE
8
0
6
CONTINUOUS
10
0.056198
20
0.070672
30
0.0
11
0.056198
21
0.073479
31
0.0
0
LINE
8
0
6
CONTINUOUS
10
0.056198
20
0.079093
30
0.0
11
0.056198
21
0.081042
31
0.0
0
LINE
8
0
6
CONTINUOUS
10
0.056198
20
0.073479
30
0.0
11
0.056198
21
0.076286
31
0.0
0
LINE
8
0
6
CONTINUOUS
10
0.011741
20
0.075091
30
0.0
11
0.014936
21
0.073579
31
0.0
0
LINE
8
0
6
CONTINUOUS
10
0.056198
20
0.076286
30
0.0
11
0.056198
21
0.079093
31
0.0
0
LINE
8
0
6
CONTINUOUS
10
-0.031234
20
0.085627
30
0.0
11
-0.030676
21
0.085463
31
0.0
0
LINE
8
0
6
CONTINUOUS
10
-0.031139
20
0.086003
30
0.0
11
-0.031234
21
0.085627
31
0.0
0
LINE
8
0
6
CONTINUOUS
10
-0.031139
20
0.086003
30
0.0
11
-0.030581
21
0.085839
31
0.0
0
LINE
8
0
6
CONTINUOUS
10
-0.030869
20
0.087073
30
0.0
11
-0.031139
21
0.086003
31
0.0
0
LINE
8
0
6
CONTINUOUS
10
-0.030465
20
0.088675
30
0.0
11
-0.030869
21
0.087073
31
0.0
0
LINE
8
0
6
CONTINUOUS
10
0.018658
20
0.068836
30
0.0
11
0.017671
21
0.070552
31
0.0
0
LINE
8
0
6
CONTINUOUS
10
0.017204
20
0.070512
30
0.0
11
0.018053
21
0.068756
31
0.0
0
LINE
8
0
6
CONTINUOUS
10
-0.029988
20
0.090564
30
0.0
11
-0.030465
21
0.088675
31
0.0
0
LINE
8
0
6
CONTINUOUS
10
0.020957
20
0.081900
30
0.0
11
0.019708
21
0.081900
31
0.0
0
LINE
8
0
6
CONTINUOUS
10
0.027768
20
0.082501
30
0.0
11
0.023843
21
0.083009
31
0.0
0
LINE
8
0
6
CONTINUOUS
10
0.017893
20
0.083519
30
0.0
11
0.015327
21
0.084243
31
0.0
0
LINE
8
0
6
CONTINUOUS
10
0.018466
20
0.067437
30
0.0
11
0.018466
21
0.065288
31
0.0
0
LINE
8
0
6
CONTINUOUS
10
0.019110
20
0.081900
30
0.0
11
0.018172
21
0.082094
31
0.0
0
LINE
8
0
6
CONTINUOUS
10
0.015148
20
0.073943
30
0.0
11
0.015380
21
0.075096
31
0.0
0
LINE
8
0
6
CONTINUOUS
10
0.014936
20
0.073579
30
0.0
11
0.016113
21
0.072448
31
0.0
0
LINE
8
0
6
CONTINUOUS
10
0.015869
20
0.082839
30
0.0
11
0.015862
21
0.081986
31
0.0
0
LINE
8
0
6
CONTINUOUS
10
0.016899
20
0.082571
30
0.0
11
0.015869
21
0.082839
31
0.0
0
LINE
8
0
6
CONTINUOUS
10
0.031710
20
0.082136
30
0.0
11
0.027768
21
0.082501
31
0.0
0
LINE
8
0
6
CONTINUOUS
10
-0.028829
20
0.095124
30
0.0
11
-0.028271
21
0.094961
31
0.0
0
LINE
8
0
6
CONTINUOUS
10
-0.028734
20
0.095500
30
0.0
11
-0.028829
21
0.095124
31
0.0
0
LINE
8
0
6
CONTINUOUS
10
-0.028176
20
0.095336
30
0.0
11
-0.028734
21
0.095500
31
0.0
0
LINE
8
0
6
CONTINUOUS
10
0.012392
20
0.085003
30
0.0
11
-0.028271
21
0.094961
31
0.0
0
LINE
8
0
6
CONTINUOUS
10
0.058287
20
-0.025672
30
0.0
11
0.057899
21
-0.012420
31
0.0
0
LINE
8
0
6
CONTINUOUS
10
0.057413
20
0.004128
30
0.0
11
0.056880
21
0.022310
31
0.0
0
LINE
8
0
6
CONTINUOUS
10
0.022227
20
-0.004359
30
0.0
11
0.018867
21
-0.012555
31
0.0
0
LINE
8
0
6
CONTINUOUS
10
0.015274
20
-0.008815
30
0.0
11
0.011174
21
-0.007243
31
0.0
0
LINE
8
0
6
CONTINUOUS
10
0.015274
20
-0.008815
30
0.0
11
0.014398
21
-0.011695
31
0.0
0
LINE
8
0
6
CONTINUOUS
10
0.018867
20
-0.012555
30
0.0
11
0.015274
21
-0.008815
31
0.0
0
LINE
8
0
6
CONTINUOUS
10
0.018867
20
-0.012555
30
0.0
11
0.016793
21
-0.014816
31
0.0
0
LINE
8
0
6
CONTINUOUS
10
0.016082
20
-0.015588
30
0.0
11
0.016886
21
-0.021276
31
0.0
0
LINE
8
0
6
CONTINUOUS
10
0.019794
20
0.021438
30
0.0
11
0.017917
21
0.023344
31
0.0
0
LINE
8
0
6
CONTINUOUS
10
0.018332
20
0.028605
30
0.0
11
0.017279
21
0.024036
31
0.0
0
LINE
8
0
6
CONTINUOUS
10
0.017917
20
0.023344
30
0.0
11
0.017279
21
0.024036
31
0.0
0
LINE
8
0
6
CONTINUOUS
10
0.017279
20
0.024036
30
0.0
11
0.014610
21
0.021325
31
0.0
0
LINE
8
0
6
CONTINUOUS
10
0.014873
20
0.020450
30
0.0
11
0.014610
21
0.021325
31
0.0
0
LINE
8
0
6
CONTINUOUS
10
0.014610
20
0.021325
30
0.0
11
0.010929
21
0.020070
31
0.0
0
LINE
8
0
6
CONTINUOUS
10
0.015666
20
0.017810
30
0.0
11
0.011320
21
0.016113
31
0.0
0
LINE
8
0
6
CONTINUOUS
10
0.011790
20
0.011499
30
0.0
11
0.016932
21
0.013613
31
0.0
0
LINE
8
0
6
CONTINUOUS
10
0.016932
20
0.013613
30
0.0
11
0.022790
21
0.018089
31
0.0
0
LINE
8
0
6
CONTINUOUS
10
0.019794
20
0.021438
30
0.0
11
0.022790
21
0.018089
31
0.0
0
LINE
8
0
6
CONTINUOUS
10
0.016460
20
-0.033780
30
0.0
11
0.014350
21
-0.094500
31
0.0
0
LINE
8
0
6
CONTINUOUS
10
0.023800
20
0.023019
30
0.0
11
0.022790
21
0.018089
31
0.0
0
LINE
8
0
6
CONTINUOUS
10
0.057899
20
-0.012420
30
0.0
11
0.057413
21
0.004128
31
0.0
0
LINE
8
0
6
CONTINUOUS
10
0.056614
20
0.031889
30
0.0
11
0.056347
21
0.041467
31
0.0
0
LINE
8
0
6
CONTINUOUS
10
0.018332
20
0.041467
30
0.0
11
0.018332
21
0.035442
31
0.0
0
LINE
8
0
6
CONTINUOUS
10
0.018979
20
0.042467
30
0.0
11
0.018332
21
0.042467
31
0.0
0
LINE
8
0
6
CONTINUOUS
10
0.018332
20
0.042467
30
0.0
11
0.018332
21
0.041467
31
0.0
0
LINE
8
0
6
CONTINUOUS
10
0.050767
20
0.042467
30
0.0
11
0.046832
21
0.042467
31
0.0
0
LINE
8
0
6
CONTINUOUS
10
0.056332
20
0.042467
30
0.0
11
0.055685
21
0.042467
31
0.0
0
LINE
8
0
6
CONTINUOUS
10
0.056347
20
0.041467
30
0.0
11
0.056332
21
0.042467
31
0.0
0
LINE
8
0
6
CONTINUOUS
10
0.027832
20
0.042467
30
0.0
11
0.023897
21
0.042467
31
0.0
0
LINE
8
0
6
CONTINUOUS
10
0.042250
20
0.042467
30
0.0
11
0.037332
21
0.042467
31
0.0
0
LINE
8
0
6
CONTINUOUS
10
0.037332
20
0.042467
30
0.0
11
0.032414
21
0.042467
31
0.0
0
LINE
8
0
6
CONTINUOUS
10
0.020878
20
0.042467
30
0.0
11
0.018979
21
0.042467
31
0.0
0
LINE
8
0
6
CONTINUOUS
10
0.055685
20
0.042467
30
0.0
11
0.053787
21
0.042467
31
0.0
0
LINE
8
0
6
CONTINUOUS
10
0.053787
20
0.042467
30
0.0
11
0.050767
21
0.042467
31
0.0
0
LINE
8
0
6
CONTINUOUS
10
0.023897
20
0.042467
30
0.0
11
0.020878
21
0.042467
31
0.0
0
LINE
8
0
6
CONTINUOUS
10
0.046832
20
0.042467
30
0.0
11
0.042250
21
0.042467
31
0.0
0
LINE
8
0
6
CONTINUOUS
10
0.032414
20
0.042467
30
0.0
11
0.027832
21
0.042467
31
0.0
0
LINE
8
0
6
CONTINUOUS
10
0.017407
20
-0.095500
30
0.0
11
0.021063
21
-0.095500
31
0.0
0
LINE
8
0
6
CONTINUOUS
10
0.025827
20
-0.095500
30
0.0
11
0.031374
21
-0.095500
31
0.0
0
LINE
8
0
6
CONTINUOUS
10
0.057249
20
-0.095500
30
0.0
11
0.059547
21
-0.095500
31
0.0
0
LINE
8
0
6
CONTINUOUS
10
0.014325
20
-0.095500
30
0.0
11
0.015109
21
-0.095500
31
0.0
0
LINE
8
0
6
CONTINUOUS
10
0.014350
20
-0.094500
30
0.0
11
0.014325
21
-0.095500
31
0.0
0
LINE
8
0
6
CONTINUOUS
10
0.048829
20
-0.095500
30
0.0
11
0.053593
21
-0.095500
31
0.0
0
LINE
8
0
6
CONTINUOUS
10
0.037328
20
-0.095500
30
0.0
11
0.043281
21
-0.095500
31
0.0
0
LINE
8
0
6
CONTINUOUS
10
0.021063
20
-0.095500
30
0.0
11
0.025827
21
-0.095500
31
0.0
0
LINE
8
0
6
CONTINUOUS
10
0.060330
20
-0.095500
30
0.0
11
0.060306
21
-0.094500
31
0.0
0
LINE
8
0
6
CONTINUOUS
10
0.059547
20
-0.095500
30
0.0
11
0.060330
21
-0.095500
31
0.0
0
LINE
8
0
6
CONTINUOUS
10
0.031374
20
-0.095500
30
0.0
11
0.037328
21
-0.095500
31
0.0
0
LINE
8
0
6
CONTINUOUS
10
0.015109
20
-0.095500
30
0.0
11
0.017407
21
-0.095500
31
0.0
0
LINE
8
0
6
CONTINUOUS
10
0.053593
20
-0.095500
30
0.0
11
0.057249
21
-0.095500
31
0.0
0
LINE
8
0
6
CONTINUOUS
10
0.043281
20
-0.095500
30
0.0
11
0.048829
21
-0.095500
31
0.0
0
LINE
8
0
6
CONTINUOUS
10
0.016886
20
-0.021276
30
0.0
11
0.016866
21
-0.022089
31
0.0
0
LINE
8
0
6
CONTINUOUS
10
0.018332
20
0.029418
30
0.0
11
0.018332
21
0.028605
31
0.0
0
LINE
8
0
6
CONTINUOUS
10
0.023618
20
-0.010353
30
0.0
11
0.027360
21
0.004284
31
0.0
0
LINE
8
0
6
CONTINUOUS
10
0.023070
20
-0.010047
30
0.0
11
0.027360
21
0.004284
31
0.0
0
LINE
8
0
6
CONTINUOUS
10
0.009043
20
-0.007186
30
0.0
11
-0.042118
21
-0.005814
31
0.0
0
LINE
8
0
6
CONTINUOUS
10
0.008807
20
0.019991
30
0.0
11
-0.042118
21
0.018100
31
0.0
0
LINE
8
0
6
CONTINUOUS
10
-0.042118
20
-0.001029
30
0.0
11
0.009550
21
-0.001748
31
0.0
0
LINE
8
0
6
CONTINUOUS
10
0.009635
20
0.011463
30
0.0
11
-0.042118
21
0.010595
31
0.0
0
LINE
8
0
6
CONTINUOUS
10
0.008627
20
-0.011481
30
0.0
11
0.010741
21
-0.011560
31
0.0
0
LINE
8
0
6
CONTINUOUS
10
-0.043118
20
-0.009557
30
0.0
11
-0.042118
21
-0.009594
31
0.0
0
LINE
8
0
6
CONTINUOUS
10
-0.043118
20
-0.008567
30
0.0
11
-0.043118
21
-0.009557
31
0.0
0
LINE
8
0
6
CONTINUOUS
10
-0.043118
20
-0.001015
30
0.0
11
-0.043118
21
-0.005787
31
0.0
0
LINE
8
0
6
CONTINUOUS
10
-0.043118
20
-0.001015
30
0.0
11
-0.042118
21
-0.001029
31
0.0
0
LINE
8
0
6
CONTINUOUS
10
-0.043118
20
0.004504
30
0.0
11
-0.043118
21
-0.001015
31
0.0
0
LINE
8
0
6
CONTINUOUS
10
-0.042118
20
-0.005814
30
0.0
11
-0.043118
21
-0.005787
31
0.0
0
LINE
8
0
6
CONTINUOUS
10
-0.043118
20
-0.008567
30
0.0
11
-0.043118
21
-0.005787
31
0.0
0
LINE
8
0
6
CONTINUOUS
10
-0.043118
20
0.004504
30
0.0
11
-0.043118
21
0.010578
31
0.0
0
LINE
8
0
6
CONTINUOUS
10
-0.043118
20
0.017221
30
0.0
11
-0.043118
21
0.014607
31
0.0
0
LINE
8
0
6
CONTINUOUS
10
-0.043118
20
0.010578
30
0.0
11
-0.042118
21
0.010595
31
0.0
0
LINE
8
0
6
CONTINUOUS
10
-0.043118
20
0.014607
30
0.0
11
-0.043118
21
0.010578
31
0.0
0
LINE
8
0
6
CONTINUOUS
10
-0.043118
20
0.018062
30
0.0
11
-0.043118
21
0.017221
31
0.0
0
LINE
8
0
6
CONTINUOUS
10
-0.042118
20
0.018100
30
0.0
11
-0.043118
21
0.018062
31
0.0
0
LINE
8
0
6
CONTINUOUS
10
0.010929
20
0.020070
30
0.0
11
0.008807
21
0.019991
31
0.0
0
LINE
8
0
6
CONTINUOUS
10
0.009043
20
-0.007186
30
0.0
11
0.011174
21
-0.007243
31
0.0
0
LINE
8
0
6
CONTINUOUS
10
0.011702
20
-0.001778
30
0.0
11
0.009550
21
-0.001748
31
0.0
0
LINE
8
0
6
CONTINUOUS
10
-0.042118
20
-0.009594
30
0.0
11
0.008627
21
-0.011481
31
0.0
0
LINE
8
0
6
CONTINUOUS
10
0.016793
20
-0.014816
30
0.0
11
0.014398
21
-0.011695
31
0.0
0
LINE
8
0
6
CONTINUOUS
10
0.016082
20
-0.015588
30
0.0
11
0.016793
21
-0.014816
31
0.0
0
LINE
8
0
6
CONTINUOUS
10
0.014105
20
-0.012712
30
0.0
11
0.016082
21
-0.015588
31
0.0
0
LINE
8
0
6
CONTINUOUS
10
0.009635
20
0.011463
30
0.0
11
0.011790
21
0.011499
31
0.0
0
LINE
8
0
6
CONTINUOUS
10
-0.044469
20
0.016544
30
0.0
11
-0.046112
21
0.017354
31
0.0
0
LINE
8
0
6
CONTINUOUS
10
-0.043118
20
0.015641
30
0.0
11
-0.044469
21
0.016544
31
0.0
0
LINE
8
0
6
CONTINUOUS
10
-0.049642
20
0.018300
30
0.0
11
-0.051469
21
0.018420
31
0.0
0
LINE
8
0
6
CONTINUOUS
10
-0.047846
20
0.017943
30
0.0
11
-0.049642
21
0.018300
31
0.0
0
LINE
8
0
6
CONTINUOUS
10
-0.046112
20
0.017354
30
0.0
11
-0.047846
21
0.017943
31
0.0
0
LINE
8
0
6
CONTINUOUS
10
-0.061819
20
-0.009543
30
0.0
11
-0.061711
21
-0.009427
31
0.0
0
LINE
8
0
6
CONTINUOUS
10
-0.061711
20
0.018267
30
0.0
11
-0.061819
21
0.018383
31
0.0
0
LINE
8
0
6
CONTINUOUS
10
-0.044469
20
-0.007704
30
0.0
11
-0.042947
21
-0.006687
31
0.0
0
LINE
8
0
6
CONTINUOUS
10
-0.051469
20
-0.009580
30
0.0
11
-0.049642
21
-0.009460
31
0.0
0
LINE
8
0
6
CONTINUOUS
10
-0.071021
20
0.018420
30
0.0
11
-0.071170
21
0.018420
31
0.0
0
LINE
8
0
6
CONTINUOUS
10
-0.049642
20
-0.009460
30
0.0
11
-0.047846
21
-0.009103
31
0.0
0
LINE
8
0
6
CONTINUOUS
10
-0.047846
20
-0.009103
30
0.0
11
-0.046112
21
-0.008514
31
0.0
0
LINE
8
0
6
CONTINUOUS
10
-0.071170
20
-0.009580
30
0.0
11
-0.071021
21
-0.009580
31
0.0
0
LINE
8
0
6
CONTINUOUS
10
-0.046112
20
-0.008514
30
0.0
11
-0.044469
21
-0.007704
31
0.0
0
LINE
8
0
6
CONTINUOUS
10
-0.061819
20
0.011401
30
0.0
11
-0.061819
21
0.014293
31
0.0
0
LINE
8
0
6
CONTINUOUS
10
-0.061819
20
0.008034
30
0.0
11
-0.061819
21
0.011401
31
0.0
0
LINE
8
0
6
CONTINUOUS
10
-0.061819
20
0.016512
30
0.0
11
-0.061819
21
0.017907
31
0.0
0
LINE
8
0
6
CONTINUOUS
10
-0.061819
20
-0.009067
30
0.0
11
-0.061819
21
-0.007672
31
0.0
0
LINE
8
0
6
CONTINUOUS
10
-0.061819
20
0.018383
30
0.0
11
-0.061969
21
0.018420
31
0.0
0
LINE
8
0
6
CONTINUOUS
10
-0.061819
20
0.017907
30
0.0
11
-0.061819
21
0.018383
31
0.0
0
LINE
8
0
6
CONTINUOUS
10
-0.061819
20
-0.005453
30
0.0
11
-0.061819
21
-0.002562
31
0.0
0
LINE
8
0
6
CONTINUOUS
10
-0.061819
20
0.000806
30
0.0
11
-0.061819
21
0.004420
31
0.0
0
LINE
8
0
6
CONTINUOUS
10
-0.061819
20
-0.007672
30
0.0
11
-0.061819
21
-0.005453
31
0.0
0
LINE
8
0
6
CONTINUOUS
10
-0.061819
20
-0.002562
30
0.0
11
-0.061819
21
0.000806
31
0.0
0
LINE
8
0
6
CONTINUOUS
10
-0.061819
20
0.004420
30
0.0
11
-0.061819
21
0.008034
31
0.0
0
LINE
8
0
6
CONTINUOUS
10
-0.061819
20
0.014293
30
0.0
11
-0.061819
21
0.016512
31
0.0
0
LINE
8
0
6
CONTINUOUS
10
-0.061485
20
0.018420
30
0.0
11
-0.061669
21
0.018420
31
0.0
0
LINE
8
0
6
CONTINUOUS
10
-0.061669
20
-0.009580
30
0.0
11
-0.061485
21
-0.009580
31
0.0
0
LINE
8
0
6
CONTINUOUS
10
-0.061969
20
-0.009580
30
0.0
11
-0.061819
21
-0.009543
31
0.0
0
LINE
8
0
6
CONTINUOUS
10
-0.061819
20
-0.009543
30
0.0
11
-0.061819
21
-0.009067
31
0.0
0
LINE
8
0
6
CONTINUOUS
10
-0.061711
20
-0.009427
30
0.0
11
-0.061669
21
-0.009580
31
0.0
0
LINE
8
0
6
CONTINUOUS
10
-0.061711
20
-0.008955
30
0.0
11
-0.061711
21
-0.009427
31
0.0
0
LINE
8
0
6
CONTINUOUS
10
-0.061669
20
-0.009580
30
0.0
11
-0.061669
21
-0.009103
31
0.0
0
LINE
8
0
6
CONTINUOUS
10
-0.061711
20
0.004420
30
0.0
11
-0.061711
21
0.000836
31
0.0
0
LINE
8
0
6
CONTINUOUS
10
-0.061669
20
0.000796
30
0.0
11
-0.061669
21
0.004420
31
0.0
0
LINE
8
0
6
CONTINUOUS
10
-0.061711
20
0.000836
30
0.0
11
-0.061711
21
-0.002503
31
0.0
0
LINE
8
0
6
CONTINUOUS
10
-0.061669
20
-0.002580
30
0.0
11
-0.061669
21
0.000796
31
0.0
0
LINE
8
0
6
CONTINUOUS
10
-0.061711
20
0.016412
30
0.0
11
-0.061711
21
0.014211
31
0.0
0
LINE
8
0
6
CONTINUOUS
10
-0.061669
20
0.014319
30
0.0
11
-0.061669
21
0.016544
31
0.0
0
LINE
8
0
6
CONTINUOUS
10
-0.061711
20
-0.005371
30
0.0
11
-0.061711
21
-0.007572
31
0.0
0
LINE
8
0
6
CONTINUOUS
10
-0.061669
20
-0.007704
30
0.0
11
-0.061669
21
-0.005480
31
0.0
0
LINE
8
0
6
CONTINUOUS
10
-0.061711
20
0.008004
30
0.0
11
-0.061711
21
0.004420
31
0.0
0
LINE
8
0
6
CONTINUOUS
10
-0.061669
20
0.004420
30
0.0
11
-0.061669
21
0.008043
31
0.0
0
LINE
8
0
6
CONTINUOUS
10
-0.061711
20
0.018267
30
0.0
11
-0.061711
21
0.017795
31
0.0
0
LINE
8
0
6
CONTINUOUS
10
-0.061669
20
0.018420
30
0.0
11
-0.061711
21
0.018267
31
0.0
0
LINE
8
0
6
CONTINUOUS
10
-0.061669
20
0.017943
30
0.0
11
-0.061669
21
0.018420
31
0.0
0
LINE
8
0
6
CONTINUOUS
10
-0.061711
20
-0.007572
30
0.0
11
-0.061711
21
-0.008955
31
0.0
0
LINE
8
0
6
CONTINUOUS
10
-0.061669
20
-0.009103
30
0.0
11
-0.061669
21
-0.007704
31
0.0
0
LINE
8
0
6
CONTINUOUS
10
-0.061711
20
0.011343
30
0.0
11
-0.061711
21
0.008004
31
0.0
0
LINE
8
0
6
CONTINUOUS
10
-0.061669
20
0.008043
30
0.0
11
-0.061669
21
0.011420
31
0.0
0
LINE
8
0
6
CONTINUOUS
10
-0.061711
20
0.017795
30
0.0
11
-0.061711
21
0.016412
31
0.0
0
LINE
8
0
6
CONTINUOUS
10
-0.061669
20
0.016544
30
0.0
11
-0.061669
21
0.017943
31
0.0
0
LINE
8
0
6
CONTINUOUS
10
-0.061711
20
-0.002503
30
0.0
11
-0.061711
21
-0.005371
31
0.0
0
LINE
8
0
6
CONTINUOUS
10
-0.061669
20
-0.005480
30
0.0
11
-0.061669
21
-0.002580
31
0.0
0
LINE
8
0
6
CONTINUOUS
10
-0.061711
20
0.014211
30
0.0
11
-0.061711
21
0.011343
31
0.0
0
LINE
8
0
6
CONTINUOUS
10
-0.061669
20
0.011420
30
0.0
11
-0.061669
21
0.014319
31
0.0
0
LINE
8
0
6
CONTINUOUS
10
-0.051469
20
0.018420
30
0.0
11
-0.061485
21
0.018420
31
0.0
0
LINE
8
0
6
CONTINUOUS
10
-0.061485
20
-0.009580
30
0.0
11
-0.051469
21
-0.009580
31
0.0
0
LINE
8
0
6
CONTINUOUS
10
-0.061969
20
0.018420
30
0.0
11
-0.062079
21
0.018420
31
0.0
0
LINE
8
0
6
CONTINUOUS
10
-0.062079
20
-0.009580
30
0.0
11
-0.061969
21
-0.009580
31
0.0
0
LINE
8
0
6
CONTINUOUS
10
-0.071170
20
-0.009103
30
0.0
11
-0.071170
21
-0.007704
31
0.0
0
LINE
8
0
6
CONTINUOUS
10
-0.071670
20
-0.007268
30
0.0
11
-0.071670
21
-0.008616
31
0.0
0
LINE
8
0
6
CONTINUOUS
10
-0.071523
20
-0.008960
30
0.0
11
-0.071523
21
-0.007576
31
0.0
0
LINE
8
0
6
CONTINUOUS
10
-0.071670
20
-0.009076
30
0.0
11
-0.071523
21
-0.009432
31
0.0
0
LINE
8
0
6
CONTINUOUS
10
-0.071670
20
-0.008616
30
0.0
11
-0.071670
21
-0.009076
31
0.0
0
LINE
8
0
6
CONTINUOUS
10
-0.071170
20
-0.009580
30
0.0
11
-0.071170
21
-0.009103
31
0.0
0
LINE
8
0
6
CONTINUOUS
10
-0.071523
20
-0.009432
30
0.0
11
-0.071170
21
-0.009580
31
0.0
0
LINE
8
0
6
CONTINUOUS
10
-0.071523
20
-0.008960
30
0.0
11
-0.071523
21
-0.009432
31
0.0
0
LINE
8
0
6
CONTINUOUS
10
-0.071670
20
0.013963
30
0.0
11
-0.071670
21
0.011168
31
0.0
0
LINE
8
0
6
CONTINUOUS
10
-0.071523
20
0.014215
30
0.0
11
-0.071523
21
0.011346
31
0.0
0
LINE
8
0
6
CONTINUOUS
10
-0.071670
20
0.017456
30
0.0
11
-0.071670
21
0.016108
31
0.0
0
LINE
8
0
6
CONTINUOUS
10
-0.071523
20
0.016416
30
0.0
11
-0.071523
21
0.017800
31
0.0
0
LINE
8
0
6
CONTINUOUS
10
-0.071170
20
0.008043
30
0.0
11
-0.071170
21
0.011420
31
0.0
0
LINE
8
0
6
CONTINUOUS
10
-0.071523
20
0.008005
30
0.0
11
-0.071523
21
0.011346
31
0.0
0
LINE
8
0
6
CONTINUOUS
10
-0.071170
20
0.018420
30
0.0
11
-0.071523
21
0.018272
31
0.0
0
LINE
8
0
6
CONTINUOUS
10
-0.071170
20
0.017943
30
0.0
11
-0.071170
21
0.018420
31
0.0
0
LINE
8
0
6
CONTINUOUS
10
-0.071670
20
0.017916
30
0.0
11
-0.071670
21
0.017456
31
0.0
0
LINE
8
0
6
CONTINUOUS
10
-0.071523
20
0.018272
30
0.0
11
-0.071670
21
0.017916
31
0.0
0
LINE
8
0
6
CONTINUOUS
10
-0.071523
20
0.017800
30
0.0
11
-0.071523
21
0.018272
31
0.0
0
LINE
8
0
6
CONTINUOUS
10
-0.071170
20
-0.007704
30
0.0
11
-0.071170
21
-0.005480
31
0.0
0
LINE
8
0
6
CONTINUOUS
10
-0.071670
20
-0.005123
30
0.0
11
-0.071670
21
-0.007268
31
0.0
0
LINE
8
0
6
CONTINUOUS
10
-0.071523
20
-0.007576
30
0.0
11
-0.071523
21
-0.005375
31
0.0
0
LINE
8
0
6
CONTINUOUS
10
-0.071670
20
-0.002328
30
0.0
11
-0.071670
21
-0.005123
31
0.0
0
LINE
8
0
6
CONTINUOUS
10
-0.071523
20
-0.005375
30
0.0
11
-0.071523
21
-0.002506
31
0.0
0
LINE
8
0
6
CONTINUOUS
10
-0.071670
20
0.016108
30
0.0
11
-0.071670
21
0.013963
31
0.0
0
LINE
8
0
6
CONTINUOUS
10
-0.071523
20
0.014215
30
0.0
11
-0.071523
21
0.016416
31
0.0
0
LINE
8
0
6
CONTINUOUS
10
-0.071170
20
0.004420
30
0.0
11
-0.071170
21
0.008043
31
0.0
0
LINE
8
0
6
CONTINUOUS
10
-0.071670
20
0.007913
30
0.0
11
-0.071670
21
0.004420
31
0.0
0
LINE
8
0
6
CONTINUOUS
10
-0.071523
20
0.004420
30
0.0
11
-0.071523
21
0.008005
31
0.0
0
LINE
8
0
6
CONTINUOUS
10
-0.071670
20
0.004420
30
0.0
11
-0.071670
21
0.000927
31
0.0
0
LINE
8
0
6
CONTINUOUS
10
-0.071523
20
0.000835
30
0.0
11
-0.071523
21
0.004420
31
0.0
0
LINE
8
0
6
CONTINUOUS
10
-0.071670
20
0.000927
30
0.0
11
-0.071670
21
-0.002328
31
0.0
0
LINE
8
0
6
CONTINUOUS
10
-0.071523
20
0.000835
30
0.0
11
-0.071523
21
-0.002506
31
0.0
0
LINE
8
0
6
CONTINUOUS
10
-0.062079
20
0.018420
30
0.0
11
-0.071021
21
0.018420
31
0.0
0
LINE
8
0
6
CONTINUOUS
10
-0.071021
20
-0.009580
30
0.0
11
-0.062079
21
-0.009580
31
0.0
0
LINE
8
0
6
CONTINUOUS
10
-0.071670
20
0.007913
30
0.0
11
-0.071670
21
0.011168
31
0.0
0
LINE
8
0
6
CONTINUOUS
10
0.016866
20
-0.022089
30
0.0
11
0.016460
21
-0.033780
31
0.0
0
LINE
8
0
6
CONTINUOUS
10
0.060306
20
-0.094500
30
0.0
11
0.059029
21
-0.050945
31
0.0
0
LINE
8
0
6
CONTINUOUS
10
0.058679
20
-0.039026
30
0.0
11
0.058287
21
-0.025672
31
0.0
0
LINE
8
0
6
CONTINUOUS
10
0.018332
20
0.035442
30
0.0
11
0.018332
21
0.029418
31
0.0
0
LINE
8
0
6
CONTINUOUS
10
0.056880
20
0.022310
30
0.0
11
0.056614
21
0.031889
31
0.0
0
LINE
8
0
6
CONTINUOUS
10
0.014105
20
-0.012712
30
0.0
11
0.014398
21
-0.011695
31
0.0
0
LINE
8
0
6
CONTINUOUS
10
0.010741
20
-0.011560
30
0.0
11
0.014105
21
-0.012712
31
0.0
0
LINE
8
0
6
CONTINUOUS
10
0.052954
20
-0.064523
30
0.0
11
0.052900
21
-0.063987
31
0.0
0
LINE
8
0
6
CONTINUOUS
10
0.053088
20
-0.066291
30
0.0
11
0.052954
21
-0.064523
31
0.0
0
LINE
8
0
6
CONTINUOUS
10
0.052900
20
-0.063987
30
0.0
11
0.052931
21
-0.063380
31
0.0
0
ENDSEC
0
EOF
