999
Erzeugt mit innoplus bad 
0
SECTION
2
HEADER
9
$ACADVER
1
AC1009
9
$DWGCODEPAGE
3
ISO8859-1
0
ENDSEC
0
SECTION
2
TABLES
0
TABLE
2
LAYER
70
1
0
LAYER
2
0
70
0
62
7
6
CONTINUOUS
0
ENDTAB
0
ENDSEC
0
SECTION
2
ENTITIES
0
LINE
8
0
6
CONTINUOUS
10
0.023937
20
-0.039081
30
0.0
11
0.020911
21
-0.038716
31
0.0
0
LINE
8
0
6
CONTINUOUS
10
0.023937
20
-0.039081
30
0.0
11
0.020599
21
-0.039302
31
0.0
0
LINE
8
0
6
CONTINUOUS
10
0.019288
20
-0.039482
30
0.0
11
0.021968
21
-0.039341
31
0.0
0
LINE
8
0
6
CONTINUOUS
10
0.020911
20
-0.038716
30
0.0
11
0.024159
21
-0.039003
31
0.0
0
LINE
8
0
6
CONTINUOUS
10
0.019167
20
-0.038878
30
0.0
11
0.019053
21
-0.038985
31
0.0
0
LINE
8
0
6
CONTINUOUS
10
0.021973
20
-0.037060
30
0.0
11
0.019478
21
-0.036612
31
0.0
0
LINE
8
0
6
CONTINUOUS
10
0.019167
20
-0.038878
30
0.0
11
0.020911
21
-0.038716
31
0.0
0
LINE
8
0
6
CONTINUOUS
10
0.019108
20
-0.037899
30
0.0
11
0.021171
21
-0.037408
31
0.0
0
LINE
8
0
6
CONTINUOUS
10
0.024250
20
-0.037551
30
0.0
11
0.021009
21
-0.036901
31
0.0
0
LINE
8
0
6
CONTINUOUS
10
0.021143
20
-0.037112
30
0.0
11
0.024250
21
-0.037551
31
0.0
0
LINE
8
0
6
CONTINUOUS
10
0.019014
20
-0.037666
30
0.0
11
0.019082
21
-0.037613
31
0.0
0
LINE
8
0
6
CONTINUOUS
10
0.019082
20
-0.037613
30
0.0
11
0.021143
21
-0.037112
31
0.0
0
LINE
8
0
6
CONTINUOUS
10
0.023151
20
-0.037060
30
0.0
11
0.021973
21
-0.037060
31
0.0
0
LINE
8
0
6
CONTINUOUS
10
0.023537
20
-0.039355
30
0.0
11
0.024906
21
-0.039090
31
0.0
0
LINE
8
0
6
CONTINUOUS
10
0.021968
20
-0.039341
30
0.0
11
0.023537
21
-0.039355
31
0.0
0
LINE
8
0
6
CONTINUOUS
10
0.023785
20
-0.037060
30
0.0
11
0.023151
21
-0.037060
31
0.0
0
LINE
8
0
6
CONTINUOUS
10
0.025028
20
-0.037423
30
0.0
11
0.023785
21
-0.037060
31
0.0
0
LINE
8
0
6
CONTINUOUS
10
0.025139
20
-0.039003
30
0.0
11
0.025294
21
-0.037987
31
0.0
0
LINE
8
0
6
CONTINUOUS
10
0.025294
20
-0.037987
30
0.0
11
0.025234
21
-0.037551
31
0.0
0
LINE
8
0
6
CONTINUOUS
10
0.025234
20
-0.037551
30
0.0
11
0.025016
21
-0.037423
31
0.0
0
LINE
8
0
6
CONTINUOUS
10
0.024250
20
-0.037551
30
0.0
11
0.025234
21
-0.037551
31
0.0
0
LINE
8
0
6
CONTINUOUS
10
0.025139
20
-0.039003
30
0.0
11
0.024159
21
-0.039003
31
0.0
0
LINE
8
0
6
CONTINUOUS
10
0.024906
20
-0.039090
30
0.0
11
0.025139
21
-0.039003
31
0.0
0
LINE
8
0
6
CONTINUOUS
10
0.019078
20
-0.039835
30
0.0
11
0.020599
21
-0.039302
31
0.0
0
LINE
8
0
6
CONTINUOUS
10
0.020599
20
-0.039302
30
0.0
11
0.019075
21
-0.039742
31
0.0
0
LINE
8
0
6
CONTINUOUS
10
0.019003
20
-0.037285
30
0.0
11
0.021009
21
-0.036901
31
0.0
0
LINE
8
0
6
CONTINUOUS
10
0.019478
20
-0.036612
30
0.0
11
0.018985
21
-0.036688
31
0.0
0
LINE
8
0
6
CONTINUOUS
10
-0.002294
20
0.044031
30
0.0
11
0.002536
21
0.044031
31
0.0
0
LINE
8
0
6
CONTINUOUS
10
0.002536
20
0.044031
30
0.0
11
0.007063
21
0.044031
31
0.0
0
LINE
8
0
6
CONTINUOUS
10
0.007063
20
0.044031
30
0.0
11
0.011063
21
0.044031
31
0.0
0
LINE
8
0
6
CONTINUOUS
10
0.016572
20
0.044031
30
0.0
11
0.016572
21
0.044768
31
0.0
0
LINE
8
0
6
CONTINUOUS
10
0.015893
20
0.044031
30
0.0
11
0.016572
21
0.044031
31
0.0
0
LINE
8
0
6
CONTINUOUS
10
0.014081
20
0.044031
30
0.0
11
0.015893
21
0.044031
31
0.0
0
LINE
8
0
6
CONTINUOUS
10
0.011063
20
0.044031
30
0.0
11
0.014081
21
0.044031
31
0.0
0
LINE
8
0
6
CONTINUOUS
10
-0.007123
20
0.044031
30
0.0
11
-0.002294
21
0.044031
31
0.0
0
LINE
8
0
6
CONTINUOUS
10
-0.011651
20
0.044031
30
0.0
11
-0.007123
21
0.044031
31
0.0
0
LINE
8
0
6
CONTINUOUS
10
-0.015651
20
0.044031
30
0.0
11
-0.011651
21
0.044031
31
0.0
0
LINE
8
0
6
CONTINUOUS
10
-0.021160
20
0.044031
30
0.0
11
-0.020480
21
0.044031
31
0.0
0
LINE
8
0
6
CONTINUOUS
10
-0.021160
20
0.044768
30
0.0
11
-0.021160
21
0.044031
31
0.0
0
LINE
8
0
6
CONTINUOUS
10
-0.020480
20
0.044031
30
0.0
11
-0.018669
21
0.044031
31
0.0
0
LINE
8
0
6
CONTINUOUS
10
-0.018669
20
0.044031
30
0.0
11
-0.015651
21
0.044031
31
0.0
0
LINE
8
0
6
CONTINUOUS
10
0.014784
20
0.042373
30
0.0
11
0.014784
21
0.044768
31
0.0
0
LINE
8
0
6
CONTINUOUS
10
-0.019372
20
0.044768
30
0.0
11
-0.019372
21
0.042373
31
0.0
0
LINE
8
0
6
CONTINUOUS
10
-0.007050
20
0.090401
30
0.0
11
-0.007050
21
0.080843
31
0.0
0
LINE
8
0
6
CONTINUOUS
10
-0.004114
20
0.085839
30
0.0
11
-0.004114
21
0.076184
31
0.0
0
LINE
8
0
6
CONTINUOUS
10
0.002462
20
0.080843
30
0.0
11
0.002462
21
0.090401
31
0.0
0
LINE
8
0
6
CONTINUOUS
10
-0.002294
20
0.085463
30
0.0
11
-0.002294
21
0.075830
31
0.0
0
LINE
8
0
6
CONTINUOUS
10
-0.000474
20
0.076184
30
0.0
11
-0.000474
21
0.085839
31
0.0
0
LINE
8
0
6
CONTINUOUS
10
0.002100
20
0.092453
30
0.0
11
0.001646
21
0.093159
31
0.0
0
LINE
8
0
6
CONTINUOUS
10
0.000401
20
0.094518
30
0.0
11
-0.000474
21
0.095124
31
0.0
0
LINE
8
0
6
CONTINUOUS
10
-0.004114
20
0.095124
30
0.0
11
-0.004989
21
0.094518
31
0.0
0
LINE
8
0
6
CONTINUOUS
10
-0.006234
20
0.093159
30
0.0
11
-0.006688
21
0.092453
31
0.0
0
LINE
8
0
6
CONTINUOUS
10
0.001069
20
0.094054
30
0.0
11
0.000401
21
0.094518
31
0.0
0
LINE
8
0
6
CONTINUOUS
10
0.001646
20
0.093159
30
0.0
11
0.001069
21
0.094054
31
0.0
0
LINE
8
0
6
CONTINUOUS
10
-0.004989
20
0.094518
30
0.0
11
-0.005657
21
0.094054
31
0.0
0
LINE
8
0
6
CONTINUOUS
10
-0.005657
20
0.094054
30
0.0
11
-0.006234
21
0.093159
31
0.0
0
LINE
8
0
6
CONTINUOUS
10
0.002462
20
0.090564
30
0.0
11
0.002100
21
0.092453
31
0.0
0
LINE
8
0
6
CONTINUOUS
10
-0.000474
20
0.095124
30
0.0
11
-0.002294
21
0.095500
31
0.0
0
LINE
8
0
6
CONTINUOUS
10
-0.006688
20
0.092453
30
0.0
11
-0.007050
21
0.090564
31
0.0
0
LINE
8
0
6
CONTINUOUS
10
-0.002294
20
0.095500
30
0.0
11
-0.004114
21
0.095124
31
0.0
0
LINE
8
0
6
CONTINUOUS
10
-0.021160
20
0.065288
30
0.0
11
-0.021160
21
0.044768
31
0.0
0
LINE
8
0
6
CONTINUOUS
10
-0.021160
20
0.081042
30
0.0
11
-0.021160
21
0.079093
31
0.0
0
LINE
8
0
6
CONTINUOUS
10
0.002264
20
0.076493
30
0.0
11
0.001352
21
0.074526
31
0.0
0
LINE
8
0
6
CONTINUOUS
10
0.011063
20
0.081900
30
0.0
11
0.007063
21
0.081900
31
0.0
0
LINE
8
0
6
CONTINUOUS
10
0.015893
20
0.081900
30
0.0
11
0.014081
21
0.081900
31
0.0
0
LINE
8
0
6
CONTINUOUS
10
0.014081
20
0.081900
30
0.0
11
0.011063
21
0.081900
31
0.0
0
LINE
8
0
6
CONTINUOUS
10
0.016572
20
0.081900
30
0.0
11
0.015893
21
0.081900
31
0.0
0
LINE
8
0
6
CONTINUOUS
10
0.016572
20
0.081042
30
0.0
11
0.016572
21
0.081900
31
0.0
0
LINE
8
0
6
CONTINUOUS
10
-0.011651
20
0.081900
30
0.0
11
-0.015651
21
0.081900
31
0.0
0
LINE
8
0
6
CONTINUOUS
10
-0.018669
20
0.081900
30
0.0
11
-0.020480
21
0.081900
31
0.0
0
LINE
8
0
6
CONTINUOUS
10
-0.015651
20
0.081900
30
0.0
11
-0.018669
21
0.081900
31
0.0
0
LINE
8
0
6
CONTINUOUS
10
-0.021160
20
0.081900
30
0.0
11
-0.021160
21
0.081042
31
0.0
0
LINE
8
0
6
CONTINUOUS
10
-0.020480
20
0.081900
30
0.0
11
-0.021160
21
0.081900
31
0.0
0
LINE
8
0
6
CONTINUOUS
10
-0.005657
20
0.075096
30
0.0
11
-0.004702
21
0.072492
31
0.0
0
LINE
8
0
6
CONTINUOUS
10
-0.005657
20
0.075096
30
0.0
11
-0.004114
21
0.073943
31
0.0
0
LINE
8
0
6
CONTINUOUS
10
0.002511
20
0.080699
30
0.0
11
0.003409
21
0.079938
31
0.0
0
LINE
8
0
6
CONTINUOUS
10
-0.005594
20
0.070552
30
0.0
11
-0.006570
21
0.068836
31
0.0
0
LINE
8
0
6
CONTINUOUS
10
0.000115
20
0.072492
30
0.0
11
0.001006
21
0.070552
31
0.0
0
LINE
8
0
6
CONTINUOUS
10
0.002737
20
0.067651
30
0.0
11
0.001982
21
0.068836
31
0.0
0
LINE
8
0
6
CONTINUOUS
10
0.004519
20
0.081900
30
0.0
11
0.003673
21
0.081900
31
0.0
0
LINE
8
0
6
CONTINUOUS
10
0.001069
20
0.075096
30
0.0
11
0.000115
21
0.072492
31
0.0
0
LINE
8
0
6
CONTINUOUS
10
0.000115
20
0.072492
30
0.0
11
0.001352
21
0.074526
31
0.0
0
LINE
8
0
6
CONTINUOUS
10
-0.000474
20
0.075444
30
0.0
11
-0.000474
21
0.076184
31
0.0
0
LINE
8
0
6
CONTINUOUS
10
0.002462
20
0.080110
30
0.0
11
0.002462
21
0.080843
31
0.0
0
LINE
8
0
6
CONTINUOUS
10
0.016572
20
0.079093
30
0.0
11
0.016572
21
0.081042
31
0.0
0
LINE
8
0
6
CONTINUOUS
10
0.016572
20
0.065288
30
0.0
11
0.016572
21
0.067865
31
0.0
0
LINE
8
0
6
CONTINUOUS
10
0.016572
20
0.067865
30
0.0
11
0.016572
21
0.070672
31
0.0
0
LINE
8
0
6
CONTINUOUS
10
0.016572
20
0.076286
30
0.0
11
0.016572
21
0.079093
31
0.0
0
LINE
8
0
6
CONTINUOUS
10
0.016572
20
0.070672
30
0.0
11
0.016572
21
0.073479
31
0.0
0
LINE
8
0
6
CONTINUOUS
10
0.016572
20
0.073479
30
0.0
11
0.016572
21
0.076286
31
0.0
0
LINE
8
0
6
CONTINUOUS
10
-0.000474
20
0.086003
30
0.0
11
-0.002294
21
0.085627
31
0.0
0
LINE
8
0
6
CONTINUOUS
10
-0.000474
20
0.086003
30
0.0
11
-0.000474
21
0.085839
31
0.0
0
LINE
8
0
6
CONTINUOUS
10
0.001069
20
0.087073
30
0.0
11
-0.000474
21
0.086003
31
0.0
0
LINE
8
0
6
CONTINUOUS
10
-0.005594
20
0.070552
30
0.0
11
-0.004702
21
0.072492
31
0.0
0
LINE
8
0
6
CONTINUOUS
10
0.002100
20
0.088675
30
0.0
11
0.001069
21
0.087073
31
0.0
0
LINE
8
0
6
CONTINUOUS
10
0.001982
20
0.068836
30
0.0
11
0.001006
21
0.070552
31
0.0
0
LINE
8
0
6
CONTINUOUS
10
0.002462
20
0.090564
30
0.0
11
0.002100
21
0.088675
31
0.0
0
LINE
8
0
6
CONTINUOUS
10
0.002462
20
0.090401
30
0.0
11
0.002462
21
0.090564
31
0.0
0
LINE
8
0
6
CONTINUOUS
10
0.002462
20
0.078975
30
0.0
11
0.002462
21
0.080110
31
0.0
0
LINE
8
0
6
CONTINUOUS
10
0.007063
20
0.081900
30
0.0
11
0.004519
21
0.081900
31
0.0
0
LINE
8
0
6
CONTINUOUS
10
-0.002294
20
0.075091
30
0.0
11
-0.002294
21
0.075830
31
0.0
0
LINE
8
0
6
CONTINUOUS
10
-0.004114
20
0.076184
30
0.0
11
-0.004114
21
0.075444
31
0.0
0
LINE
8
0
6
CONTINUOUS
10
-0.007050
20
0.080843
30
0.0
11
-0.007050
21
0.080110
31
0.0
0
LINE
8
0
6
CONTINUOUS
10
-0.008261
20
0.081900
30
0.0
11
-0.009107
21
0.081900
31
0.0
0
LINE
8
0
6
CONTINUOUS
10
-0.009107
20
0.081900
30
0.0
11
-0.011651
21
0.081900
31
0.0
0
LINE
8
0
6
CONTINUOUS
10
-0.007255
20
0.082094
30
0.0
11
-0.008261
21
0.081900
31
0.0
0
LINE
8
0
6
CONTINUOUS
10
0.003673
20
0.081900
30
0.0
11
0.002667
21
0.082094
31
0.0
0
LINE
8
0
6
CONTINUOUS
10
-0.021160
20
0.067865
30
0.0
11
-0.021160
21
0.065288
31
0.0
0
LINE
8
0
6
CONTINUOUS
10
-0.021160
20
0.070672
30
0.0
11
-0.021160
21
0.067865
31
0.0
0
LINE
8
0
6
CONTINUOUS
10
-0.000474
20
0.073943
30
0.0
11
0.001069
21
0.075096
31
0.0
0
LINE
8
0
6
CONTINUOUS
10
-0.002294
20
0.073579
30
0.0
11
-0.002294
21
0.075091
31
0.0
0
LINE
8
0
6
CONTINUOUS
10
-0.021160
20
0.079093
30
0.0
11
-0.021160
21
0.076286
31
0.0
0
LINE
8
0
6
CONTINUOUS
10
-0.002294
20
0.073579
30
0.0
11
-0.002294
21
0.072448
31
0.0
0
LINE
8
0
6
CONTINUOUS
10
-0.007050
20
0.080110
30
0.0
11
-0.007050
21
0.078975
31
0.0
0
LINE
8
0
6
CONTINUOUS
10
-0.021160
20
0.073479
30
0.0
11
-0.021160
21
0.070672
31
0.0
0
LINE
8
0
6
CONTINUOUS
10
-0.021160
20
0.076286
30
0.0
11
-0.021160
21
0.073479
31
0.0
0
LINE
8
0
6
CONTINUOUS
10
-0.002294
20
0.085627
30
0.0
11
-0.004114
21
0.086003
31
0.0
0
LINE
8
0
6
CONTINUOUS
10
-0.002294
20
0.085463
30
0.0
11
-0.002294
21
0.085627
31
0.0
0
LINE
8
0
6
CONTINUOUS
10
-0.004114
20
0.086003
30
0.0
11
-0.005657
21
0.087073
31
0.0
0
LINE
8
0
6
CONTINUOUS
10
-0.004114
20
0.085839
30
0.0
11
-0.004114
21
0.086003
31
0.0
0
LINE
8
0
6
CONTINUOUS
10
-0.007325
20
0.067651
30
0.0
11
-0.006570
21
0.068836
31
0.0
0
LINE
8
0
6
CONTINUOUS
10
-0.005657
20
0.087073
30
0.0
11
-0.006688
21
0.088675
31
0.0
0
LINE
8
0
6
CONTINUOUS
10
-0.007050
20
0.090564
30
0.0
11
-0.007050
21
0.090401
31
0.0
0
LINE
8
0
6
CONTINUOUS
10
-0.006688
20
0.088675
30
0.0
11
-0.007050
21
0.090564
31
0.0
0
LINE
8
0
6
CONTINUOUS
10
0.016572
20
0.044768
30
0.0
11
0.016572
21
0.065288
31
0.0
0
LINE
8
0
6
CONTINUOUS
10
0.018662
20
-0.025672
30
0.0
11
0.018273
21
-0.012420
31
0.0
0
LINE
8
0
6
CONTINUOUS
10
-0.012419
20
-0.012555
30
0.0
11
-0.016459
21
-0.004359
31
0.0
0
LINE
8
0
6
CONTINUOUS
10
-0.013038
20
-0.007243
30
0.0
11
-0.012803
21
-0.008815
31
0.0
0
LINE
8
0
6
CONTINUOUS
10
-0.012803
20
-0.008815
30
0.0
11
-0.012419
21
-0.012555
31
0.0
0
LINE
8
0
6
CONTINUOUS
10
-0.007964
20
-0.011695
30
0.0
11
-0.012803
21
-0.008815
31
0.0
0
LINE
8
0
6
CONTINUOUS
10
-0.007553
20
-0.014816
30
0.0
11
-0.012419
21
-0.012555
31
0.0
0
LINE
8
0
6
CONTINUOUS
10
-0.007260
20
0.023344
30
0.0
11
-0.011904
21
0.021438
31
0.0
0
LINE
8
0
6
CONTINUOUS
10
-0.002294
20
0.024036
30
0.0
11
-0.007260
21
0.023344
31
0.0
0
LINE
8
0
6
CONTINUOUS
10
-0.002294
20
0.021325
30
0.0
11
-0.007580
21
0.020450
31
0.0
0
LINE
8
0
6
CONTINUOUS
10
-0.016012
20
0.013613
30
0.0
11
-0.016127
21
0.011499
31
0.0
0
LINE
8
0
6
CONTINUOUS
10
-0.012666
20
0.016113
30
0.0
11
-0.012386
21
0.017810
31
0.0
0
LINE
8
0
6
CONTINUOUS
10
-0.015929
20
0.018089
30
0.0
11
-0.016012
21
0.013613
31
0.0
0
LINE
8
0
6
CONTINUOUS
10
-0.015929
20
0.018089
30
0.0
11
-0.011904
21
0.021438
31
0.0
0
LINE
8
0
6
CONTINUOUS
10
-0.015929
20
0.018089
30
0.0
11
-0.015826
21
0.023019
31
0.0
0
LINE
8
0
6
CONTINUOUS
10
-0.022861
20
-0.012420
30
0.0
11
-0.023250
21
-0.025672
31
0.0
0
LINE
8
0
6
CONTINUOUS
10
-0.021309
20
0.041467
30
0.0
11
-0.021576
21
0.031889
31
0.0
0
LINE
8
0
6
CONTINUOUS
10
-0.002294
20
0.042467
30
0.0
11
-0.007211
21
0.042467
31
0.0
0
LINE
8
0
6
CONTINUOUS
10
-0.015729
20
0.042467
30
0.0
11
-0.018748
21
0.042467
31
0.0
0
LINE
8
0
6
CONTINUOUS
10
-0.021294
20
0.042467
30
0.0
11
-0.021309
21
0.041467
31
0.0
0
LINE
8
0
6
CONTINUOUS
10
-0.020646
20
0.042467
30
0.0
11
-0.021294
21
0.042467
31
0.0
0
LINE
8
0
6
CONTINUOUS
10
-0.007211
20
0.042467
30
0.0
11
-0.011794
21
0.042467
31
0.0
0
LINE
8
0
6
CONTINUOUS
10
-0.011794
20
0.042467
30
0.0
11
-0.015729
21
0.042467
31
0.0
0
LINE
8
0
6
CONTINUOUS
10
-0.018748
20
0.042467
30
0.0
11
-0.020646
21
0.042467
31
0.0
0
LINE
8
0
6
CONTINUOUS
10
-0.018557
20
-0.095500
30
0.0
11
-0.013794
21
-0.095500
31
0.0
0
LINE
8
0
6
CONTINUOUS
10
-0.024510
20
-0.095500
30
0.0
11
-0.022212
21
-0.095500
31
0.0
0
LINE
8
0
6
CONTINUOUS
10
-0.008247
20
-0.095500
30
0.0
11
-0.002294
21
-0.095500
31
0.0
0
LINE
8
0
6
CONTINUOUS
10
-0.022212
20
-0.095500
30
0.0
11
-0.018557
21
-0.095500
31
0.0
0
LINE
8
0
6
CONTINUOUS
10
-0.025269
20
-0.094500
30
0.0
11
-0.025294
21
-0.095500
31
0.0
0
LINE
8
0
6
CONTINUOUS
10
-0.025294
20
-0.095500
30
0.0
11
-0.024510
21
-0.095500
31
0.0
0
LINE
8
0
6
CONTINUOUS
10
-0.013794
20
-0.095500
30
0.0
11
-0.008247
21
-0.095500
31
0.0
0
LINE
8
0
6
CONTINUOUS
10
-0.016554
20
-0.010047
30
0.0
11
-0.019217
21
0.004284
31
0.0
0
LINE
8
0
6
CONTINUOUS
10
-0.019217
20
0.004284
30
0.0
11
-0.017072
21
-0.010353
31
0.0
0
LINE
8
0
6
CONTINUOUS
10
0.017788
20
0.004128
30
0.0
11
0.017254
21
0.022310
31
0.0
0
LINE
8
0
6
CONTINUOUS
10
0.018273
20
-0.012420
30
0.0
11
0.017788
21
0.004128
31
0.0
0
LINE
8
0
6
CONTINUOUS
10
0.011871
20
-0.004359
30
0.0
11
0.007832
21
-0.012555
31
0.0
0
LINE
8
0
6
CONTINUOUS
10
0.008215
20
-0.008815
30
0.0
11
0.008451
21
-0.007243
31
0.0
0
LINE
8
0
6
CONTINUOUS
10
0.008215
20
-0.008815
30
0.0
11
0.003376
21
-0.011695
31
0.0
0
LINE
8
0
6
CONTINUOUS
10
0.007832
20
-0.012555
30
0.0
11
0.008215
21
-0.008815
31
0.0
0
LINE
8
0
6
CONTINUOUS
10
0.007832
20
-0.012555
30
0.0
11
0.002965
21
-0.014816
31
0.0
0
LINE
8
0
6
CONTINUOUS
10
0.007317
20
0.021438
30
0.0
11
0.002672
21
0.023344
31
0.0
0
LINE
8
0
6
CONTINUOUS
10
0.002672
20
0.023344
30
0.0
11
-0.002294
21
0.024036
31
0.0
0
LINE
8
0
6
CONTINUOUS
10
0.002993
20
0.020450
30
0.0
11
-0.002294
21
0.021325
31
0.0
0
LINE
8
0
6
CONTINUOUS
10
0.007799
20
0.017810
30
0.0
11
0.008078
21
0.016113
31
0.0
0
LINE
8
0
6
CONTINUOUS
10
0.011539
20
0.011499
30
0.0
11
0.011424
21
0.013613
31
0.0
0
LINE
8
0
6
CONTINUOUS
10
0.011424
20
0.013613
30
0.0
11
0.011341
21
0.018089
31
0.0
0
LINE
8
0
6
CONTINUOUS
10
0.007317
20
0.021438
30
0.0
11
0.011341
21
0.018089
31
0.0
0
LINE
8
0
6
CONTINUOUS
10
0.011238
20
0.023019
30
0.0
11
0.011341
21
0.018089
31
0.0
0
LINE
8
0
6
CONTINUOUS
10
-0.022376
20
0.004128
30
0.0
11
-0.022861
21
-0.012420
31
0.0
0
LINE
8
0
6
CONTINUOUS
10
0.016988
20
0.031889
30
0.0
11
0.016721
21
0.041467
31
0.0
0
LINE
8
0
6
CONTINUOUS
10
-0.021842
20
0.022310
30
0.0
11
-0.022376
21
0.004128
31
0.0
0
LINE
8
0
6
CONTINUOUS
10
0.002624
20
0.042467
30
0.0
11
-0.002294
21
0.042467
31
0.0
0
LINE
8
0
6
CONTINUOUS
10
0.014161
20
0.042467
30
0.0
11
0.011141
21
0.042467
31
0.0
0
LINE
8
0
6
CONTINUOUS
10
0.016706
20
0.042467
30
0.0
11
0.016059
21
0.042467
31
0.0
0
LINE
8
0
6
CONTINUOUS
10
0.016721
20
0.041467
30
0.0
11
0.016706
21
0.042467
31
0.0
0
LINE
8
0
6
CONTINUOUS
10
0.007206
20
0.042467
30
0.0
11
0.002624
21
0.042467
31
0.0
0
LINE
8
0
6
CONTINUOUS
10
0.011141
20
0.042467
30
0.0
11
0.007206
21
0.042467
31
0.0
0
LINE
8
0
6
CONTINUOUS
10
0.016059
20
0.042467
30
0.0
11
0.014161
21
0.042467
31
0.0
0
LINE
8
0
6
CONTINUOUS
10
0.009206
20
-0.095500
30
0.0
11
0.013970
21
-0.095500
31
0.0
0
LINE
8
0
6
CONTINUOUS
10
0.017625
20
-0.095500
30
0.0
11
0.019922
21
-0.095500
31
0.0
0
LINE
8
0
6
CONTINUOUS
10
-0.002294
20
-0.095500
30
0.0
11
0.003659
21
-0.095500
31
0.0
0
LINE
8
0
6
CONTINUOUS
10
0.013970
20
-0.095500
30
0.0
11
0.017625
21
-0.095500
31
0.0
0
LINE
8
0
6
CONTINUOUS
10
0.019922
20
-0.095500
30
0.0
11
0.020706
21
-0.095500
31
0.0
0
LINE
8
0
6
CONTINUOUS
10
0.020706
20
-0.095500
30
0.0
11
0.020681
21
-0.094500
31
0.0
0
LINE
8
0
6
CONTINUOUS
10
0.003659
20
-0.095500
30
0.0
11
0.009206
21
-0.095500
31
0.0
0
LINE
8
0
6
CONTINUOUS
10
0.012484
20
-0.010353
30
0.0
11
0.014629
21
0.004284
31
0.0
0
LINE
8
0
6
CONTINUOUS
10
0.011966
20
-0.010047
30
0.0
11
0.014629
21
0.004284
31
0.0
0
LINE
8
0
6
CONTINUOUS
10
-0.016058
20
0.011463
30
0.0
11
-0.014404
21
0.010595
31
0.0
0
LINE
8
0
6
CONTINUOUS
10
0.008397
20
-0.007186
30
0.0
11
0.007113
21
-0.005814
31
0.0
0
LINE
8
0
6
CONTINUOUS
10
-0.012985
20
-0.007186
30
0.0
11
-0.011701
21
-0.005814
31
0.0
0
LINE
8
0
6
CONTINUOUS
10
0.010028
20
-0.001029
30
0.0
11
0.011710
21
-0.001748
31
0.0
0
LINE
8
0
6
CONTINUOUS
10
0.011470
20
0.011463
30
0.0
11
0.009817
21
0.010595
31
0.0
0
LINE
8
0
6
CONTINUOUS
10
-0.016298
20
-0.001748
30
0.0
11
-0.014616
21
-0.001029
31
0.0
0
LINE
8
0
6
CONTINUOUS
10
-0.016298
20
-0.001748
30
0.0
11
-0.016368
21
-0.001778
31
0.0
0
LINE
8
0
6
CONTINUOUS
10
0.008397
20
-0.007186
30
0.0
11
0.008451
21
-0.007243
31
0.0
0
LINE
8
0
6
CONTINUOUS
10
0.011780
20
-0.001778
30
0.0
11
0.011710
21
-0.001748
31
0.0
0
LINE
8
0
6
CONTINUOUS
10
-0.012985
20
-0.007186
30
0.0
11
-0.013038
21
-0.007243
31
0.0
0
LINE
8
0
6
CONTINUOUS
10
0.002965
20
-0.014816
30
0.0
11
0.003376
21
-0.011695
31
0.0
0
LINE
8
0
6
CONTINUOUS
10
-0.002294
20
-0.015588
30
0.0
11
0.002965
21
-0.014816
31
0.0
0
LINE
8
0
6
CONTINUOUS
10
-0.016058
20
0.011463
30
0.0
11
-0.016127
21
0.011499
31
0.0
0
LINE
8
0
6
CONTINUOUS
10
0.011470
20
0.011463
30
0.0
11
0.011539
21
0.011499
31
0.0
0
LINE
8
0
6
CONTINUOUS
10
0.001330
20
-0.009103
30
0.0
11
0.004706
21
-0.007704
31
0.0
0
LINE
8
0
6
CONTINUOUS
10
0.001291
20
-0.008960
30
0.0
11
0.004632
21
-0.007576
31
0.0
0
LINE
8
0
6
CONTINUOUS
10
-0.002294
20
-0.009580
30
0.0
11
0.001330
21
-0.009103
31
0.0
0
LINE
8
0
6
CONTINUOUS
10
0.001291
20
-0.008960
30
0.0
11
-0.002294
21
-0.009432
31
0.0
0
LINE
8
0
6
CONTINUOUS
10
-0.016294
20
0.004420
30
0.0
11
-0.015817
21
0.000796
31
0.0
0
LINE
8
0
6
CONTINUOUS
10
-0.016146
20
0.004420
30
0.0
11
-0.015674
21
0.000835
31
0.0
0
LINE
8
0
6
CONTINUOUS
10
0.009830
20
0.011420
30
0.0
11
0.007606
21
0.014319
31
0.0
0
LINE
8
0
6
CONTINUOUS
10
0.007501
20
0.014215
30
0.0
11
0.009703
21
0.011346
31
0.0
0
LINE
8
0
6
CONTINUOUS
10
-0.009294
20
-0.007704
30
0.0
11
-0.005917
21
-0.009103
31
0.0
0
LINE
8
0
6
CONTINUOUS
10
-0.009220
20
-0.007576
30
0.0
11
-0.005879
21
-0.008960
31
0.0
0
LINE
8
0
6
CONTINUOUS
10
0.004706
20
0.016544
30
0.0
11
0.001330
21
0.017943
31
0.0
0
LINE
8
0
6
CONTINUOUS
10
0.004632
20
0.016416
30
0.0
11
0.001291
21
0.017800
31
0.0
0
LINE
8
0
6
CONTINUOUS
10
-0.005917
20
-0.009103
30
0.0
11
-0.002294
21
-0.009580
31
0.0
0
LINE
8
0
6
CONTINUOUS
10
-0.005879
20
-0.008960
30
0.0
11
-0.002294
21
-0.009432
31
0.0
0
LINE
8
0
6
CONTINUOUS
10
0.011229
20
0.008043
30
0.0
11
0.009830
21
0.011420
31
0.0
0
LINE
8
0
6
CONTINUOUS
10
0.011086
20
0.008005
30
0.0
11
0.009703
21
0.011346
31
0.0
0
LINE
8
0
6
CONTINUOUS
10
0.001330
20
0.017943
30
0.0
11
-0.002294
21
0.018420
31
0.0
0
LINE
8
0
6
CONTINUOUS
10
0.001291
20
0.017800
30
0.0
11
-0.002294
21
0.018272
31
0.0
0
LINE
8
0
6
CONTINUOUS
10
-0.012193
20
0.014319
30
0.0
11
-0.014418
21
0.011420
31
0.0
0
LINE
8
0
6
CONTINUOUS
10
-0.012089
20
0.014215
30
0.0
11
-0.014290
21
0.011346
31
0.0
0
LINE
8
0
6
CONTINUOUS
10
-0.014418
20
-0.002580
30
0.0
11
-0.012193
21
-0.005480
31
0.0
0
LINE
8
0
6
CONTINUOUS
10
-0.012089
20
-0.005375
30
0.0
11
-0.014290
21
-0.002506
31
0.0
0
LINE
8
0
6
CONTINUOUS
10
0.004706
20
-0.007704
30
0.0
11
0.007606
21
-0.005480
31
0.0
0
LINE
8
0
6
CONTINUOUS
10
0.004632
20
-0.007576
30
0.0
11
0.007501
21
-0.005375
31
0.0
0
LINE
8
0
6
CONTINUOUS
10
0.007606
20
-0.005480
30
0.0
11
0.009830
21
-0.002580
31
0.0
0
LINE
8
0
6
CONTINUOUS
10
0.007501
20
-0.005375
30
0.0
11
0.009703
21
-0.002506
31
0.0
0
LINE
8
0
6
CONTINUOUS
10
-0.015817
20
0.000796
30
0.0
11
-0.014418
21
-0.002580
31
0.0
0
LINE
8
0
6
CONTINUOUS
10
-0.015674
20
0.000835
30
0.0
11
-0.014290
21
-0.002506
31
0.0
0
LINE
8
0
6
CONTINUOUS
10
-0.014418
20
0.011420
30
0.0
11
-0.015817
21
0.008043
31
0.0
0
LINE
8
0
6
CONTINUOUS
10
-0.015674
20
0.008005
30
0.0
11
-0.014290
21
0.011346
31
0.0
0
LINE
8
0
6
CONTINUOUS
10
-0.009294
20
0.016544
30
0.0
11
-0.012193
21
0.014319
31
0.0
0
LINE
8
0
6
CONTINUOUS
10
-0.009220
20
0.016416
30
0.0
11
-0.012089
21
0.014215
31
0.0
0
LINE
8
0
6
CONTINUOUS
10
-0.015817
20
0.008043
30
0.0
11
-0.016294
21
0.004420
31
0.0
0
LINE
8
0
6
CONTINUOUS
10
-0.016146
20
0.004420
30
0.0
11
-0.015674
21
0.008005
31
0.0
0
LINE
8
0
6
CONTINUOUS
10
0.007606
20
0.014319
30
0.0
11
0.004706
21
0.016544
31
0.0
0
LINE
8
0
6
CONTINUOUS
10
0.007501
20
0.014215
30
0.0
11
0.004632
21
0.016416
31
0.0
0
LINE
8
0
6
CONTINUOUS
10
0.011706
20
0.004420
30
0.0
11
0.011229
21
0.008043
31
0.0
0
LINE
8
0
6
CONTINUOUS
10
0.011558
20
0.004420
30
0.0
11
0.011086
21
0.008005
31
0.0
0
LINE
8
0
6
CONTINUOUS
10
-0.012193
20
-0.005480
30
0.0
11
-0.009294
21
-0.007704
31
0.0
0
LINE
8
0
6
CONTINUOUS
10
-0.012089
20
-0.005375
30
0.0
11
-0.009220
21
-0.007576
31
0.0
0
LINE
8
0
6
CONTINUOUS
10
-0.005917
20
0.017943
30
0.0
11
-0.009294
21
0.016544
31
0.0
0
LINE
8
0
6
CONTINUOUS
10
-0.005879
20
0.017800
30
0.0
11
-0.009220
21
0.016416
31
0.0
0
LINE
8
0
6
CONTINUOUS
10
-0.002294
20
0.018420
30
0.0
11
-0.005917
21
0.017943
31
0.0
0
LINE
8
0
6
CONTINUOUS
10
-0.005879
20
0.017800
30
0.0
11
-0.002294
21
0.018272
31
0.0
0
LINE
8
0
6
CONTINUOUS
10
0.011229
20
0.000796
30
0.0
11
0.011706
21
0.004420
31
0.0
0
LINE
8
0
6
CONTINUOUS
10
0.011086
20
0.000835
30
0.0
11
0.011558
21
0.004420
31
0.0
0
LINE
8
0
6
CONTINUOUS
10
0.009830
20
-0.002580
30
0.0
11
0.011229
21
0.000796
31
0.0
0
LINE
8
0
6
CONTINUOUS
10
0.011086
20
0.000835
30
0.0
11
0.009703
21
-0.002506
31
0.0
0
LINE
8
0
6
CONTINUOUS
10
0.001199
20
-0.008616
30
0.0
11
0.004454
21
-0.007268
31
0.0
0
LINE
8
0
6
CONTINUOUS
10
0.004377
20
-0.007135
30
0.0
11
0.001159
21
-0.008467
31
0.0
0
LINE
8
0
6
CONTINUOUS
10
-0.002294
20
-0.009076
30
0.0
11
0.001199
21
-0.008616
31
0.0
0
LINE
8
0
6
CONTINUOUS
10
0.001159
20
-0.008467
30
0.0
11
-0.002294
21
-0.008922
31
0.0
0
LINE
8
0
6
CONTINUOUS
10
-0.015790
20
0.004420
30
0.0
11
-0.015330
21
0.000927
31
0.0
0
LINE
8
0
6
CONTINUOUS
10
-0.015181
20
0.000967
30
0.0
11
-0.015636
21
0.004420
31
0.0
0
LINE
8
0
6
CONTINUOUS
10
0.009394
20
0.011168
30
0.0
11
0.007249
21
0.013963
31
0.0
0
LINE
8
0
6
CONTINUOUS
10
0.007140
20
0.013854
30
0.0
11
0.009261
21
0.011091
31
0.0
0
LINE
8
0
6
CONTINUOUS
10
-0.009042
20
-0.007268
30
0.0
11
-0.005787
21
-0.008616
31
0.0
0
LINE
8
0
6
CONTINUOUS
10
-0.005747
20
-0.008467
30
0.0
11
-0.008965
21
-0.007135
31
0.0
0
LINE
8
0
6
CONTINUOUS
10
0.004454
20
0.016108
30
0.0
11
0.001199
21
0.017456
31
0.0
0
LINE
8
0
6
CONTINUOUS
10
0.001159
20
0.017307
30
0.0
11
0.004377
21
0.015974
31
0.0
0
LINE
8
0
6
CONTINUOUS
10
-0.002294
20
-0.008922
30
0.0
11
-0.005747
21
-0.008467
31
0.0
0
LINE
8
0
6
CONTINUOUS
10
0.010742
20
0.007913
30
0.0
11
0.009394
21
0.011168
31
0.0
0
LINE
8
0
6
CONTINUOUS
10
0.009261
20
0.011091
30
0.0
11
0.010593
21
0.007873
31
0.0
0
LINE
8
0
6
CONTINUOUS
10
0.001199
20
0.017456
30
0.0
11
-0.002294
21
0.017916
31
0.0
0
LINE
8
0
6
CONTINUOUS
10
-0.002294
20
0.017762
30
0.0
11
0.001159
21
0.017307
31
0.0
0
LINE
8
0
6
CONTINUOUS
10
-0.013848
20
0.011091
30
0.0
11
-0.011728
21
0.013854
31
0.0
0
LINE
8
0
6
CONTINUOUS
10
-0.013981
20
-0.002328
30
0.0
11
-0.011837
21
-0.005123
31
0.0
0
LINE
8
0
6
CONTINUOUS
10
-0.011728
20
-0.005014
30
0.0
11
-0.013848
21
-0.002251
31
0.0
0
LINE
8
0
6
CONTINUOUS
10
0.004454
20
-0.007268
30
0.0
11
0.007249
21
-0.005123
31
0.0
0
LINE
8
0
6
CONTINUOUS
10
0.007140
20
-0.005014
30
0.0
11
0.004377
21
-0.007135
31
0.0
0
LINE
8
0
6
CONTINUOUS
10
0.007249
20
-0.005123
30
0.0
11
0.009394
21
-0.002328
31
0.0
0
LINE
8
0
6
CONTINUOUS
10
0.009261
20
-0.002251
30
0.0
11
0.007140
21
-0.005014
31
0.0
0
LINE
8
0
6
CONTINUOUS
10
-0.015330
20
0.000927
30
0.0
11
-0.013981
21
-0.002328
31
0.0
0
LINE
8
0
6
CONTINUOUS
10
-0.013848
20
-0.002251
30
0.0
11
-0.015181
21
0.000967
31
0.0
0
LINE
8
0
6
CONTINUOUS
10
-0.013982
20
0.011168
30
0.0
11
-0.015330
21
0.007913
31
0.0
0
LINE
8
0
6
CONTINUOUS
10
-0.015181
20
0.007873
30
0.0
11
-0.013848
21
0.011091
31
0.0
0
LINE
8
0
6
CONTINUOUS
10
-0.011728
20
0.013854
30
0.0
11
-0.008965
21
0.015974
31
0.0
0
LINE
8
0
6
CONTINUOUS
10
-0.015330
20
0.007913
30
0.0
11
-0.015790
21
0.004420
31
0.0
0
LINE
8
0
6
CONTINUOUS
10
-0.015636
20
0.004420
30
0.0
11
-0.015181
21
0.007873
31
0.0
0
LINE
8
0
6
CONTINUOUS
10
0.007249
20
0.013963
30
0.0
11
0.004454
21
0.016108
31
0.0
0
LINE
8
0
6
CONTINUOUS
10
0.004377
20
0.015974
30
0.0
11
0.007140
21
0.013854
31
0.0
0
LINE
8
0
6
CONTINUOUS
10
0.011202
20
0.004420
30
0.0
11
0.010742
21
0.007913
31
0.0
0
LINE
8
0
6
CONTINUOUS
10
0.010593
20
0.007873
30
0.0
11
0.011048
21
0.004420
31
0.0
0
LINE
8
0
6
CONTINUOUS
10
-0.011837
20
-0.005123
30
0.0
11
-0.009042
21
-0.007268
31
0.0
0
LINE
8
0
6
CONTINUOUS
10
-0.008965
20
-0.007135
30
0.0
11
-0.011728
21
-0.005014
31
0.0
0
LINE
8
0
6
CONTINUOUS
10
-0.005787
20
0.017456
30
0.0
11
-0.009042
21
0.016108
31
0.0
0
LINE
8
0
6
CONTINUOUS
10
-0.008965
20
0.015974
30
0.0
11
-0.005747
21
0.017307
31
0.0
0
LINE
8
0
6
CONTINUOUS
10
-0.002294
20
0.017916
30
0.0
11
-0.005787
21
0.017456
31
0.0
0
LINE
8
0
6
CONTINUOUS
10
-0.005747
20
0.017307
30
0.0
11
-0.002294
21
0.017762
31
0.0
0
LINE
8
0
6
CONTINUOUS
10
0.010742
20
0.000927
30
0.0
11
0.011202
21
0.004420
31
0.0
0
LINE
8
0
6
CONTINUOUS
10
0.011048
20
0.004420
30
0.0
11
0.010593
21
0.000967
31
0.0
0
LINE
8
0
6
CONTINUOUS
10
0.009394
20
-0.002328
30
0.0
11
0.010742
21
0.000927
31
0.0
0
LINE
8
0
6
CONTINUOUS
10
0.010593
20
0.000967
30
0.0
11
0.009261
21
-0.002251
31
0.0
0
LINE
8
0
6
CONTINUOUS
10
-0.005390
20
0.015977
30
0.0
11
-0.008276
21
0.014781
31
0.0
0
LINE
8
0
6
CONTINUOUS
10
-0.002294
20
0.016384
30
0.0
11
-0.005390
21
0.015977
31
0.0
0
LINE
8
0
6
CONTINUOUS
10
0.000803
20
0.015977
30
0.0
11
-0.002294
21
0.016384
31
0.0
0
LINE
8
0
6
CONTINUOUS
10
0.003688
20
0.014781
30
0.0
11
0.000803
21
0.015977
31
0.0
0
LINE
8
0
6
CONTINUOUS
10
0.006166
20
0.012880
30
0.0
11
0.003688
21
0.014781
31
0.0
0
LINE
8
0
6
CONTINUOUS
10
0.008067
20
0.010402
30
0.0
11
0.006166
21
0.012880
31
0.0
0
LINE
8
0
6
CONTINUOUS
10
0.009263
20
0.007517
30
0.0
11
0.008067
21
0.010402
31
0.0
0
LINE
8
0
6
CONTINUOUS
10
0.009670
20
0.004420
30
0.0
11
0.009263
21
0.007517
31
0.0
0
LINE
8
0
6
CONTINUOUS
10
0.009263
20
0.001323
30
0.0
11
0.009670
21
0.004420
31
0.0
0
LINE
8
0
6
CONTINUOUS
10
0.008067
20
-0.001562
30
0.0
11
0.009263
21
0.001323
31
0.0
0
LINE
8
0
6
CONTINUOUS
10
0.006166
20
-0.004040
30
0.0
11
0.008067
21
-0.001562
31
0.0
0
LINE
8
0
6
CONTINUOUS
10
0.003688
20
-0.005941
30
0.0
11
0.006166
21
-0.004040
31
0.0
0
LINE
8
0
6
CONTINUOUS
10
0.000803
20
-0.007137
30
0.0
11
0.003688
21
-0.005941
31
0.0
0
LINE
8
0
6
CONTINUOUS
10
-0.002294
20
-0.007544
30
0.0
11
0.000803
21
-0.007137
31
0.0
0
LINE
8
0
6
CONTINUOUS
10
-0.005390
20
-0.007137
30
0.0
11
-0.002294
21
-0.007544
31
0.0
0
LINE
8
0
6
CONTINUOUS
10
-0.008276
20
-0.005941
30
0.0
11
-0.005390
21
-0.007137
31
0.0
0
LINE
8
0
6
CONTINUOUS
10
-0.010754
20
-0.004040
30
0.0
11
-0.008276
21
-0.005941
31
0.0
0
LINE
8
0
6
CONTINUOUS
10
-0.012655
20
-0.001562
30
0.0
11
-0.010754
21
-0.004040
31
0.0
0
LINE
8
0
6
CONTINUOUS
10
-0.013851
20
0.001323
30
0.0
11
-0.012655
21
-0.001562
31
0.0
0
LINE
8
0
6
CONTINUOUS
10
-0.014258
20
0.004420
30
0.0
11
-0.013851
21
0.001323
31
0.0
0
LINE
8
0
6
CONTINUOUS
10
-0.013851
20
0.007517
30
0.0
11
-0.014258
21
0.004420
31
0.0
0
LINE
8
0
6
CONTINUOUS
10
-0.012655
20
0.010402
30
0.0
11
-0.013851
21
0.007517
31
0.0
0
LINE
8
0
6
CONTINUOUS
10
-0.010754
20
0.012880
30
0.0
11
-0.012655
21
0.010402
31
0.0
0
LINE
8
0
6
CONTINUOUS
10
-0.008276
20
0.014781
30
0.0
11
-0.010754
21
0.012880
31
0.0
0
LINE
8
0
6
CONTINUOUS
10
-0.023250
20
-0.025672
30
0.0
11
-0.025269
21
-0.094500
31
0.0
0
LINE
8
0
6
CONTINUOUS
10
0.020681
20
-0.094500
30
0.0
11
0.018662
21
-0.025672
31
0.0
0
LINE
8
0
6
CONTINUOUS
10
0.017254
20
0.022310
30
0.0
11
0.016988
21
0.031889
31
0.0
0
LINE
8
0
6
CONTINUOUS
10
-0.021576
20
0.031889
30
0.0
11
-0.021842
21
0.022310
31
0.0
0
LINE
8
0
6
CONTINUOUS
10
-0.002294
20
-0.012712
30
0.0
11
0.003376
21
-0.011695
31
0.0
0
LINE
8
0
6
CONTINUOUS
10
-0.007553
20
-0.014816
30
0.0
11
-0.002294
21
-0.015588
31
0.0
0
LINE
8
0
6
CONTINUOUS
10
-0.007964
20
-0.011695
30
0.0
11
-0.007553
21
-0.014816
31
0.0
0
LINE
8
0
6
CONTINUOUS
10
-0.002294
20
-0.012712
30
0.0
11
-0.007964
21
-0.011695
31
0.0
0
ENDSEC
0
EOF
