999
Erzeugt mit innoplus bad 
0
SECTION
2
HEADER
9
$ACADVER
1
AC1009
9
$DWGCODEPAGE
3
ISO8859-1
0
ENDSEC
0
SECTION
2
TABLES
0
TABLE
2
LAYER
70
1
0
LAYER
2
0
70
0
62
7
6
CONTINUOUS
0
ENDTAB
0
ENDSEC
0
SECTION
2
ENTITIES
0
LINE
8
0
6
CONTINUOUS
10
0.033266
20
0.112000
30
0.0
11
0.033266
21
0.099635
31
0.0
0
LINE
8
0
6
CONTINUOUS
10
0.066734
20
0.099635
30
0.0
11
0.066734
21
0.112000
31
0.0
0
LINE
8
0
6
CONTINUOUS
10
-0.072500
20
0.112000
30
0.0
11
-0.072500
21
-0.077385
31
0.0
0
LINE
8
0
6
CONTINUOUS
10
-0.063672
20
-0.079385
30
0.0
11
-0.058200
21
-0.079385
31
0.0
0
LINE
8
0
6
CONTINUOUS
10
-0.068312
20
-0.079385
30
0.0
11
-0.063672
21
-0.079385
31
0.0
0
LINE
8
0
6
CONTINUOUS
10
-0.071411
20
-0.079385
30
0.0
11
-0.068312
21
-0.079385
31
0.0
0
LINE
8
0
6
CONTINUOUS
10
-0.072500
20
-0.077385
30
0.0
11
-0.072500
21
-0.079385
31
0.0
0
LINE
8
0
6
CONTINUOUS
10
-0.072500
20
-0.079385
30
0.0
11
-0.071411
21
-0.079385
31
0.0
0
LINE
8
0
6
CONTINUOUS
10
-0.058200
20
-0.079385
30
0.0
11
-0.053570
21
-0.079385
31
0.0
0
LINE
8
0
6
CONTINUOUS
10
-0.064300
20
-0.079385
30
0.0
11
-0.064300
21
-0.120000
31
0.0
0
LINE
8
0
6
CONTINUOUS
10
-0.035700
20
-0.120000
30
0.0
11
-0.035700
21
0.112000
31
0.0
0
LINE
8
0
6
CONTINUOUS
10
-0.055472
20
-0.122000
30
0.0
11
-0.050000
21
-0.122000
31
0.0
0
LINE
8
0
6
CONTINUOUS
10
-0.060112
20
-0.122000
30
0.0
11
-0.055472
21
-0.122000
31
0.0
0
LINE
8
0
6
CONTINUOUS
10
-0.063211
20
-0.122000
30
0.0
11
-0.060112
21
-0.122000
31
0.0
0
LINE
8
0
6
CONTINUOUS
10
-0.064300
20
-0.120000
30
0.0
11
-0.064300
21
-0.122000
31
0.0
0
LINE
8
0
6
CONTINUOUS
10
-0.064300
20
-0.122000
30
0.0
11
-0.063211
21
-0.122000
31
0.0
0
LINE
8
0
6
CONTINUOUS
10
-0.035700
20
-0.122000
30
0.0
11
-0.035700
21
-0.120000
31
0.0
0
LINE
8
0
6
CONTINUOUS
10
-0.036789
20
-0.122000
30
0.0
11
-0.035700
21
-0.122000
31
0.0
0
LINE
8
0
6
CONTINUOUS
10
-0.039888
20
-0.122000
30
0.0
11
-0.036789
21
-0.122000
31
0.0
0
LINE
8
0
6
CONTINUOUS
10
-0.044528
20
-0.122000
30
0.0
11
-0.039888
21
-0.122000
31
0.0
0
LINE
8
0
6
CONTINUOUS
10
-0.050000
20
-0.122000
30
0.0
11
-0.044528
21
-0.122000
31
0.0
0
LINE
8
0
6
CONTINUOUS
10
-0.084000
20
0.121000
30
0.0
11
-0.084000
21
0.117000
31
0.0
0
LINE
8
0
6
CONTINUOUS
10
-0.082969
20
0.121000
30
0.0
11
-0.082969
21
0.117000
31
0.0
0
LINE
8
0
6
CONTINUOUS
10
0.084000
20
0.117000
30
0.0
11
0.084000
21
0.121000
31
0.0
0
LINE
8
0
6
CONTINUOUS
10
0.082968
20
0.121000
30
0.0
11
0.082968
21
0.117000
31
0.0
0
LINE
8
0
6
CONTINUOUS
10
0.079000
20
0.122000
30
0.0
11
-0.079000
21
0.122000
31
0.0
0
LINE
8
0
6
CONTINUOUS
10
-0.083876
20
0.122000
30
0.0
11
-0.084000
21
0.122000
31
0.0
0
LINE
8
0
6
CONTINUOUS
10
-0.084000
20
0.122000
30
0.0
11
-0.084000
21
0.121000
31
0.0
0
LINE
8
0
6
CONTINUOUS
10
-0.082969
20
0.122000
30
0.0
11
-0.083876
21
0.122000
31
0.0
0
LINE
8
0
6
CONTINUOUS
10
-0.081086
20
0.122000
30
0.0
11
-0.082969
21
0.122000
31
0.0
0
LINE
8
0
6
CONTINUOUS
10
-0.082969
20
0.122000
30
0.0
11
-0.082969
21
0.121000
31
0.0
0
LINE
8
0
6
CONTINUOUS
10
-0.079000
20
0.122000
30
0.0
11
-0.081086
21
0.122000
31
0.0
0
LINE
8
0
6
CONTINUOUS
10
0.081086
20
0.122000
30
0.0
11
0.079000
21
0.122000
31
0.0
0
LINE
8
0
6
CONTINUOUS
10
0.082968
20
0.122000
30
0.0
11
0.081086
21
0.122000
31
0.0
0
LINE
8
0
6
CONTINUOUS
10
0.083876
20
0.122000
30
0.0
11
0.082968
21
0.122000
31
0.0
0
LINE
8
0
6
CONTINUOUS
10
0.082968
20
0.122000
30
0.0
11
0.082968
21
0.121000
31
0.0
0
LINE
8
0
6
CONTINUOUS
10
0.084000
20
0.122000
30
0.0
11
0.083876
21
0.122000
31
0.0
0
LINE
8
0
6
CONTINUOUS
10
0.084000
20
0.121000
30
0.0
11
0.084000
21
0.122000
31
0.0
0
LINE
8
0
6
CONTINUOUS
10
-0.084000
20
0.117000
30
0.0
11
-0.084000
21
0.113000
31
0.0
0
LINE
8
0
6
CONTINUOUS
10
-0.082969
20
0.117000
30
0.0
11
-0.082969
21
0.113000
31
0.0
0
LINE
8
0
6
CONTINUOUS
10
0.084000
20
0.113000
30
0.0
11
0.084000
21
0.117000
31
0.0
0
LINE
8
0
6
CONTINUOUS
10
0.082968
20
0.117000
30
0.0
11
0.082968
21
0.113000
31
0.0
0
LINE
8
0
6
CONTINUOUS
10
-0.079000
20
0.112000
30
0.0
11
0.079000
21
0.112000
31
0.0
0
LINE
8
0
6
CONTINUOUS
10
-0.084000
20
0.113000
30
0.0
11
-0.084000
21
0.112000
31
0.0
0
LINE
8
0
6
CONTINUOUS
10
-0.084000
20
0.112000
30
0.0
11
-0.083876
21
0.112000
31
0.0
0
LINE
8
0
6
CONTINUOUS
10
-0.083876
20
0.112000
30
0.0
11
-0.082969
21
0.112000
31
0.0
0
LINE
8
0
6
CONTINUOUS
10
-0.082969
20
0.113000
30
0.0
11
-0.082969
21
0.112000
31
0.0
0
LINE
8
0
6
CONTINUOUS
10
-0.082969
20
0.112000
30
0.0
11
-0.081086
21
0.112000
31
0.0
0
LINE
8
0
6
CONTINUOUS
10
-0.081086
20
0.112000
30
0.0
11
-0.079000
21
0.112000
31
0.0
0
LINE
8
0
6
CONTINUOUS
10
0.079000
20
0.112000
30
0.0
11
0.081086
21
0.112000
31
0.0
0
LINE
8
0
6
CONTINUOUS
10
0.081086
20
0.112000
30
0.0
11
0.082968
21
0.112000
31
0.0
0
LINE
8
0
6
CONTINUOUS
10
0.082968
20
0.113000
30
0.0
11
0.082968
21
0.112000
31
0.0
0
LINE
8
0
6
CONTINUOUS
10
0.082968
20
0.112000
30
0.0
11
0.083876
21
0.112000
31
0.0
0
LINE
8
0
6
CONTINUOUS
10
0.084000
20
0.112000
30
0.0
11
0.084000
21
0.113000
31
0.0
0
LINE
8
0
6
CONTINUOUS
10
0.083876
20
0.112000
30
0.0
11
0.084000
21
0.112000
31
0.0
0
LINE
8
0
6
CONTINUOUS
10
0.068370
20
0.099635
30
0.0
11
0.066541
21
0.099635
31
0.0
0
LINE
8
0
6
CONTINUOUS
10
0.059452
20
0.099635
30
0.0
11
0.054878
21
0.099635
31
0.0
0
LINE
8
0
6
CONTINUOUS
10
0.069056
20
0.099202
30
0.0
11
0.069056
21
0.099635
31
0.0
0
LINE
8
0
6
CONTINUOUS
10
0.069056
20
0.099635
30
0.0
11
0.068370
21
0.099635
31
0.0
0
LINE
8
0
6
CONTINUOUS
10
0.054878
20
0.099635
30
0.0
11
0.050000
21
0.099635
31
0.0
0
LINE
8
0
6
CONTINUOUS
10
0.063492
20
0.099635
30
0.0
11
0.059452
21
0.099635
31
0.0
0
LINE
8
0
6
CONTINUOUS
10
0.066541
20
0.099635
30
0.0
11
0.063492
21
0.099635
31
0.0
0
LINE
8
0
6
CONTINUOUS
10
0.033459
20
0.099635
30
0.0
11
0.031630
21
0.099635
31
0.0
0
LINE
8
0
6
CONTINUOUS
10
0.045122
20
0.099635
30
0.0
11
0.040548
21
0.099635
31
0.0
0
LINE
8
0
6
CONTINUOUS
10
0.030944
20
0.099635
30
0.0
11
0.030944
21
0.099202
31
0.0
0
LINE
8
0
6
CONTINUOUS
10
0.031630
20
0.099635
30
0.0
11
0.030944
21
0.099635
31
0.0
0
LINE
8
0
6
CONTINUOUS
10
0.050000
20
0.099635
30
0.0
11
0.045122
21
0.099635
31
0.0
0
LINE
8
0
6
CONTINUOUS
10
0.040548
20
0.099635
30
0.0
11
0.036508
21
0.099635
31
0.0
0
LINE
8
0
6
CONTINUOUS
10
0.036508
20
0.099635
30
0.0
11
0.033459
21
0.099635
31
0.0
0
LINE
8
0
6
CONTINUOUS
10
0.030944
20
0.099202
30
0.0
11
0.030944
21
0.078864
31
0.0
0
LINE
8
0
6
CONTINUOUS
10
0.053433
20
0.059511
30
0.0
11
0.053397
21
0.049582
31
0.0
0
LINE
8
0
6
CONTINUOUS
10
0.046603
20
0.049582
30
0.0
11
0.046567
21
0.059511
31
0.0
0
LINE
8
0
6
CONTINUOUS
10
0.052618
20
0.048920
30
0.0
11
0.053397
21
0.049461
31
0.0
0
LINE
8
0
6
CONTINUOUS
10
0.053397
20
0.049461
30
0.0
11
0.053881
21
0.050212
31
0.0
0
LINE
8
0
6
CONTINUOUS
10
0.046603
20
0.049461
30
0.0
11
0.047382
21
0.048920
31
0.0
0
LINE
8
0
6
CONTINUOUS
10
0.046119
20
0.050212
30
0.0
11
0.046603
21
0.049461
31
0.0
0
LINE
8
0
6
CONTINUOUS
10
0.053455
20
0.061136
30
0.0
11
0.053999
21
0.061407
31
0.0
0
LINE
8
0
6
CONTINUOUS
10
0.046001
20
0.061407
30
0.0
11
0.046545
21
0.061136
31
0.0
0
LINE
8
0
6
CONTINUOUS
10
0.053999
20
0.061407
30
0.0
11
0.055011
21
0.061889
31
0.0
0
LINE
8
0
6
CONTINUOUS
10
0.044989
20
0.061889
30
0.0
11
0.046001
21
0.061407
31
0.0
0
LINE
8
0
6
CONTINUOUS
10
0.055011
20
0.061889
30
0.0
11
0.056027
21
0.062084
31
0.0
0
LINE
8
0
6
CONTINUOUS
10
0.053433
20
0.059511
30
0.0
11
0.053436
21
0.060278
31
0.0
0
LINE
8
0
6
CONTINUOUS
10
0.066541
20
0.062084
30
0.0
11
0.068370
21
0.062084
31
0.0
0
LINE
8
0
6
CONTINUOUS
10
0.063492
20
0.062084
30
0.0
11
0.066541
21
0.062084
31
0.0
0
LINE
8
0
6
CONTINUOUS
10
0.050000
20
0.062084
30
0.0
11
0.054878
21
0.062084
31
0.0
0
LINE
8
0
6
CONTINUOUS
10
0.054878
20
0.062084
30
0.0
11
0.059452
21
0.062084
31
0.0
0
LINE
8
0
6
CONTINUOUS
10
0.059452
20
0.062084
30
0.0
11
0.063492
21
0.062084
31
0.0
0
LINE
8
0
6
CONTINUOUS
10
0.069056
20
0.062084
30
0.0
11
0.069056
21
0.062951
31
0.0
0
LINE
8
0
6
CONTINUOUS
10
0.068370
20
0.062084
30
0.0
11
0.069056
21
0.062084
31
0.0
0
LINE
8
0
6
CONTINUOUS
10
0.046567
20
0.059511
30
0.0
11
0.046564
21
0.060278
31
0.0
0
LINE
8
0
6
CONTINUOUS
10
0.031630
20
0.062084
30
0.0
11
0.033459
21
0.062084
31
0.0
0
LINE
8
0
6
CONTINUOUS
10
0.033459
20
0.062084
30
0.0
11
0.036508
21
0.062084
31
0.0
0
LINE
8
0
6
CONTINUOUS
10
0.045122
20
0.062084
30
0.0
11
0.050000
21
0.062084
31
0.0
0
LINE
8
0
6
CONTINUOUS
10
0.040548
20
0.062084
30
0.0
11
0.045122
21
0.062084
31
0.0
0
LINE
8
0
6
CONTINUOUS
10
0.036508
20
0.062084
30
0.0
11
0.040548
21
0.062084
31
0.0
0
LINE
8
0
6
CONTINUOUS
10
0.030944
20
0.062951
30
0.0
11
0.030944
21
0.062084
31
0.0
0
LINE
8
0
6
CONTINUOUS
10
0.030944
20
0.062084
30
0.0
11
0.031630
21
0.062084
31
0.0
0
LINE
8
0
6
CONTINUOUS
10
0.054804
20
0.052987
30
0.0
11
0.054804
21
0.053108
31
0.0
0
LINE
8
0
6
CONTINUOUS
10
0.054439
20
0.051078
30
0.0
11
0.054804
21
0.052987
31
0.0
0
LINE
8
0
6
CONTINUOUS
10
0.051838
20
0.048380
30
0.0
11
0.052618
21
0.048920
31
0.0
0
LINE
8
0
6
CONTINUOUS
10
0.051838
20
0.048380
30
0.0
11
0.051838
21
0.048501
31
0.0
0
LINE
8
0
6
CONTINUOUS
10
0.050000
20
0.048000
30
0.0
11
0.051838
21
0.048380
31
0.0
0
LINE
8
0
6
CONTINUOUS
10
0.045196
20
0.052987
30
0.0
11
0.045561
21
0.051078
31
0.0
0
LINE
8
0
6
CONTINUOUS
10
0.045196
20
0.053108
30
0.0
11
0.045196
21
0.052987
31
0.0
0
LINE
8
0
6
CONTINUOUS
10
0.045561
20
0.051078
30
0.0
11
0.046119
21
0.050212
31
0.0
0
LINE
8
0
6
CONTINUOUS
10
0.050000
20
0.048000
30
0.0
11
0.050000
21
0.048122
31
0.0
0
LINE
8
0
6
CONTINUOUS
10
0.048162
20
0.048380
30
0.0
11
0.050000
21
0.048000
31
0.0
0
LINE
8
0
6
CONTINUOUS
10
0.048162
20
0.048380
30
0.0
11
0.048162
21
0.048501
31
0.0
0
LINE
8
0
6
CONTINUOUS
10
0.047382
20
0.048920
30
0.0
11
0.048162
21
0.048380
31
0.0
0
LINE
8
0
6
CONTINUOUS
10
0.050000
20
0.060907
30
0.0
11
0.050000
21
0.061544
31
0.0
0
LINE
8
0
6
CONTINUOUS
10
0.050000
20
0.062084
30
0.0
11
0.053037
21
0.062027
31
0.0
0
LINE
8
0
6
CONTINUOUS
10
0.051839
20
0.058913
30
0.0
11
0.051839
21
0.059718
31
0.0
0
LINE
8
0
6
CONTINUOUS
10
0.050000
20
0.058703
30
0.0
11
0.050000
21
0.048122
31
0.0
0
LINE
8
0
6
CONTINUOUS
10
0.069056
20
0.062951
30
0.0
11
0.069056
21
0.064920
31
0.0
0
LINE
8
0
6
CONTINUOUS
10
0.046862
20
0.062032
30
0.0
11
0.050000
21
0.062084
31
0.0
0
LINE
8
0
6
CONTINUOUS
10
0.069056
20
0.073425
30
0.0
11
0.069056
21
0.076261
31
0.0
0
LINE
8
0
6
CONTINUOUS
10
0.069056
20
0.076261
30
0.0
11
0.069056
21
0.078864
31
0.0
0
LINE
8
0
6
CONTINUOUS
10
0.069056
20
0.070590
30
0.0
11
0.069056
21
0.073425
31
0.0
0
LINE
8
0
6
CONTINUOUS
10
0.051839
20
0.058913
30
0.0
11
0.051838
21
0.048501
31
0.0
0
LINE
8
0
6
CONTINUOUS
10
0.069056
20
0.067755
30
0.0
11
0.069056
21
0.070590
31
0.0
0
LINE
8
0
6
CONTINUOUS
10
0.069056
20
0.064920
30
0.0
11
0.069056
21
0.067755
31
0.0
0
LINE
8
0
6
CONTINUOUS
10
0.043973
20
0.062084
30
0.0
11
0.045378
21
0.061812
31
0.0
0
LINE
8
0
6
CONTINUOUS
10
0.054804
20
0.053108
30
0.0
11
0.054804
21
0.061790
31
0.0
0
LINE
8
0
6
CONTINUOUS
10
0.048162
20
0.048501
30
0.0
11
0.048161
21
0.058913
31
0.0
0
LINE
8
0
6
CONTINUOUS
10
0.050000
20
0.058703
30
0.0
11
0.050000
21
0.059521
31
0.0
0
LINE
8
0
6
CONTINUOUS
10
0.050000
20
0.059521
30
0.0
11
0.050000
21
0.060277
31
0.0
0
LINE
8
0
6
CONTINUOUS
10
0.030944
20
0.064920
30
0.0
11
0.030944
21
0.062951
31
0.0
0
LINE
8
0
6
CONTINUOUS
10
0.030944
20
0.076261
30
0.0
11
0.030944
21
0.073425
31
0.0
0
LINE
8
0
6
CONTINUOUS
10
0.030944
20
0.078864
30
0.0
11
0.030944
21
0.076261
31
0.0
0
LINE
8
0
6
CONTINUOUS
10
0.030944
20
0.073425
30
0.0
11
0.030944
21
0.070590
31
0.0
0
LINE
8
0
6
CONTINUOUS
10
0.050000
20
0.060277
30
0.0
11
0.050000
21
0.060907
31
0.0
0
LINE
8
0
6
CONTINUOUS
10
0.048161
20
0.058913
30
0.0
11
0.048161
21
0.059718
31
0.0
0
LINE
8
0
6
CONTINUOUS
10
0.030944
20
0.070590
30
0.0
11
0.030944
21
0.067755
31
0.0
0
LINE
8
0
6
CONTINUOUS
10
0.030944
20
0.067755
30
0.0
11
0.030944
21
0.064920
31
0.0
0
LINE
8
0
6
CONTINUOUS
10
0.050000
20
0.062084
30
0.0
11
0.050000
21
0.061544
31
0.0
0
LINE
8
0
6
CONTINUOUS
10
0.045196
20
0.061790
30
0.0
11
0.045196
21
0.053108
31
0.0
0
LINE
8
0
6
CONTINUOUS
10
0.053881
20
0.050212
30
0.0
11
0.054439
21
0.051078
31
0.0
0
LINE
8
0
6
CONTINUOUS
10
0.051928
20
0.060944
30
0.0
11
0.051839
21
0.059718
31
0.0
0
LINE
8
0
6
CONTINUOUS
10
0.069056
20
0.078864
30
0.0
11
0.069056
21
0.099202
31
0.0
0
LINE
8
0
6
CONTINUOUS
10
0.048161
20
0.059718
30
0.0
11
0.047900
21
0.060962
31
0.0
0
ENDSEC
0
EOF
