999
Erzeugt mit innoplus bad 
0
SECTION
2
HEADER
9
$ACADVER
1
AC1009
9
$DWGCODEPAGE
3
ISO8859-1
0
ENDSEC
0
SECTION
2
TABLES
0
TABLE
2
LAYER
70
1
0
LAYER
2
0
70
0
62
7
6
CONTINUOUS
0
ENDTAB
0
ENDSEC
0
SECTION
2
ENTITIES
0
LINE
8
0
6
CONTINUOUS
10
0.111807
20
-0.005500
30
0.0
11
0.112000
21
-0.005500
31
0.0
0
LINE
8
0
6
CONTINUOUS
10
0.111807
20
-0.004399
30
0.0
11
0.111807
21
-0.005500
31
0.0
0
LINE
8
0
6
CONTINUOUS
10
0.111807
20
-0.001203
30
0.0
11
0.111807
21
-0.004399
31
0.0
0
LINE
8
0
6
CONTINUOUS
10
0.111807
20
0.000266
30
0.0
11
0.111807
21
-0.001203
31
0.0
0
LINE
8
0
6
CONTINUOUS
10
0.111807
20
0.035203
30
0.0
11
0.111807
21
0.033734
31
0.0
0
LINE
8
0
6
CONTINUOUS
10
0.111807
20
0.038399
30
0.0
11
0.111807
21
0.035203
31
0.0
0
LINE
8
0
6
CONTINUOUS
10
0.112038
20
0.039500
30
0.0
11
0.111807
21
0.039500
31
0.0
0
LINE
8
0
6
CONTINUOUS
10
0.111807
20
0.039500
30
0.0
11
0.111807
21
0.038399
31
0.0
0
LINE
8
0
6
CONTINUOUS
10
-0.120000
20
0.002700
30
0.0
11
-0.116550
21
0.002700
31
0.0
0
LINE
8
0
6
CONTINUOUS
10
-0.089450
20
0.002700
30
0.0
11
0.060824
21
0.002700
31
0.0
0
LINE
8
0
6
CONTINUOUS
10
0.062084
20
0.031300
30
0.0
11
-0.120000
21
0.031300
31
0.0
0
LINE
8
0
6
CONTINUOUS
10
-0.122000
20
0.002700
30
0.0
11
-0.120000
21
0.002700
31
0.0
0
LINE
8
0
6
CONTINUOUS
10
-0.122000
20
0.003789
30
0.0
11
-0.122000
21
0.002700
31
0.0
0
LINE
8
0
6
CONTINUOUS
10
-0.122000
20
0.006888
30
0.0
11
-0.122000
21
0.003789
31
0.0
0
LINE
8
0
6
CONTINUOUS
10
-0.122000
20
0.011528
30
0.0
11
-0.122000
21
0.006888
31
0.0
0
LINE
8
0
6
CONTINUOUS
10
-0.122000
20
0.017000
30
0.0
11
-0.122000
21
0.011528
31
0.0
0
LINE
8
0
6
CONTINUOUS
10
-0.122000
20
0.022472
30
0.0
11
-0.122000
21
0.017000
31
0.0
0
LINE
8
0
6
CONTINUOUS
10
-0.122000
20
0.027112
30
0.0
11
-0.122000
21
0.022472
31
0.0
0
LINE
8
0
6
CONTINUOUS
10
-0.122000
20
0.030211
30
0.0
11
-0.122000
21
0.027112
31
0.0
0
LINE
8
0
6
CONTINUOUS
10
-0.120000
20
0.031300
30
0.0
11
-0.122000
21
0.031300
31
0.0
0
LINE
8
0
6
CONTINUOUS
10
-0.122000
20
0.031300
30
0.0
11
-0.122000
21
0.030211
31
0.0
0
LINE
8
0
6
CONTINUOUS
10
-0.116550
20
0.002700
30
0.0
11
-0.116550
21
-0.005053
31
0.0
0
LINE
8
0
6
CONTINUOUS
10
-0.089450
20
-0.005053
30
0.0
11
-0.089450
21
0.002700
31
0.0
0
LINE
8
0
6
CONTINUOUS
10
-0.116550
20
-0.005711
30
0.0
11
-0.114734
21
-0.005711
31
0.0
0
LINE
8
0
6
CONTINUOUS
10
-0.116550
20
-0.005053
30
0.0
11
-0.116550
21
-0.005711
31
0.0
0
LINE
8
0
6
CONTINUOUS
10
-0.114734
20
-0.005711
30
0.0
11
-0.109775
21
-0.005711
31
0.0
0
LINE
8
0
6
CONTINUOUS
10
-0.109775
20
-0.005711
30
0.0
11
-0.103000
21
-0.005711
31
0.0
0
LINE
8
0
6
CONTINUOUS
10
-0.103000
20
-0.005711
30
0.0
11
-0.096225
21
-0.005711
31
0.0
0
LINE
8
0
6
CONTINUOUS
10
-0.096225
20
-0.005711
30
0.0
11
-0.091266
21
-0.005711
31
0.0
0
LINE
8
0
6
CONTINUOUS
10
-0.089450
20
-0.005711
30
0.0
11
-0.089450
21
-0.005053
31
0.0
0
LINE
8
0
6
CONTINUOUS
10
-0.091266
20
-0.005711
30
0.0
11
-0.089450
21
-0.005711
31
0.0
0
LINE
8
0
6
CONTINUOUS
10
0.112000
20
0.046000
30
0.0
11
0.112000
21
-0.012000
31
0.0
0
LINE
8
0
6
CONTINUOUS
10
0.122000
20
-0.012000
30
0.0
11
0.122000
21
0.046000
31
0.0
0
LINE
8
0
6
CONTINUOUS
10
0.112000
20
-0.017000
30
0.0
11
0.113000
21
-0.017000
31
0.0
0
LINE
8
0
6
CONTINUOUS
10
0.112000
20
-0.016876
30
0.0
11
0.112000
21
-0.017000
31
0.0
0
LINE
8
0
6
CONTINUOUS
10
0.121000
20
-0.017000
30
0.0
11
0.122000
21
-0.017000
31
0.0
0
LINE
8
0
6
CONTINUOUS
10
0.122000
20
-0.017000
30
0.0
11
0.122000
21
-0.016876
31
0.0
0
LINE
8
0
6
CONTINUOUS
10
0.112000
20
-0.015968
30
0.0
11
0.112000
21
-0.016876
31
0.0
0
LINE
8
0
6
CONTINUOUS
10
0.122000
20
-0.016876
30
0.0
11
0.122000
21
-0.015969
31
0.0
0
LINE
8
0
6
CONTINUOUS
10
0.112000
20
-0.015968
30
0.0
11
0.113000
21
-0.015968
31
0.0
0
LINE
8
0
6
CONTINUOUS
10
0.112000
20
-0.014086
30
0.0
11
0.112000
21
-0.015968
31
0.0
0
LINE
8
0
6
CONTINUOUS
10
0.121000
20
-0.015969
30
0.0
11
0.122000
21
-0.015969
31
0.0
0
LINE
8
0
6
CONTINUOUS
10
0.122000
20
-0.015969
30
0.0
11
0.122000
21
-0.014086
31
0.0
0
LINE
8
0
6
CONTINUOUS
10
0.112000
20
-0.012000
30
0.0
11
0.112000
21
-0.014086
31
0.0
0
LINE
8
0
6
CONTINUOUS
10
0.122000
20
-0.014086
30
0.0
11
0.122000
21
-0.012000
31
0.0
0
LINE
8
0
6
CONTINUOUS
10
0.122000
20
0.051000
30
0.0
11
0.121000
21
0.051000
31
0.0
0
LINE
8
0
6
CONTINUOUS
10
0.122000
20
0.050876
30
0.0
11
0.122000
21
0.051000
31
0.0
0
LINE
8
0
6
CONTINUOUS
10
0.113000
20
0.051000
30
0.0
11
0.112000
21
0.051000
31
0.0
0
LINE
8
0
6
CONTINUOUS
10
0.112000
20
0.051000
30
0.0
11
0.112000
21
0.050876
31
0.0
0
LINE
8
0
6
CONTINUOUS
10
0.122000
20
0.049968
30
0.0
11
0.122000
21
0.050876
31
0.0
0
LINE
8
0
6
CONTINUOUS
10
0.112000
20
0.050876
30
0.0
11
0.112000
21
0.049969
31
0.0
0
LINE
8
0
6
CONTINUOUS
10
0.122000
20
0.049968
30
0.0
11
0.121000
21
0.049968
31
0.0
0
LINE
8
0
6
CONTINUOUS
10
0.122000
20
0.048086
30
0.0
11
0.122000
21
0.049968
31
0.0
0
LINE
8
0
6
CONTINUOUS
10
0.113000
20
0.049969
30
0.0
11
0.112000
21
0.049969
31
0.0
0
LINE
8
0
6
CONTINUOUS
10
0.112000
20
0.049969
30
0.0
11
0.112000
21
0.048086
31
0.0
0
LINE
8
0
6
CONTINUOUS
10
0.122000
20
0.046000
30
0.0
11
0.122000
21
0.048086
31
0.0
0
LINE
8
0
6
CONTINUOUS
10
0.112000
20
0.048086
30
0.0
11
0.112000
21
0.046000
31
0.0
0
LINE
8
0
6
CONTINUOUS
10
0.121000
20
0.051000
30
0.0
11
0.113000
21
0.051000
31
0.0
0
LINE
8
0
6
CONTINUOUS
10
0.121000
20
-0.015969
30
0.0
11
0.113000
21
-0.015968
31
0.0
0
LINE
8
0
6
CONTINUOUS
10
0.113000
20
-0.017000
30
0.0
11
0.121000
21
-0.017000
31
0.0
0
LINE
8
0
6
CONTINUOUS
10
0.113000
20
0.049969
30
0.0
11
0.121000
21
0.049968
31
0.0
0
LINE
8
0
6
CONTINUOUS
10
0.099635
20
0.000266
30
0.0
11
0.112000
21
0.000266
31
0.0
0
LINE
8
0
6
CONTINUOUS
10
0.112000
20
0.033734
30
0.0
11
0.099635
21
0.033734
31
0.0
0
LINE
8
0
6
CONTINUOUS
10
0.050212
20
-0.049035
30
0.0
11
0.051078
21
-0.049254
31
0.0
0
LINE
8
0
6
CONTINUOUS
10
0.062084
20
0.012680
30
0.0
11
0.061544
21
0.007537
31
0.0
0
LINE
8
0
6
CONTINUOUS
10
0.060907
20
0.003197
30
0.0
11
0.060277
21
-0.000578
31
0.0
0
LINE
8
0
6
CONTINUOUS
10
0.099202
20
0.036275
30
0.0
11
0.078864
21
0.036275
31
0.0
0
LINE
8
0
6
CONTINUOUS
10
0.073588
20
-0.003114
30
0.0
11
0.075361
21
-0.002256
31
0.0
0
LINE
8
0
6
CONTINUOUS
10
0.058095
20
-0.050584
30
0.0
11
0.068182
21
-0.011641
31
0.0
0
LINE
8
0
6
CONTINUOUS
10
0.067755
20
0.036275
30
0.0
11
0.064920
21
0.036275
31
0.0
0
LINE
8
0
6
CONTINUOUS
10
0.070590
20
0.036275
30
0.0
11
0.067755
21
0.036275
31
0.0
0
LINE
8
0
6
CONTINUOUS
10
0.064920
20
0.036275
30
0.0
11
0.062951
21
0.036275
31
0.0
0
LINE
8
0
6
CONTINUOUS
10
0.070211
20
-0.006180
30
0.0
11
0.071632
21
-0.004216
31
0.0
0
LINE
8
0
6
CONTINUOUS
10
0.073425
20
0.036275
30
0.0
11
0.070590
21
0.036275
31
0.0
0
LINE
8
0
6
CONTINUOUS
10
0.078864
20
0.036275
30
0.0
11
0.076261
21
0.036275
31
0.0
0
LINE
8
0
6
CONTINUOUS
10
0.078864
20
-0.001838
30
0.0
11
0.099202
21
-0.001838
31
0.0
0
LINE
8
0
6
CONTINUOUS
10
0.076261
20
0.036275
30
0.0
11
0.073425
21
0.036275
31
0.0
0
LINE
8
0
6
CONTINUOUS
10
0.068962
20
-0.008631
30
0.0
11
0.070211
21
-0.006180
31
0.0
0
LINE
8
0
6
CONTINUOUS
10
0.060277
20
-0.000578
30
0.0
11
0.059521
21
-0.004288
31
0.0
0
LINE
8
0
6
CONTINUOUS
10
0.058703
20
-0.007429
30
0.0
11
0.048122
21
-0.048059
31
0.0
0
LINE
8
0
6
CONTINUOUS
10
0.059521
20
-0.004288
30
0.0
11
0.058703
21
-0.007429
31
0.0
0
LINE
8
0
6
CONTINUOUS
10
0.068182
20
-0.011641
30
0.0
11
0.068962
21
-0.008631
31
0.0
0
LINE
8
0
6
CONTINUOUS
10
0.075361
20
-0.002256
30
0.0
11
0.076694
21
-0.001838
31
0.0
0
LINE
8
0
6
CONTINUOUS
10
0.062084
20
0.015536
30
0.0
11
0.062027
21
0.005962
31
0.0
0
LINE
8
0
6
CONTINUOUS
10
0.076694
20
-0.001838
30
0.0
11
0.078864
21
-0.001838
31
0.0
0
LINE
8
0
6
CONTINUOUS
10
0.061544
20
0.007537
30
0.0
11
0.060907
21
0.003197
31
0.0
0
LINE
8
0
6
CONTINUOUS
10
0.071632
20
-0.004216
30
0.0
11
0.073588
21
-0.003114
31
0.0
0
LINE
8
0
6
CONTINUOUS
10
0.048122
20
-0.048059
30
0.0
11
0.048000
21
-0.048475
31
0.0
0
LINE
8
0
6
CONTINUOUS
10
0.048000
20
-0.048475
30
0.0
11
0.048380
21
-0.048571
31
0.0
0
LINE
8
0
6
CONTINUOUS
10
0.048380
20
-0.048571
30
0.0
11
0.048920
21
-0.048708
31
0.0
0
LINE
8
0
6
CONTINUOUS
10
0.051078
20
-0.049254
30
0.0
11
0.052987
21
-0.049738
31
0.0
0
LINE
8
0
6
CONTINUOUS
10
0.052987
20
-0.049738
30
0.0
11
0.054895
21
-0.050221
31
0.0
0
LINE
8
0
6
CONTINUOUS
10
0.054895
20
-0.050221
30
0.0
11
0.056512
21
-0.050630
31
0.0
0
LINE
8
0
6
CONTINUOUS
10
0.056512
20
-0.050630
30
0.0
11
0.057593
21
-0.050904
31
0.0
0
LINE
8
0
6
CONTINUOUS
10
0.057973
20
-0.051000
30
0.0
11
0.058095
21
-0.050584
31
0.0
0
LINE
8
0
6
CONTINUOUS
10
0.057593
20
-0.050904
30
0.0
11
0.057973
21
-0.051000
31
0.0
0
LINE
8
0
6
CONTINUOUS
10
0.062084
20
0.022097
30
0.0
11
0.062084
21
0.017218
31
0.0
0
LINE
8
0
6
CONTINUOUS
10
0.062084
20
0.017218
30
0.0
11
0.062084
21
0.012340
31
0.0
0
LINE
8
0
6
CONTINUOUS
10
0.062084
20
0.033759
30
0.0
11
0.062084
21
0.030710
31
0.0
0
LINE
8
0
6
CONTINUOUS
10
0.062084
20
0.035589
30
0.0
11
0.062084
21
0.033759
31
0.0
0
LINE
8
0
6
CONTINUOUS
10
0.062084
20
0.036275
30
0.0
11
0.062084
21
0.035589
31
0.0
0
LINE
8
0
6
CONTINUOUS
10
0.062951
20
0.036275
30
0.0
11
0.062084
21
0.036275
31
0.0
0
LINE
8
0
6
CONTINUOUS
10
0.062084
20
0.030710
30
0.0
11
0.062084
21
0.026670
31
0.0
0
LINE
8
0
6
CONTINUOUS
10
0.062084
20
0.007766
30
0.0
11
0.062084
21
0.003727
31
0.0
0
LINE
8
0
6
CONTINUOUS
10
0.062084
20
0.012340
30
0.0
11
0.062084
21
0.007766
31
0.0
0
LINE
8
0
6
CONTINUOUS
10
0.062084
20
0.003727
30
0.0
11
0.062084
21
0.000678
31
0.0
0
LINE
8
0
6
CONTINUOUS
10
0.062084
20
0.026670
30
0.0
11
0.062084
21
0.022097
31
0.0
0
LINE
8
0
6
CONTINUOUS
10
0.062084
20
-0.000584
30
0.0
11
0.062084
21
-0.001188
31
0.0
0
LINE
8
0
6
CONTINUOUS
10
0.062084
20
0.000678
30
0.0
11
0.062084
21
-0.000584
31
0.0
0
LINE
8
0
6
CONTINUOUS
10
0.061889
20
-0.002136
30
0.0
11
0.061407
21
-0.003421
31
0.0
0
LINE
8
0
6
CONTINUOUS
10
0.062084
20
-0.001188
30
0.0
11
0.061889
21
-0.002136
31
0.0
0
LINE
8
0
6
CONTINUOUS
10
0.061136
20
-0.004462
30
0.0
11
0.061407
21
-0.003421
31
0.0
0
LINE
8
0
6
CONTINUOUS
10
0.049461
20
-0.048845
30
0.0
11
0.050212
21
-0.049035
31
0.0
0
LINE
8
0
6
CONTINUOUS
10
0.048920
20
-0.048708
30
0.0
11
0.049461
21
-0.048845
31
0.0
0
LINE
8
0
6
CONTINUOUS
10
0.099635
20
0.026642
30
0.0
11
0.099635
21
0.030692
31
0.0
0
LINE
8
0
6
CONTINUOUS
10
0.099635
20
0.003727
30
0.0
11
0.099635
21
0.007766
31
0.0
0
LINE
8
0
6
CONTINUOUS
10
0.099635
20
0.030692
30
0.0
11
0.099635
21
0.033703
31
0.0
0
LINE
8
0
6
CONTINUOUS
10
0.099635
20
0.007766
30
0.0
11
0.099635
21
0.012340
31
0.0
0
LINE
8
0
6
CONTINUOUS
10
0.099635
20
0.036275
30
0.0
11
0.099202
21
0.036275
31
0.0
0
LINE
8
0
6
CONTINUOUS
10
0.099635
20
0.035572
30
0.0
11
0.099635
21
0.036275
31
0.0
0
LINE
8
0
6
CONTINUOUS
10
0.099635
20
0.012340
30
0.0
11
0.099635
21
0.017218
31
0.0
0
LINE
8
0
6
CONTINUOUS
10
0.099635
20
0.017218
30
0.0
11
0.099635
21
0.022073
31
0.0
0
LINE
8
0
6
CONTINUOUS
10
0.099635
20
0.033703
30
0.0
11
0.099635
21
0.035572
31
0.0
0
LINE
8
0
6
CONTINUOUS
10
0.099635
20
0.000678
30
0.0
11
0.099635
21
0.003727
31
0.0
0
LINE
8
0
6
CONTINUOUS
10
0.099635
20
-0.001152
30
0.0
11
0.099635
21
0.000678
31
0.0
0
LINE
8
0
6
CONTINUOUS
10
0.099635
20
-0.001838
30
0.0
11
0.099635
21
-0.001152
31
0.0
0
LINE
8
0
6
CONTINUOUS
10
0.099202
20
-0.001838
30
0.0
11
0.099635
21
-0.001838
31
0.0
0
LINE
8
0
6
CONTINUOUS
10
0.099635
20
0.022073
30
0.0
11
0.099635
21
0.026642
31
0.0
0
LINE
8
0
6
CONTINUOUS
10
-0.101737
20
0.011528
30
0.0
11
-0.103000
21
0.013228
31
0.0
0
LINE
8
0
6
CONTINUOUS
10
-0.104263
20
0.011528
30
0.0
11
-0.103000
21
0.013228
31
0.0
0
LINE
8
0
6
CONTINUOUS
10
-0.089450
20
0.002700
30
0.0
11
-0.090917
21
0.003789
31
0.0
0
LINE
8
0
6
CONTINUOUS
10
-0.090917
20
0.003789
30
0.0
11
-0.091266
21
0.004659
31
0.0
0
LINE
8
0
6
CONTINUOUS
10
-0.094602
20
0.006888
30
0.0
11
-0.091266
21
0.004659
31
0.0
0
LINE
8
0
6
CONTINUOUS
10
-0.094602
20
0.006888
30
0.0
11
-0.096225
21
0.009317
31
0.0
0
LINE
8
0
6
CONTINUOUS
10
-0.116550
20
0.002700
30
0.0
11
-0.115083
21
0.003789
31
0.0
0
LINE
8
0
6
CONTINUOUS
10
-0.114734
20
0.004659
30
0.0
11
-0.111398
21
0.006888
31
0.0
0
LINE
8
0
6
CONTINUOUS
10
-0.115083
20
0.003789
30
0.0
11
-0.114734
21
0.004659
31
0.0
0
LINE
8
0
6
CONTINUOUS
10
-0.111398
20
0.006888
30
0.0
11
-0.109775
21
0.009317
31
0.0
0
LINE
8
0
6
CONTINUOUS
10
-0.101737
20
0.011528
30
0.0
11
-0.096225
21
0.009317
31
0.0
0
LINE
8
0
6
CONTINUOUS
10
-0.109775
20
0.009317
30
0.0
11
-0.104263
21
0.011528
31
0.0
0
ENDSEC
0
EOF
