999
Erzeugt mit innoplus bad 
0
SECTION
2
HEADER
9
$ACADVER
1
AC1009
9
$DWGCODEPAGE
3
ISO8859-1
0
ENDSEC
0
SECTION
2
TABLES
0
TABLE
2
LAYER
70
1
0
LAYER
2
0
70
0
62
7
6
CONTINUOUS
0
ENDTAB
0
ENDSEC
0
SECTION
2
ENTITIES
0
LINE
8
0
6
CONTINUOUS
10
-0.054602
20
0.031164
30
0.0
11
-0.050000
21
0.031892
31
0.0
0
LINE
8
0
6
CONTINUOUS
10
-0.058754
20
0.029048
30
0.0
11
-0.054602
21
0.031164
31
0.0
0
LINE
8
0
6
CONTINUOUS
10
-0.062048
20
0.025754
30
0.0
11
-0.058754
21
0.029048
31
0.0
0
LINE
8
0
6
CONTINUOUS
10
-0.064164
20
0.021602
30
0.0
11
-0.062048
21
0.025754
31
0.0
0
LINE
8
0
6
CONTINUOUS
10
-0.064892
20
0.017000
30
0.0
11
-0.064164
21
0.021602
31
0.0
0
LINE
8
0
6
CONTINUOUS
10
-0.064164
20
0.012398
30
0.0
11
-0.064892
21
0.017000
31
0.0
0
LINE
8
0
6
CONTINUOUS
10
-0.063550
20
0.011193
30
0.0
11
-0.064164
21
0.012398
31
0.0
0
LINE
8
0
6
CONTINUOUS
10
-0.035836
20
0.012398
30
0.0
11
-0.036450
21
0.011193
31
0.0
0
LINE
8
0
6
CONTINUOUS
10
-0.035108
20
0.017000
30
0.0
11
-0.035836
21
0.012398
31
0.0
0
LINE
8
0
6
CONTINUOUS
10
-0.035836
20
0.021602
30
0.0
11
-0.035108
21
0.017000
31
0.0
0
LINE
8
0
6
CONTINUOUS
10
-0.037952
20
0.025754
30
0.0
11
-0.035836
21
0.021602
31
0.0
0
LINE
8
0
6
CONTINUOUS
10
-0.041246
20
0.029048
30
0.0
11
-0.037952
21
0.025754
31
0.0
0
LINE
8
0
6
CONTINUOUS
10
-0.045398
20
0.031164
30
0.0
11
-0.041246
21
0.029048
31
0.0
0
LINE
8
0
6
CONTINUOUS
10
-0.050000
20
0.031892
30
0.0
11
-0.045398
21
0.031164
31
0.0
0
LINE
8
0
6
CONTINUOUS
10
-0.050000
20
0.039500
30
0.0
11
-0.056953
21
0.038399
31
0.0
0
LINE
8
0
6
CONTINUOUS
10
-0.056953
20
0.038399
30
0.0
11
-0.063225
21
0.035203
31
0.0
0
LINE
8
0
6
CONTINUOUS
10
-0.063225
20
0.035203
30
0.0
11
-0.068203
21
0.030225
31
0.0
0
LINE
8
0
6
CONTINUOUS
10
-0.068203
20
0.030225
30
0.0
11
-0.071399
21
0.023953
31
0.0
0
LINE
8
0
6
CONTINUOUS
10
-0.071399
20
0.023953
30
0.0
11
-0.072500
21
0.017000
31
0.0
0
LINE
8
0
6
CONTINUOUS
10
-0.072500
20
0.017000
30
0.0
11
-0.071399
21
0.010047
31
0.0
0
LINE
8
0
6
CONTINUOUS
10
-0.071399
20
0.010047
30
0.0
11
-0.068203
21
0.003775
31
0.0
0
LINE
8
0
6
CONTINUOUS
10
-0.068203
20
0.003775
30
0.0
11
-0.063550
21
-0.000878
31
0.0
0
LINE
8
0
6
CONTINUOUS
10
-0.036450
20
-0.000878
30
0.0
11
-0.031797
21
0.003775
31
0.0
0
LINE
8
0
6
CONTINUOUS
10
-0.031797
20
0.003775
30
0.0
11
-0.028601
21
0.010047
31
0.0
0
LINE
8
0
6
CONTINUOUS
10
-0.028601
20
0.010047
30
0.0
11
-0.027500
21
0.017000
31
0.0
0
LINE
8
0
6
CONTINUOUS
10
-0.027500
20
0.017000
30
0.0
11
-0.028601
21
0.023953
31
0.0
0
LINE
8
0
6
CONTINUOUS
10
-0.028601
20
0.023953
30
0.0
11
-0.031797
21
0.030225
31
0.0
0
LINE
8
0
6
CONTINUOUS
10
-0.036775
20
0.035203
30
0.0
11
-0.031797
21
0.030225
31
0.0
0
LINE
8
0
6
CONTINUOUS
10
-0.043047
20
0.038399
30
0.0
11
-0.036775
21
0.035203
31
0.0
0
LINE
8
0
6
CONTINUOUS
10
-0.043047
20
0.038399
30
0.0
11
-0.050000
21
0.039500
31
0.0
0
LINE
8
0
6
CONTINUOUS
10
-0.050000
20
0.031300
30
0.0
11
-0.055472
21
0.030211
31
0.0
0
LINE
8
0
6
CONTINUOUS
10
-0.055472
20
0.030211
30
0.0
11
-0.060112
21
0.027112
31
0.0
0
LINE
8
0
6
CONTINUOUS
10
-0.060112
20
0.027112
30
0.0
11
-0.063211
21
0.022472
31
0.0
0
LINE
8
0
6
CONTINUOUS
10
-0.063211
20
0.022472
30
0.0
11
-0.064300
21
0.017000
31
0.0
0
LINE
8
0
6
CONTINUOUS
10
-0.064300
20
0.017000
30
0.0
11
-0.063211
21
0.011528
31
0.0
0
LINE
8
0
6
CONTINUOUS
10
-0.063211
20
0.011528
30
0.0
11
-0.060112
21
0.006888
31
0.0
0
LINE
8
0
6
CONTINUOUS
10
-0.060112
20
0.006888
30
0.0
11
-0.055472
21
0.003789
31
0.0
0
LINE
8
0
6
CONTINUOUS
10
-0.055472
20
0.003789
30
0.0
11
-0.050000
21
0.002700
31
0.0
0
LINE
8
0
6
CONTINUOUS
10
-0.050000
20
0.002700
30
0.0
11
-0.044528
21
0.003789
31
0.0
0
LINE
8
0
6
CONTINUOUS
10
-0.044528
20
0.003789
30
0.0
11
-0.039888
21
0.006888
31
0.0
0
LINE
8
0
6
CONTINUOUS
10
-0.039888
20
0.006888
30
0.0
11
-0.036789
21
0.011528
31
0.0
0
LINE
8
0
6
CONTINUOUS
10
-0.036789
20
0.011528
30
0.0
11
-0.035700
21
0.017000
31
0.0
0
LINE
8
0
6
CONTINUOUS
10
-0.035700
20
0.017000
30
0.0
11
-0.036789
21
0.022472
31
0.0
0
LINE
8
0
6
CONTINUOUS
10
-0.036789
20
0.022472
30
0.0
11
-0.039888
21
0.027112
31
0.0
0
LINE
8
0
6
CONTINUOUS
10
-0.039888
20
0.027112
30
0.0
11
-0.044528
21
0.030211
31
0.0
0
LINE
8
0
6
CONTINUOUS
10
-0.044528
20
0.030211
30
0.0
11
-0.050000
21
0.031300
31
0.0
0
LINE
8
0
6
CONTINUOUS
10
-0.036450
20
-0.005053
30
0.0
11
-0.036450
21
0.013228
31
0.0
0
LINE
8
0
6
CONTINUOUS
10
-0.063550
20
0.013228
30
0.0
11
-0.063550
21
-0.005053
31
0.0
0
LINE
8
0
6
CONTINUOUS
10
-0.063550
20
-0.005711
30
0.0
11
-0.061734
21
-0.005711
31
0.0
0
LINE
8
0
6
CONTINUOUS
10
-0.063550
20
-0.005053
30
0.0
11
-0.063550
21
-0.005711
31
0.0
0
LINE
8
0
6
CONTINUOUS
10
-0.061734
20
-0.005711
30
0.0
11
-0.056775
21
-0.005711
31
0.0
0
LINE
8
0
6
CONTINUOUS
10
-0.056775
20
-0.005711
30
0.0
11
-0.050000
21
-0.005711
31
0.0
0
LINE
8
0
6
CONTINUOUS
10
-0.050000
20
-0.005711
30
0.0
11
-0.043225
21
-0.005711
31
0.0
0
LINE
8
0
6
CONTINUOUS
10
-0.043225
20
-0.005711
30
0.0
11
-0.038266
21
-0.005711
31
0.0
0
LINE
8
0
6
CONTINUOUS
10
-0.036450
20
-0.005711
30
0.0
11
-0.036450
21
-0.005053
31
0.0
0
LINE
8
0
6
CONTINUOUS
10
-0.038266
20
-0.005711
30
0.0
11
-0.036450
21
-0.005711
31
0.0
0
LINE
8
0
6
CONTINUOUS
10
0.084000
20
-0.012000
30
0.0
11
0.084000
21
0.046000
31
0.0
0
LINE
8
0
6
CONTINUOUS
10
-0.079000
20
-0.017000
30
0.0
11
0.045196
21
-0.017000
31
0.0
0
LINE
8
0
6
CONTINUOUS
10
0.054804
20
-0.017000
30
0.0
11
0.079000
21
-0.017000
31
0.0
0
LINE
8
0
6
CONTINUOUS
10
0.079000
20
0.051000
30
0.0
11
-0.079000
21
0.051000
31
0.0
0
LINE
8
0
6
CONTINUOUS
10
-0.084000
20
0.046000
30
0.0
11
-0.084000
21
-0.012000
31
0.0
0
LINE
8
0
6
CONTINUOUS
10
-0.081086
20
-0.016876
30
0.0
11
-0.079000
21
-0.017000
31
0.0
0
LINE
8
0
6
CONTINUOUS
10
-0.082968
20
-0.015969
30
0.0
11
-0.081086
21
-0.016876
31
0.0
0
LINE
8
0
6
CONTINUOUS
10
-0.083876
20
-0.014086
30
0.0
11
-0.082968
21
-0.015969
31
0.0
0
LINE
8
0
6
CONTINUOUS
10
-0.084000
20
-0.012000
30
0.0
11
-0.083876
21
-0.014086
31
0.0
0
LINE
8
0
6
CONTINUOUS
10
-0.083876
20
0.048086
30
0.0
11
-0.084000
21
0.046000
31
0.0
0
LINE
8
0
6
CONTINUOUS
10
-0.082969
20
0.049968
30
0.0
11
-0.083876
21
0.048086
31
0.0
0
LINE
8
0
6
CONTINUOUS
10
-0.081086
20
0.050876
30
0.0
11
-0.082969
21
0.049968
31
0.0
0
LINE
8
0
6
CONTINUOUS
10
-0.079000
20
0.051000
30
0.0
11
-0.081086
21
0.050876
31
0.0
0
LINE
8
0
6
CONTINUOUS
10
0.079000
20
-0.017000
30
0.0
11
0.081086
21
-0.016876
31
0.0
0
LINE
8
0
6
CONTINUOUS
10
0.081086
20
-0.016876
30
0.0
11
0.082969
21
-0.015968
31
0.0
0
LINE
8
0
6
CONTINUOUS
10
0.082969
20
-0.015968
30
0.0
11
0.083876
21
-0.014086
31
0.0
0
LINE
8
0
6
CONTINUOUS
10
0.083876
20
-0.014086
30
0.0
11
0.084000
21
-0.012000
31
0.0
0
LINE
8
0
6
CONTINUOUS
10
0.081086
20
0.050876
30
0.0
11
0.079000
21
0.051000
31
0.0
0
LINE
8
0
6
CONTINUOUS
10
0.082968
20
0.049969
30
0.0
11
0.081086
21
0.050876
31
0.0
0
LINE
8
0
6
CONTINUOUS
10
0.083876
20
0.048086
30
0.0
11
0.082968
21
0.049969
31
0.0
0
LINE
8
0
6
CONTINUOUS
10
0.084000
20
0.046000
30
0.0
11
0.083876
21
0.048086
31
0.0
0
LINE
8
0
6
CONTINUOUS
10
0.045196
20
-0.010641
30
0.0
11
0.045196
21
-0.049322
31
0.0
0
LINE
8
0
6
CONTINUOUS
10
0.043409
20
-0.001096
30
0.0
11
0.044166
21
-0.002103
31
0.0
0
LINE
8
0
6
CONTINUOUS
10
0.050000
20
0.003197
30
0.0
11
0.050000
21
-0.000578
31
0.0
0
LINE
8
0
6
CONTINUOUS
10
0.040548
20
0.000678
30
0.0
11
0.042711
21
-0.000534
31
0.0
0
LINE
8
0
6
CONTINUOUS
10
0.045196
20
-0.004657
30
0.0
11
0.045196
21
-0.007651
31
0.0
0
LINE
8
0
6
CONTINUOUS
10
0.045196
20
-0.007651
30
0.0
11
0.045196
21
-0.010641
31
0.0
0
LINE
8
0
6
CONTINUOUS
10
0.042711
20
-0.000534
30
0.0
11
0.043409
21
-0.001096
31
0.0
0
LINE
8
0
6
CONTINUOUS
10
0.054804
20
-0.049322
30
0.0
11
0.054804
21
-0.010641
31
0.0
0
LINE
8
0
6
CONTINUOUS
10
0.054804
20
-0.004657
30
0.0
11
0.055081
21
-0.003549
31
0.0
0
LINE
8
0
6
CONTINUOUS
10
0.055834
20
-0.002103
30
0.0
11
0.056547
21
-0.001113
31
0.0
0
LINE
8
0
6
CONTINUOUS
10
0.056591
20
-0.001096
30
0.0
11
0.057289
21
-0.000534
31
0.0
0
LINE
8
0
6
CONTINUOUS
10
0.054804
20
-0.007651
30
0.0
11
0.054804
21
-0.004657
31
0.0
0
LINE
8
0
6
CONTINUOUS
10
0.050000
20
-0.000578
30
0.0
11
0.050000
21
-0.004288
31
0.0
0
LINE
8
0
6
CONTINUOUS
10
0.054804
20
-0.010641
30
0.0
11
0.054804
21
-0.007651
31
0.0
0
LINE
8
0
6
CONTINUOUS
10
0.057289
20
-0.000534
30
0.0
11
0.059452
21
0.000678
31
0.0
0
LINE
8
0
6
CONTINUOUS
10
0.055761
20
-0.002067
30
0.0
11
0.056591
21
-0.001096
31
0.0
0
LINE
8
0
6
CONTINUOUS
10
0.044919
20
-0.003549
30
0.0
11
0.045196
21
-0.004657
31
0.0
0
LINE
8
0
6
CONTINUOUS
10
0.044166
20
-0.002103
30
0.0
11
0.044919
21
-0.003549
31
0.0
0
LINE
8
0
6
CONTINUOUS
10
0.050000
20
0.007537
30
0.0
11
0.050000
21
0.003197
31
0.0
0
LINE
8
0
6
CONTINUOUS
10
0.055081
20
-0.003549
30
0.0
11
0.055834
21
-0.002103
31
0.0
0
LINE
8
0
6
CONTINUOUS
10
0.050000
20
-0.048475
30
0.0
11
0.048161
21
-0.048571
31
0.0
0
LINE
8
0
6
CONTINUOUS
10
0.046119
20
-0.049035
30
0.0
11
0.045561
21
-0.049254
31
0.0
0
LINE
8
0
6
CONTINUOUS
10
0.048161
20
-0.048571
30
0.0
11
0.047382
21
-0.048708
31
0.0
0
LINE
8
0
6
CONTINUOUS
10
0.045196
20
-0.049322
30
0.0
11
0.045196
21
-0.049738
31
0.0
0
LINE
8
0
6
CONTINUOUS
10
0.045561
20
-0.049254
30
0.0
11
0.045196
21
-0.049738
31
0.0
0
LINE
8
0
6
CONTINUOUS
10
0.045196
20
-0.049738
30
0.0
11
0.045561
21
-0.050221
31
0.0
0
LINE
8
0
6
CONTINUOUS
10
0.045561
20
-0.050221
30
0.0
11
0.046603
21
-0.050630
31
0.0
0
LINE
8
0
6
CONTINUOUS
10
0.046603
20
-0.050630
30
0.0
11
0.048161
21
-0.050904
31
0.0
0
LINE
8
0
6
CONTINUOUS
10
0.048161
20
-0.050904
30
0.0
11
0.050000
21
-0.051000
31
0.0
0
LINE
8
0
6
CONTINUOUS
10
0.050000
20
-0.048475
30
0.0
11
0.051838
21
-0.048571
31
0.0
0
LINE
8
0
6
CONTINUOUS
10
0.054439
20
-0.049254
30
0.0
11
0.053881
21
-0.049035
31
0.0
0
LINE
8
0
6
CONTINUOUS
10
0.051838
20
-0.048571
30
0.0
11
0.052618
21
-0.048708
31
0.0
0
LINE
8
0
6
CONTINUOUS
10
0.054804
20
-0.049738
30
0.0
11
0.054804
21
-0.049322
31
0.0
0
LINE
8
0
6
CONTINUOUS
10
0.054439
20
-0.049254
30
0.0
11
0.054804
21
-0.049738
31
0.0
0
LINE
8
0
6
CONTINUOUS
10
0.054439
20
-0.050221
30
0.0
11
0.054804
21
-0.049738
31
0.0
0
LINE
8
0
6
CONTINUOUS
10
0.053397
20
-0.050630
30
0.0
11
0.054439
21
-0.050221
31
0.0
0
LINE
8
0
6
CONTINUOUS
10
0.051839
20
-0.050904
30
0.0
11
0.053397
21
-0.050630
31
0.0
0
LINE
8
0
6
CONTINUOUS
10
0.050000
20
-0.051000
30
0.0
11
0.051839
21
-0.050904
31
0.0
0
LINE
8
0
6
CONTINUOUS
10
0.031630
20
0.022097
30
0.0
11
0.030944
21
0.017218
31
0.0
0
LINE
8
0
6
CONTINUOUS
10
0.030944
20
0.017218
30
0.0
11
0.031630
21
0.012340
31
0.0
0
LINE
8
0
6
CONTINUOUS
10
0.040548
20
0.033759
30
0.0
11
0.036508
21
0.030710
31
0.0
0
LINE
8
0
6
CONTINUOUS
10
0.045122
20
0.035589
30
0.0
11
0.040548
21
0.033759
31
0.0
0
LINE
8
0
6
CONTINUOUS
10
0.050000
20
0.036275
30
0.0
11
0.045122
21
0.035589
31
0.0
0
LINE
8
0
6
CONTINUOUS
10
0.036508
20
0.030710
30
0.0
11
0.033459
21
0.026670
31
0.0
0
LINE
8
0
6
CONTINUOUS
10
0.033459
20
0.007766
30
0.0
11
0.036508
21
0.003727
31
0.0
0
LINE
8
0
6
CONTINUOUS
10
0.031630
20
0.012340
30
0.0
11
0.033459
21
0.007766
31
0.0
0
LINE
8
0
6
CONTINUOUS
10
0.036508
20
0.003727
30
0.0
11
0.040548
21
0.000678
31
0.0
0
LINE
8
0
6
CONTINUOUS
10
0.033459
20
0.026670
30
0.0
11
0.031630
21
0.022097
31
0.0
0
LINE
8
0
6
CONTINUOUS
10
0.043973
20
-0.001188
30
0.0
11
0.043118
21
-0.000584
31
0.0
0
LINE
8
0
6
CONTINUOUS
10
0.040548
20
0.000678
30
0.0
11
0.043118
21
-0.000584
31
0.0
0
LINE
8
0
6
CONTINUOUS
10
0.040548
20
0.000678
30
0.0
11
0.042995
21
-0.000569
31
0.0
0
LINE
8
0
6
CONTINUOUS
10
0.069056
20
0.017218
30
0.0
11
0.068370
21
0.022097
31
0.0
0
LINE
8
0
6
CONTINUOUS
10
0.068370
20
0.012340
30
0.0
11
0.069056
21
0.017218
31
0.0
0
LINE
8
0
6
CONTINUOUS
10
0.063492
20
0.030710
30
0.0
11
0.059452
21
0.033759
31
0.0
0
LINE
8
0
6
CONTINUOUS
10
0.059452
20
0.033759
30
0.0
11
0.054878
21
0.035589
31
0.0
0
LINE
8
0
6
CONTINUOUS
10
0.054878
20
0.035589
30
0.0
11
0.050000
21
0.036275
31
0.0
0
LINE
8
0
6
CONTINUOUS
10
0.066541
20
0.026670
30
0.0
11
0.063492
21
0.030710
31
0.0
0
LINE
8
0
6
CONTINUOUS
10
0.063492
20
0.003727
30
0.0
11
0.066541
21
0.007766
31
0.0
0
LINE
8
0
6
CONTINUOUS
10
0.066541
20
0.007766
30
0.0
11
0.068370
21
0.012340
31
0.0
0
LINE
8
0
6
CONTINUOUS
10
0.059452
20
0.000678
30
0.0
11
0.063492
21
0.003727
31
0.0
0
LINE
8
0
6
CONTINUOUS
10
0.068370
20
0.022097
30
0.0
11
0.066541
21
0.026670
31
0.0
0
LINE
8
0
6
CONTINUOUS
10
0.056027
20
-0.001188
30
0.0
11
0.056882
21
-0.000584
31
0.0
0
LINE
8
0
6
CONTINUOUS
10
0.057005
20
-0.000569
30
0.0
11
0.059452
21
0.000678
31
0.0
0
LINE
8
0
6
CONTINUOUS
10
0.056882
20
-0.000584
30
0.0
11
0.059452
21
0.000678
31
0.0
0
LINE
8
0
6
CONTINUOUS
10
0.044989
20
-0.002136
30
0.0
11
0.043973
21
-0.001188
31
0.0
0
LINE
8
0
6
CONTINUOUS
10
0.046001
20
-0.003421
30
0.0
11
0.044989
21
-0.002136
31
0.0
0
LINE
8
0
6
CONTINUOUS
10
0.055011
20
-0.002136
30
0.0
11
0.053999
21
-0.003421
31
0.0
0
LINE
8
0
6
CONTINUOUS
10
0.056027
20
-0.001188
30
0.0
11
0.055011
21
-0.002136
31
0.0
0
LINE
8
0
6
CONTINUOUS
10
0.046001
20
-0.003421
30
0.0
11
0.046545
21
-0.004462
31
0.0
0
LINE
8
0
6
CONTINUOUS
10
0.053455
20
-0.004462
30
0.0
11
0.053999
21
-0.003421
31
0.0
0
LINE
8
0
6
CONTINUOUS
10
0.053397
20
-0.048845
30
0.0
11
0.053881
21
-0.049035
31
0.0
0
LINE
8
0
6
CONTINUOUS
10
0.052618
20
-0.048708
30
0.0
11
0.053397
21
-0.048845
31
0.0
0
LINE
8
0
6
CONTINUOUS
10
0.046603
20
-0.048845
30
0.0
11
0.046119
21
-0.049035
31
0.0
0
LINE
8
0
6
CONTINUOUS
10
0.047382
20
-0.048708
30
0.0
11
0.046603
21
-0.048845
31
0.0
0
ENDSEC
0
EOF
