999
Erzeugt mit innoplus bad 
0
SECTION
2
HEADER
9
$ACADVER
1
AC1009
9
$DWGCODEPAGE
3
ISO8859-1
0
ENDSEC
0
SECTION
2
TABLES
0
TABLE
2
LAYER
70
1
0
LAYER
2
0
70
0
62
7
6
CONTINUOUS
0
ENDTAB
0
ENDSEC
0
SECTION
2
ENTITIES
0
LINE
8
0
6
CONTINUOUS
10
0.117730
20
-0.105947
30
0.0
11
0.118143
21
-0.105255
31
0.0
0
LINE
8
0
6
CONTINUOUS
10
0.123209
20
-0.103702
30
0.0
11
0.120029
21
-0.103923
31
0.0
0
LINE
8
0
6
CONTINUOUS
10
0.120764
20
-0.104103
30
0.0
11
0.124599
21
-0.103963
31
0.0
0
LINE
8
0
6
CONTINUOUS
10
0.127158
20
-0.103624
30
0.0
11
0.125071
21
-0.103712
31
0.0
0
LINE
8
0
6
CONTINUOUS
10
0.119603
20
-0.103338
30
0.0
11
0.123021
21
-0.103624
31
0.0
0
LINE
8
0
6
CONTINUOUS
10
0.117997
20
-0.105206
30
0.0
11
0.118556
21
-0.104924
31
0.0
0
LINE
8
0
6
CONTINUOUS
10
0.117353
20
-0.104417
30
0.0
11
0.116767
21
-0.104792
31
0.0
0
LINE
8
0
6
CONTINUOUS
10
0.124606
20
-0.101681
30
0.0
11
0.121036
21
-0.101233
31
0.0
0
LINE
8
0
6
CONTINUOUS
10
0.115952
20
-0.105947
30
0.0
11
0.116220
21
-0.105255
31
0.0
0
LINE
8
0
6
CONTINUOUS
10
0.115710
20
-0.106647
30
0.0
11
0.115952
21
-0.105947
31
0.0
0
LINE
8
0
6
CONTINUOUS
10
0.116767
20
-0.104792
30
0.0
11
0.116220
21
-0.105255
31
0.0
0
LINE
8
0
6
CONTINUOUS
10
0.117125
20
-0.103499
30
0.0
11
0.119603
21
-0.103338
31
0.0
0
LINE
8
0
6
CONTINUOUS
10
0.117476
20
-0.101938
30
0.0
11
0.116265
21
-0.102620
31
0.0
0
LINE
8
0
6
CONTINUOUS
10
0.116265
20
-0.102620
30
0.0
11
0.115146
21
-0.103525
31
0.0
0
LINE
8
0
6
CONTINUOUS
10
0.115146
20
-0.103525
30
0.0
11
0.114293
21
-0.104633
31
0.0
0
LINE
8
0
6
CONTINUOUS
10
0.114293
20
-0.104633
30
0.0
11
0.113625
21
-0.105503
31
0.0
0
LINE
8
0
6
CONTINUOUS
10
0.117208
20
-0.102235
30
0.0
11
0.119512
21
-0.101733
31
0.0
0
LINE
8
0
6
CONTINUOUS
10
0.126291
20
-0.101681
30
0.0
11
0.124606
21
-0.101681
31
0.0
0
LINE
8
0
6
CONTINUOUS
10
0.126153
20
-0.103624
30
0.0
11
0.127158
21
-0.103624
31
0.0
0
LINE
8
0
6
CONTINUOUS
10
0.124831
20
-0.103624
30
0.0
11
0.125566
21
-0.103624
31
0.0
0
LINE
8
0
6
CONTINUOUS
10
0.124852
20
-0.102172
30
0.0
11
0.125698
21
-0.102172
31
0.0
0
LINE
8
0
6
CONTINUOUS
10
0.126844
20
-0.103976
30
0.0
11
0.125071
21
-0.103712
31
0.0
0
LINE
8
0
6
CONTINUOUS
10
0.124599
20
-0.103963
30
0.0
11
0.126844
21
-0.103976
31
0.0
0
LINE
8
0
6
CONTINUOUS
10
0.127199
20
-0.101681
30
0.0
11
0.126291
21
-0.101681
31
0.0
0
LINE
8
0
6
CONTINUOUS
10
0.127199
20
-0.101681
30
0.0
11
0.125932
21
-0.102044
31
0.0
0
LINE
8
0
6
CONTINUOUS
10
0.123031
20
-0.102172
30
0.0
11
0.124852
21
-0.102172
31
0.0
0
LINE
8
0
6
CONTINUOUS
10
0.124831
20
-0.103624
30
0.0
11
0.123021
21
-0.103624
31
0.0
0
LINE
8
0
6
CONTINUOUS
10
0.125566
20
-0.103624
30
0.0
11
0.126153
21
-0.103624
31
0.0
0
LINE
8
0
6
CONTINUOUS
10
0.120029
20
-0.103923
30
0.0
11
0.117353
21
-0.104417
31
0.0
0
LINE
8
0
6
CONTINUOUS
10
0.125932
20
-0.102044
30
0.0
11
0.125698
21
-0.102172
31
0.0
0
LINE
8
0
6
CONTINUOUS
10
0.118644
20
-0.101662
30
0.0
11
0.117476
21
-0.101938
31
0.0
0
LINE
8
0
6
CONTINUOUS
10
0.121036
20
-0.101233
30
0.0
11
0.118644
21
-0.101662
31
0.0
0
LINE
8
0
6
CONTINUOUS
10
0.117476
20
-0.101938
30
0.0
11
0.119612
21
-0.101523
31
0.0
0
LINE
8
0
6
CONTINUOUS
10
0.115015
20
-0.106366
30
0.0
11
0.111153
21
-0.124570
31
0.0
0
LINE
8
0
6
CONTINUOUS
10
0.115710
20
-0.106647
30
0.0
11
0.111617
21
-0.126608
31
0.0
0
LINE
8
0
6
CONTINUOUS
10
0.113625
20
-0.105503
30
0.0
11
0.111296
21
-0.116110
31
0.0
0
LINE
8
0
6
CONTINUOUS
10
0.126844
20
-0.103976
30
0.0
11
0.127520
21
-0.103712
31
0.0
0
LINE
8
0
6
CONTINUOUS
10
0.127158
20
-0.103624
30
0.0
11
0.127520
21
-0.103712
31
0.0
0
LINE
8
0
6
CONTINUOUS
10
0.127520
20
-0.103712
30
0.0
11
0.127841
21
-0.103624
31
0.0
0
LINE
8
0
6
CONTINUOUS
10
0.117364
20
-0.106647
30
0.0
11
0.117730
21
-0.105947
31
0.0
0
LINE
8
0
6
CONTINUOUS
10
0.117997
20
-0.105206
30
0.0
11
0.117523
21
-0.105675
31
0.0
0
LINE
8
0
6
CONTINUOUS
10
0.118143
20
-0.105255
30
0.0
11
0.118635
21
-0.104792
31
0.0
0
LINE
8
0
6
CONTINUOUS
10
0.127158
20
-0.103624
30
0.0
11
0.127841
21
-0.103624
31
0.0
0
LINE
8
0
6
CONTINUOUS
10
0.127930
20
-0.102044
30
0.0
11
0.127199
21
-0.101681
31
0.0
0
LINE
8
0
6
CONTINUOUS
10
0.127890
20
-0.103624
30
0.0
11
0.128042
21
-0.102609
31
0.0
0
LINE
8
0
6
CONTINUOUS
10
0.127841
20
-0.103624
30
0.0
11
0.127890
21
-0.103624
31
0.0
0
LINE
8
0
6
CONTINUOUS
10
0.118556
20
-0.104924
30
0.0
11
0.121742
21
-0.103923
31
0.0
0
LINE
8
0
6
CONTINUOUS
10
0.128042
20
-0.102609
30
0.0
11
0.128001
21
-0.102172
31
0.0
0
LINE
8
0
6
CONTINUOUS
10
0.128001
20
-0.102172
30
0.0
11
0.127930
21
-0.102044
31
0.0
0
LINE
8
0
6
CONTINUOUS
10
0.113293
20
-0.125146
30
0.0
11
0.117364
21
-0.106647
31
0.0
0
LINE
8
0
6
CONTINUOUS
10
0.110932
20
-0.120642
30
0.0
11
0.114018
21
-0.105826
31
0.0
0
LINE
8
0
6
CONTINUOUS
10
0.081975
20
0.137779
30
0.0
11
0.060749
21
0.163073
31
0.0
0
LINE
8
0
6
CONTINUOUS
10
0.090737
20
0.129912
30
0.0
11
0.089601
21
0.130175
31
0.0
0
LINE
8
0
6
CONTINUOUS
10
0.088582
20
0.122984
30
0.0
11
0.086332
21
0.125665
31
0.0
0
LINE
8
0
6
CONTINUOUS
10
0.093823
20
0.130356
30
0.0
11
0.091567
21
0.129929
31
0.0
0
LINE
8
0
6
CONTINUOUS
10
0.087402
20
0.131312
30
0.0
11
0.085567
21
0.133498
31
0.0
0
LINE
8
0
6
CONTINUOUS
10
0.087321
20
0.127136
30
0.0
11
0.085037
21
0.129858
31
0.0
0
LINE
8
0
6
CONTINUOUS
10
0.085037
20
0.129858
30
0.0
11
0.080565
21
0.135186
31
0.0
0
LINE
8
0
6
CONTINUOUS
10
0.085567
20
0.133498
30
0.0
11
0.081975
21
0.137779
31
0.0
0
LINE
8
0
6
CONTINUOUS
10
0.091567
20
0.129929
30
0.0
11
0.090737
21
0.129912
31
0.0
0
LINE
8
0
6
CONTINUOUS
10
0.053933
20
0.157352
30
0.0
11
0.075158
21
0.132059
31
0.0
0
LINE
8
0
6
CONTINUOUS
10
0.081214
20
0.124772
30
0.0
11
0.080901
21
0.125742
31
0.0
0
LINE
8
0
6
CONTINUOUS
10
0.080586
20
0.125591
30
0.0
11
0.080997
21
0.124703
31
0.0
0
LINE
8
0
6
CONTINUOUS
10
0.081323
20
0.123229
30
0.0
11
0.081407
21
0.122102
31
0.0
0
LINE
8
0
6
CONTINUOUS
10
0.081386
20
0.122064
30
0.0
11
0.081225
21
0.121249
31
0.0
0
LINE
8
0
6
CONTINUOUS
10
0.078751
20
0.127778
30
0.0
11
0.080586
21
0.125591
31
0.0
0
LINE
8
0
6
CONTINUOUS
10
0.086332
20
0.125665
30
0.0
11
0.084161
21
0.128252
31
0.0
0
LINE
8
0
6
CONTINUOUS
10
0.082428
20
0.127669
30
0.0
11
0.084712
21
0.124947
31
0.0
0
LINE
8
0
6
CONTINUOUS
10
0.056731
20
0.158290
30
0.0
11
0.077957
21
0.132997
31
0.0
0
LINE
8
0
6
CONTINUOUS
10
0.084161
20
0.128252
30
0.0
11
0.079318
21
0.134023
31
0.0
0
LINE
8
0
6
CONTINUOUS
10
0.075158
20
0.132059
30
0.0
11
0.078751
21
0.127778
31
0.0
0
LINE
8
0
6
CONTINUOUS
10
0.082428
20
0.127669
30
0.0
11
0.077957
21
0.132997
31
0.0
0
LINE
8
0
6
CONTINUOUS
10
0.081225
20
0.121249
30
0.0
11
0.080412
21
0.119102
31
0.0
0
LINE
8
0
6
CONTINUOUS
10
0.081396
20
0.123247
30
0.0
11
0.081386
21
0.122064
31
0.0
0
LINE
8
0
6
CONTINUOUS
10
0.088206
20
0.130753
30
0.0
11
0.087402
21
0.131312
31
0.0
0
LINE
8
0
6
CONTINUOUS
10
0.087199
20
0.131027
30
0.0
11
0.088100
21
0.130551
31
0.0
0
LINE
8
0
6
CONTINUOUS
10
0.089601
20
0.130175
30
0.0
11
0.088206
21
0.130753
31
0.0
0
LINE
8
0
6
CONTINUOUS
10
0.091201
20
0.119864
30
0.0
11
0.088582
21
0.122984
31
0.0
0
LINE
8
0
6
CONTINUOUS
10
0.080997
20
0.124703
30
0.0
11
0.081323
21
0.123229
31
0.0
0
LINE
8
0
6
CONTINUOUS
10
0.081214
20
0.124772
30
0.0
11
0.081396
21
0.123247
31
0.0
0
LINE
8
0
6
CONTINUOUS
10
0.059340
20
0.160480
30
0.0
11
0.059092
21
0.160774
31
0.0
0
LINE
8
0
6
CONTINUOUS
10
0.057845
20
0.159612
30
0.0
11
0.059092
21
0.160774
31
0.0
0
LINE
8
0
6
CONTINUOUS
10
0.060265
20
0.162319
30
0.0
11
0.060530
21
0.162807
31
0.0
0
LINE
8
0
6
CONTINUOUS
10
0.059092
20
0.160774
30
0.0
11
0.059564
21
0.161335
31
0.0
0
LINE
8
0
6
CONTINUOUS
10
0.060749
20
0.163073
30
0.0
11
0.060502
21
0.163368
31
0.0
0
LINE
8
0
6
CONTINUOUS
10
0.060530
20
0.162807
30
0.0
11
0.060502
21
0.163368
31
0.0
0
LINE
8
0
6
CONTINUOUS
10
0.060502
20
0.163368
30
0.0
11
0.059955
21
0.163493
31
0.0
0
LINE
8
0
6
CONTINUOUS
10
0.059955
20
0.163493
30
0.0
11
0.058972
21
0.163163
31
0.0
0
LINE
8
0
6
CONTINUOUS
10
0.058972
20
0.163163
30
0.0
11
0.057704
21
0.162429
31
0.0
0
LINE
8
0
6
CONTINUOUS
10
0.057704
20
0.162429
30
0.0
11
0.056342
21
0.161403
31
0.0
0
LINE
8
0
6
CONTINUOUS
10
0.058093
20
0.159317
30
0.0
11
0.057845
21
0.159612
31
0.0
0
LINE
8
0
6
CONTINUOUS
10
0.057845
20
0.159612
30
0.0
11
0.056484
21
0.158585
31
0.0
0
LINE
8
0
6
CONTINUOUS
10
0.054232
20
0.157522
30
0.0
11
0.054759
21
0.157699
31
0.0
0
LINE
8
0
6
CONTINUOUS
10
0.056731
20
0.158290
30
0.0
11
0.056484
21
0.158585
31
0.0
0
LINE
8
0
6
CONTINUOUS
10
0.056484
20
0.158585
30
0.0
11
0.055849
21
0.158218
31
0.0
0
LINE
8
0
6
CONTINUOUS
10
0.053685
20
0.157647
30
0.0
11
0.053933
21
0.157352
31
0.0
0
LINE
8
0
6
CONTINUOUS
10
0.054232
20
0.157522
30
0.0
11
0.053685
21
0.157647
31
0.0
0
LINE
8
0
6
CONTINUOUS
10
0.053657
20
0.158208
30
0.0
11
0.053685
21
0.157647
31
0.0
0
LINE
8
0
6
CONTINUOUS
10
0.054152
20
0.159118
30
0.0
11
0.053657
21
0.158208
31
0.0
0
LINE
8
0
6
CONTINUOUS
10
0.055095
20
0.160240
30
0.0
11
0.054152
21
0.159118
31
0.0
0
LINE
8
0
6
CONTINUOUS
10
0.056342
20
0.161403
30
0.0
11
0.055095
21
0.160240
31
0.0
0
LINE
8
0
6
CONTINUOUS
10
0.080565
20
0.135186
30
0.0
11
0.059340
21
0.160480
31
0.0
0
LINE
8
0
6
CONTINUOUS
10
0.058093
20
0.159317
30
0.0
11
0.079318
21
0.134023
31
0.0
0
LINE
8
0
6
CONTINUOUS
10
0.112902
20
0.120470
30
0.0
11
0.110484
21
0.124340
31
0.0
0
LINE
8
0
6
CONTINUOUS
10
0.110484
20
0.124340
30
0.0
11
0.107093
21
0.127392
31
0.0
0
LINE
8
0
6
CONTINUOUS
10
0.113518
20
0.106887
30
0.0
11
0.114569
21
0.111455
31
0.0
0
LINE
8
0
6
CONTINUOUS
10
0.111363
20
0.102866
30
0.0
11
0.113518
21
0.106887
31
0.0
0
LINE
8
0
6
CONTINUOUS
10
0.108310
20
0.099475
30
0.0
11
0.111363
21
0.102866
31
0.0
0
LINE
8
0
6
CONTINUOUS
10
0.114569
20
0.111455
30
0.0
11
0.114327
21
0.116137
31
0.0
0
LINE
8
0
6
CONTINUOUS
10
0.103073
20
0.129548
30
0.0
11
0.098504
21
0.130599
31
0.0
0
LINE
8
0
6
CONTINUOUS
10
0.107093
20
0.127392
30
0.0
11
0.103073
21
0.129548
31
0.0
0
LINE
8
0
6
CONTINUOUS
10
0.098504
20
0.130599
30
0.0
11
0.093823
21
0.130356
31
0.0
0
LINE
8
0
6
CONTINUOUS
10
0.114327
20
0.116137
30
0.0
11
0.112902
21
0.120470
31
0.0
0
LINE
8
0
6
CONTINUOUS
10
0.086509
20
0.130433
30
0.0
11
0.084818
21
0.132419
31
0.0
0
LINE
8
0
6
CONTINUOUS
10
0.090283
20
0.129641
30
0.0
11
0.091249
21
0.129721
31
0.0
0
LINE
8
0
6
CONTINUOUS
10
0.093823
20
0.130356
30
0.0
11
0.091249
21
0.129721
31
0.0
0
LINE
8
0
6
CONTINUOUS
10
0.093823
20
0.130356
30
0.0
11
0.091345
21
0.129784
31
0.0
0
LINE
8
0
6
CONTINUOUS
10
0.083446
20
0.101650
30
0.0
11
0.086837
21
0.098597
31
0.0
0
LINE
8
0
6
CONTINUOUS
10
0.081028
20
0.105519
30
0.0
11
0.083446
21
0.101650
31
0.0
0
LINE
8
0
6
CONTINUOUS
10
0.095426
20
0.095391
30
0.0
11
0.100107
21
0.095633
31
0.0
0
LINE
8
0
6
CONTINUOUS
10
0.100107
20
0.095633
30
0.0
11
0.104441
21
0.097058
31
0.0
0
LINE
8
0
6
CONTINUOUS
10
0.104441
20
0.097058
30
0.0
11
0.108310
21
0.099475
31
0.0
0
LINE
8
0
6
CONTINUOUS
10
0.090857
20
0.096442
30
0.0
11
0.095426
21
0.095391
31
0.0
0
LINE
8
0
6
CONTINUOUS
10
0.079361
20
0.114534
30
0.0
11
0.079603
21
0.109853
31
0.0
0
LINE
8
0
6
CONTINUOUS
10
0.079603
20
0.109853
30
0.0
11
0.081028
21
0.105519
31
0.0
0
LINE
8
0
6
CONTINUOUS
10
0.080412
20
0.119102
30
0.0
11
0.079361
21
0.114534
31
0.0
0
LINE
8
0
6
CONTINUOUS
10
0.086837
20
0.098597
30
0.0
11
0.090857
21
0.096442
31
0.0
0
LINE
8
0
6
CONTINUOUS
10
0.081731
20
0.122464
30
0.0
11
0.081485
21
0.121527
31
0.0
0
LINE
8
0
6
CONTINUOUS
10
0.081406
20
0.121443
30
0.0
11
0.080412
21
0.119102
31
0.0
0
LINE
8
0
6
CONTINUOUS
10
0.081485
20
0.121527
30
0.0
11
0.080412
21
0.119102
31
0.0
0
LINE
8
0
6
CONTINUOUS
10
0.088998
20
0.129708
30
0.0
11
0.090283
21
0.129641
31
0.0
0
LINE
8
0
6
CONTINUOUS
10
0.087515
20
0.130018
30
0.0
11
0.088998
21
0.129708
31
0.0
0
LINE
8
0
6
CONTINUOUS
10
0.081888
20
0.123742
30
0.0
11
0.081840
21
0.125256
31
0.0
0
LINE
8
0
6
CONTINUOUS
10
0.081731
20
0.122464
30
0.0
11
0.081888
21
0.123742
31
0.0
0
LINE
8
0
6
CONTINUOUS
10
0.087515
20
0.130018
30
0.0
11
0.086509
21
0.130433
31
0.0
0
LINE
8
0
6
CONTINUOUS
10
0.081607
20
0.126319
30
0.0
11
0.081259
21
0.126034
31
0.0
0
LINE
8
0
6
CONTINUOUS
10
0.081607
20
0.126319
30
0.0
11
0.081840
21
0.125256
31
0.0
0
LINE
8
0
6
CONTINUOUS
10
0.055215
20
0.157852
30
0.0
11
0.054759
21
0.157699
31
0.0
0
LINE
8
0
6
CONTINUOUS
10
0.055849
20
0.158218
30
0.0
11
0.055215
21
0.157852
31
0.0
0
LINE
8
0
6
CONTINUOUS
10
0.060035
20
0.161897
30
0.0
11
0.060265
21
0.162319
31
0.0
0
LINE
8
0
6
CONTINUOUS
10
0.059564
20
0.161335
30
0.0
11
0.060035
21
0.161897
31
0.0
0
LINE
8
0
6
CONTINUOUS
10
-0.126979
20
0.105761
30
0.0
11
-0.114220
21
0.105155
31
0.0
0
LINE
8
0
6
CONTINUOUS
10
-0.086919
20
0.103858
30
0.0
11
0.063938
21
0.096695
31
0.0
0
LINE
8
0
6
CONTINUOUS
10
0.119938
20
-0.162493
30
0.0
11
0.118823
21
-0.104841
31
0.0
0
LINE
8
0
6
CONTINUOUS
10
0.118761
20
-0.101641
30
0.0
11
0.114731
21
0.106589
31
0.0
0
LINE
8
0
6
CONTINUOUS
10
0.113757
20
0.100183
30
0.0
11
0.114621
21
0.113003
31
0.0
0
LINE
8
0
6
CONTINUOUS
10
0.079182
20
0.092638
30
0.0
11
0.081579
21
0.094731
31
0.0
0
LINE
8
0
6
CONTINUOUS
10
0.076552
20
0.095409
30
0.0
11
0.078841
21
0.097460
31
0.0
0
LINE
8
0
6
CONTINUOUS
10
0.075873
20
0.107545
30
0.0
11
0.079011
21
0.107545
31
0.0
0
LINE
8
0
6
CONTINUOUS
10
0.078334
20
0.091810
30
0.0
11
0.079377
21
0.083378
31
0.0
0
LINE
8
0
6
CONTINUOUS
10
0.075710
20
0.094581
30
0.0
11
0.078334
21
0.091810
31
0.0
0
LINE
8
0
6
CONTINUOUS
10
0.078334
20
0.091810
30
0.0
11
0.079182
21
0.092638
31
0.0
0
LINE
8
0
6
CONTINUOUS
10
0.068004
20
0.096502
30
0.0
11
0.075710
21
0.094581
31
0.0
0
LINE
8
0
6
CONTINUOUS
10
0.075710
20
0.094581
30
0.0
11
0.076552
21
0.095409
31
0.0
0
LINE
8
0
6
CONTINUOUS
10
0.079011
20
0.107545
30
0.0
11
0.081519
21
0.102621
31
0.0
0
LINE
8
0
6
CONTINUOUS
10
0.075873
20
0.107545
30
0.0
11
0.075008
21
0.113003
31
0.0
0
LINE
8
0
6
CONTINUOUS
10
0.078381
20
0.123385
30
0.0
11
0.075873
21
0.118461
31
0.0
0
LINE
8
0
6
CONTINUOUS
10
0.079011
20
0.118461
30
0.0
11
0.081519
21
0.123385
31
0.0
0
LINE
8
0
6
CONTINUOUS
10
0.078146
20
0.113003
30
0.0
11
0.079011
21
0.107545
31
0.0
0
LINE
8
0
6
CONTINUOUS
10
0.091500
20
0.095218
30
0.0
11
0.086576
21
0.097655
31
0.0
0
LINE
8
0
6
CONTINUOUS
10
0.091500
20
0.092523
30
0.0
11
0.086576
21
0.094762
31
0.0
0
LINE
8
0
6
CONTINUOUS
10
0.096958
20
0.094354
30
0.0
11
0.091500
21
0.095218
31
0.0
0
LINE
8
0
6
CONTINUOUS
10
0.096958
20
0.091659
30
0.0
11
0.091500
21
0.092523
31
0.0
0
LINE
8
0
6
CONTINUOUS
10
0.102416
20
0.092523
30
0.0
11
0.107340
21
0.095032
31
0.0
0
LINE
8
0
6
CONTINUOUS
10
0.102416
20
0.095218
30
0.0
11
0.107340
21
0.097727
31
0.0
0
LINE
8
0
6
CONTINUOUS
10
0.096958
20
0.094354
30
0.0
11
0.096958
21
0.091659
31
0.0
0
LINE
8
0
6
CONTINUOUS
10
0.102416
20
0.092523
30
0.0
11
0.102416
21
0.095218
31
0.0
0
LINE
8
0
6
CONTINUOUS
10
0.096958
20
0.091659
30
0.0
11
0.102416
21
0.092523
31
0.0
0
LINE
8
0
6
CONTINUOUS
10
0.096958
20
0.094354
30
0.0
11
0.102416
21
0.095218
31
0.0
0
LINE
8
0
6
CONTINUOUS
10
0.078841
20
0.097460
30
0.0
11
0.081744
21
0.099539
31
0.0
0
LINE
8
0
6
CONTINUOUS
10
0.079377
20
0.083378
30
0.0
11
0.079266
21
0.078318
31
0.0
0
LINE
8
0
6
CONTINUOUS
10
0.083646
20
0.099692
30
0.0
11
0.082578
21
0.101451
31
0.0
0
LINE
8
0
6
CONTINUOUS
10
0.081744
20
0.099539
30
0.0
11
0.083646
21
0.099692
31
0.0
0
LINE
8
0
6
CONTINUOUS
10
0.074003
20
0.131027
30
0.0
11
-0.125255
21
0.135470
31
0.0
0
LINE
8
0
6
CONTINUOUS
10
0.063938
20
0.096695
30
0.0
11
0.068004
21
0.096502
31
0.0
0
LINE
8
0
6
CONTINUOUS
10
0.076063
20
0.130981
30
0.0
11
0.074003
21
0.131027
31
0.0
0
LINE
8
0
6
CONTINUOUS
10
-0.126533
20
0.131801
30
0.0
11
-0.126420
21
0.133758
31
0.0
0
LINE
8
0
6
CONTINUOUS
10
-0.128042
20
0.105798
30
0.0
11
-0.126979
21
0.105761
31
0.0
0
LINE
8
0
6
CONTINUOUS
10
-0.128000
20
0.106525
30
0.0
11
-0.128042
21
0.105798
31
0.0
0
LINE
8
0
6
CONTINUOUS
10
-0.127877
20
0.108635
30
0.0
11
-0.128000
21
0.106525
31
0.0
0
LINE
8
0
6
CONTINUOUS
10
-0.127687
20
0.111921
30
0.0
11
-0.127877
21
0.108635
31
0.0
0
LINE
8
0
6
CONTINUOUS
10
-0.127446
20
0.116062
30
0.0
11
-0.127687
21
0.111921
31
0.0
0
LINE
8
0
6
CONTINUOUS
10
-0.127180
20
0.120653
30
0.0
11
-0.127446
21
0.116062
31
0.0
0
LINE
8
0
6
CONTINUOUS
10
-0.126914
20
0.125243
30
0.0
11
-0.127180
21
0.120653
31
0.0
0
LINE
8
0
6
CONTINUOUS
10
-0.126674
20
0.129384
30
0.0
11
-0.126914
21
0.125243
31
0.0
0
LINE
8
0
6
CONTINUOUS
10
-0.126483
20
0.132670
30
0.0
11
-0.126674
21
0.129384
31
0.0
0
LINE
8
0
6
CONTINUOUS
10
-0.126360
20
0.134780
30
0.0
11
-0.126483
21
0.132670
31
0.0
0
LINE
8
0
6
CONTINUOUS
10
-0.125255
20
0.135470
30
0.0
11
-0.126318
21
0.135507
31
0.0
0
LINE
8
0
6
CONTINUOUS
10
-0.126318
20
0.135507
30
0.0
11
-0.126360
21
0.134780
31
0.0
0
LINE
8
0
6
CONTINUOUS
10
-0.090242
20
0.091232
30
0.0
11
-0.090019
21
0.092160
31
0.0
0
LINE
8
0
6
CONTINUOUS
10
-0.090875
20
0.091399
30
0.0
11
-0.090242
21
0.091232
31
0.0
0
LINE
8
0
6
CONTINUOUS
10
-0.092709
20
0.091885
30
0.0
11
-0.090875
21
0.091399
31
0.0
0
LINE
8
0
6
CONTINUOUS
10
-0.095566
20
0.092643
30
0.0
11
-0.092709
21
0.091885
31
0.0
0
LINE
8
0
6
CONTINUOUS
10
-0.099167
20
0.093597
30
0.0
11
-0.095566
21
0.092643
31
0.0
0
LINE
8
0
6
CONTINUOUS
10
-0.103158
20
0.094654
30
0.0
11
-0.099167
21
0.093597
31
0.0
0
LINE
8
0
6
CONTINUOUS
10
-0.107149
20
0.095712
30
0.0
11
-0.103158
21
0.094654
31
0.0
0
LINE
8
0
6
CONTINUOUS
10
-0.110749
20
0.096666
30
0.0
11
-0.107149
21
0.095712
31
0.0
0
LINE
8
0
6
CONTINUOUS
10
-0.113607
20
0.097424
30
0.0
11
-0.110749
21
0.096666
31
0.0
0
LINE
8
0
6
CONTINUOUS
10
-0.115441
20
0.097910
30
0.0
11
-0.113607
21
0.097424
31
0.0
0
LINE
8
0
6
CONTINUOUS
10
-0.115850
20
0.099006
30
0.0
11
-0.116073
21
0.098077
31
0.0
0
LINE
8
0
6
CONTINUOUS
10
-0.116073
20
0.098077
30
0.0
11
-0.115441
21
0.097910
31
0.0
0
LINE
8
0
6
CONTINUOUS
10
-0.090019
20
0.092160
30
0.0
11
-0.086919
21
0.103858
31
0.0
0
LINE
8
0
6
CONTINUOUS
10
-0.114220
20
0.105155
30
0.0
11
-0.115850
21
0.099006
31
0.0
0
LINE
8
0
6
CONTINUOUS
10
0.114731
20
0.106589
30
0.0
11
0.114621
21
0.113003
31
0.0
0
LINE
8
0
6
CONTINUOUS
10
0.078691
20
0.127849
30
0.0
11
0.074886
21
0.127392
31
0.0
0
LINE
8
0
6
CONTINUOUS
10
0.074886
20
0.127392
30
0.0
11
0.079851
21
0.126545
31
0.0
0
LINE
8
0
6
CONTINUOUS
10
0.075008
20
0.113003
30
0.0
11
0.078146
21
0.113003
31
0.0
0
LINE
8
0
6
CONTINUOUS
10
0.075873
20
0.118461
30
0.0
11
0.075008
21
0.113003
31
0.0
0
LINE
8
0
6
CONTINUOUS
10
0.079011
20
0.118461
30
0.0
11
0.075873
21
0.118461
31
0.0
0
LINE
8
0
6
CONTINUOUS
10
0.078146
20
0.113003
30
0.0
11
0.079011
21
0.118461
31
0.0
0
LINE
8
0
6
CONTINUOUS
10
0.078351
20
-0.163493
30
0.0
11
0.075084
21
-0.163493
31
0.0
0
LINE
8
0
6
CONTINUOUS
10
0.089851
20
-0.163493
30
0.0
11
0.083439
21
-0.163493
31
0.0
0
LINE
8
0
6
CONTINUOUS
10
0.096958
20
-0.163493
30
0.0
11
0.089851
21
-0.163493
31
0.0
0
LINE
8
0
6
CONTINUOUS
10
0.083439
20
-0.163493
30
0.0
11
0.078351
21
-0.163493
31
0.0
0
LINE
8
0
6
CONTINUOUS
10
0.073979
20
-0.162493
30
0.0
11
0.073958
21
-0.163493
31
0.0
0
LINE
8
0
6
CONTINUOUS
10
0.073958
20
-0.163493
30
0.0
11
0.075084
21
-0.163493
31
0.0
0
LINE
8
0
6
CONTINUOUS
10
0.115565
20
-0.163493
30
0.0
11
0.118832
21
-0.163493
31
0.0
0
LINE
8
0
6
CONTINUOUS
10
0.104065
20
-0.163493
30
0.0
11
0.110477
21
-0.163493
31
0.0
0
LINE
8
0
6
CONTINUOUS
10
0.096958
20
-0.163493
30
0.0
11
0.104065
21
-0.163493
31
0.0
0
LINE
8
0
6
CONTINUOUS
10
0.110477
20
-0.163493
30
0.0
11
0.115565
21
-0.163493
31
0.0
0
LINE
8
0
6
CONTINUOUS
10
0.119958
20
-0.163493
30
0.0
11
0.119938
21
-0.162493
31
0.0
0
LINE
8
0
6
CONTINUOUS
10
0.119958
20
-0.163493
30
0.0
11
0.118832
21
-0.163493
31
0.0
0
LINE
8
0
6
CONTINUOUS
10
-0.126533
20
0.131801
30
0.0
11
-0.126420
21
0.133758
31
0.0
0
LINE
8
0
6
CONTINUOUS
10
0.107358
20
0.127341
30
0.0
11
0.102447
21
0.129810
31
0.0
0
LINE
8
0
6
CONTINUOUS
10
0.079266
20
0.078318
30
0.0
11
0.073979
21
-0.162493
31
0.0
0
LINE
8
0
6
CONTINUOUS
10
0.091413
20
0.130650
30
0.0
11
0.087060
21
0.130734
31
0.0
0
LINE
8
0
6
CONTINUOUS
10
0.096968
20
0.130572
30
0.0
11
0.095766
21
0.130577
31
0.0
0
LINE
8
0
6
CONTINUOUS
10
0.095766
20
0.130577
30
0.0
11
0.091413
21
0.130650
31
0.0
0
LINE
8
0
6
CONTINUOUS
10
0.110932
20
-0.120642
30
0.0
11
0.110981
21
-0.119634
31
0.0
0
LINE
8
0
6
CONTINUOUS
10
0.110981
20
-0.119634
30
0.0
11
0.111019
21
-0.118277
31
0.0
0
LINE
8
0
6
CONTINUOUS
10
0.112830
20
-0.126073
30
0.0
11
0.113293
21
-0.125146
31
0.0
0
LINE
8
0
6
CONTINUOUS
10
0.111456
20
-0.125687
30
0.0
11
0.111153
21
-0.124570
31
0.0
0
LINE
8
0
6
CONTINUOUS
10
0.111617
20
-0.126608
30
0.0
11
0.111456
21
-0.125687
31
0.0
0
LINE
8
0
6
CONTINUOUS
10
0.111617
20
-0.126608
30
0.0
11
0.112015
21
-0.126794
31
0.0
0
LINE
8
0
6
CONTINUOUS
10
0.112015
20
-0.126794
30
0.0
11
0.112472
21
-0.126895
31
0.0
0
LINE
8
0
6
CONTINUOUS
10
0.111019
20
-0.118277
30
0.0
11
0.111162
21
-0.117006
31
0.0
0
LINE
8
0
6
CONTINUOUS
10
0.111162
20
-0.117006
30
0.0
11
0.111296
21
-0.116110
31
0.0
0
LINE
8
0
6
CONTINUOUS
10
0.112472
20
-0.126895
30
0.0
11
0.112830
21
-0.126073
31
0.0
0
ENDSEC
0
EOF
