999
Erzeugt mit innoplus bad 
0
SECTION
2
HEADER
9
$ACADVER
1
AC1009
9
$DWGCODEPAGE
3
ISO8859-1
0
ENDSEC
0
SECTION
2
TABLES
0
TABLE
2
LAYER
70
1
0
LAYER
2
0
70
0
62
7
6
CONTINUOUS
0
ENDTAB
0
ENDSEC
0
SECTION
2
ENTITIES
0
LINE
8
0
6
CONTINUOUS
10
0.095600
20
-0.068064
30
0.0
11
0.095602
21
-0.063442
31
0.0
0
LINE
8
0
6
CONTINUOUS
10
0.063017
20
-0.033909
30
0.0
11
0.039095
21
-0.003524
31
0.0
0
LINE
8
0
6
CONTINUOUS
10
0.095604
20
-0.060752
30
0.0
11
0.095607
21
-0.060069
31
0.0
0
LINE
8
0
6
CONTINUOUS
10
0.095603
20
-0.061438
30
0.0
11
0.095604
21
-0.060752
31
0.0
0
LINE
8
0
6
CONTINUOUS
10
0.069624
20
-0.048029
30
0.0
11
0.067374
21
-0.045245
31
0.0
0
LINE
8
0
6
CONTINUOUS
10
0.095602
20
-0.062125
30
0.0
11
0.095603
21
-0.061438
31
0.0
0
LINE
8
0
6
CONTINUOUS
10
0.095602
20
-0.063442
30
0.0
11
0.095602
21
-0.062812
31
0.0
0
LINE
8
0
6
CONTINUOUS
10
0.095602
20
-0.062812
30
0.0
11
0.095602
21
-0.062125
31
0.0
0
LINE
8
0
6
CONTINUOUS
10
0.095607
20
-0.060069
30
0.0
11
0.095610
21
-0.059595
31
0.0
0
LINE
8
0
6
CONTINUOUS
10
0.069142
20
-0.041192
30
0.0
11
0.068241
21
-0.040630
31
0.0
0
LINE
8
0
6
CONTINUOUS
10
0.068444
20
-0.040877
30
0.0
11
0.066609
21
-0.038482
31
0.0
0
LINE
8
0
6
CONTINUOUS
10
0.068363
20
-0.043904
30
0.0
11
0.066079
21
-0.040996
31
0.0
0
LINE
8
0
6
CONTINUOUS
10
0.066079
20
-0.040996
30
0.0
11
0.061607
21
-0.035304
31
0.0
0
LINE
8
0
6
CONTINUOUS
10
0.066609
20
-0.038482
30
0.0
11
0.063017
21
-0.033909
31
0.0
0
LINE
8
0
6
CONTINUOUS
10
0.032278
20
-0.009063
30
0.0
11
0.056200
21
-0.039448
31
0.0
0
LINE
8
0
6
CONTINUOUS
10
0.071325
20
-0.041780
30
0.0
11
0.070040
21
-0.041666
31
0.0
0
LINE
8
0
6
CONTINUOUS
10
0.060403
20
-0.057780
30
0.0
11
0.060403
21
-0.058467
31
0.0
0
LINE
8
0
6
CONTINUOUS
10
0.060403
20
-0.058467
30
0.0
11
0.060403
21
-0.059154
31
0.0
0
LINE
8
0
6
CONTINUOUS
10
0.060403
20
-0.057093
30
0.0
11
0.060403
21
-0.057780
31
0.0
0
LINE
8
0
6
CONTINUOUS
10
0.062256
20
-0.046787
30
0.0
11
0.061943
21
-0.045747
31
0.0
0
LINE
8
0
6
CONTINUOUS
10
0.061628
20
-0.046416
30
0.0
11
0.062039
21
-0.047375
31
0.0
0
LINE
8
0
6
CONTINUOUS
10
0.062365
20
-0.049075
30
0.0
11
0.062449
21
-0.050379
31
0.0
0
LINE
8
0
6
CONTINUOUS
10
0.060403
20
-0.059154
30
0.0
11
0.060403
21
-0.059841
31
0.0
0
LINE
8
0
6
CONTINUOUS
10
0.060403
20
-0.059841
30
0.0
11
0.060403
21
-0.060472
31
0.0
0
LINE
8
0
6
CONTINUOUS
10
0.060403
20
-0.060472
30
0.0
11
0.060403
21
-0.065095
31
0.0
0
LINE
8
0
6
CONTINUOUS
10
0.060403
20
-0.056616
30
0.0
11
0.060403
21
-0.057093
31
0.0
0
LINE
8
0
6
CONTINUOUS
10
0.059793
20
-0.044021
30
0.0
11
0.061628
21
-0.046416
31
0.0
0
LINE
8
0
6
CONTINUOUS
10
0.067374
20
-0.045245
30
0.0
11
0.065203
21
-0.042503
31
0.0
0
LINE
8
0
6
CONTINUOUS
10
0.063470
20
-0.043115
30
0.0
11
0.065754
21
-0.046023
31
0.0
0
LINE
8
0
6
CONTINUOUS
10
0.035077
20
-0.007038
30
0.0
11
0.058999
21
-0.037423
31
0.0
0
LINE
8
0
6
CONTINUOUS
10
0.065203
20
-0.042503
30
0.0
11
0.060360
21
-0.036338
31
0.0
0
LINE
8
0
6
CONTINUOUS
10
0.056200
20
-0.039448
30
0.0
11
0.059793
21
-0.044021
31
0.0
0
LINE
8
0
6
CONTINUOUS
10
0.063470
20
-0.043115
30
0.0
11
0.058999
21
-0.037423
31
0.0
0
LINE
8
0
6
CONTINUOUS
10
0.062438
20
-0.048450
30
0.0
11
0.062428
21
-0.049733
31
0.0
0
LINE
8
0
6
CONTINUOUS
10
0.070612
20
-0.041809
30
0.0
11
0.069142
21
-0.041192
31
0.0
0
LINE
8
0
6
CONTINUOUS
10
0.072243
20
-0.051171
30
0.0
11
0.069624
21
-0.048029
31
0.0
0
LINE
8
0
6
CONTINUOUS
10
0.062039
20
-0.047375
30
0.0
11
0.062365
21
-0.049075
31
0.0
0
LINE
8
0
6
CONTINUOUS
10
0.062256
20
-0.046787
30
0.0
11
0.062438
21
-0.048450
31
0.0
0
LINE
8
0
6
CONTINUOUS
10
0.037685
20
-0.004919
30
0.0
11
0.037438
21
-0.004604
31
0.0
0
LINE
8
0
6
CONTINUOUS
10
0.036191
20
-0.005637
30
0.0
11
0.037438
21
-0.004604
31
0.0
0
LINE
8
0
6
CONTINUOUS
10
0.038610
20
-0.003552
30
0.0
11
0.038876
21
-0.003289
31
0.0
0
LINE
8
0
6
CONTINUOUS
10
0.037438
20
-0.004604
30
0.0
11
0.037909
21
-0.004191
31
0.0
0
LINE
8
0
6
CONTINUOUS
10
0.039095
20
-0.003524
30
0.0
11
0.038847
21
-0.003209
31
0.0
0
LINE
8
0
6
CONTINUOUS
10
0.038876
20
-0.003289
30
0.0
11
0.038847
21
-0.003209
31
0.0
0
LINE
8
0
6
CONTINUOUS
10
0.038847
20
-0.003209
30
0.0
11
0.038300
21
-0.003550
31
0.0
0
LINE
8
0
6
CONTINUOUS
10
0.038300
20
-0.003550
30
0.0
11
0.037318
21
-0.004261
31
0.0
0
LINE
8
0
6
CONTINUOUS
10
0.037318
20
-0.004261
30
0.0
11
0.036049
21
-0.005234
31
0.0
0
LINE
8
0
6
CONTINUOUS
10
0.036049
20
-0.005234
30
0.0
11
0.034687
21
-0.006319
31
0.0
0
LINE
8
0
6
CONTINUOUS
10
0.036438
20
-0.005952
30
0.0
11
0.036191
21
-0.005637
31
0.0
0
LINE
8
0
6
CONTINUOUS
10
0.036191
20
-0.005637
30
0.0
11
0.034829
21
-0.006723
31
0.0
0
LINE
8
0
6
CONTINUOUS
10
0.032578
20
-0.008406
30
0.0
11
0.033104
21
-0.008026
31
0.0
0
LINE
8
0
6
CONTINUOUS
10
0.035077
20
-0.007038
30
0.0
11
0.034829
21
-0.006723
31
0.0
0
LINE
8
0
6
CONTINUOUS
10
0.034829
20
-0.006723
30
0.0
11
0.034195
21
-0.007209
31
0.0
0
LINE
8
0
6
CONTINUOUS
10
0.032031
20
-0.008748
30
0.0
11
0.032278
21
-0.009063
31
0.0
0
LINE
8
0
6
CONTINUOUS
10
0.032578
20
-0.008406
30
0.0
11
0.032031
21
-0.008748
31
0.0
0
LINE
8
0
6
CONTINUOUS
10
0.032002
20
-0.008667
30
0.0
11
0.032031
21
-0.008748
31
0.0
0
LINE
8
0
6
CONTINUOUS
10
0.032497
20
-0.008178
30
0.0
11
0.032002
21
-0.008667
31
0.0
0
LINE
8
0
6
CONTINUOUS
10
0.033440
20
-0.007353
30
0.0
11
0.032497
21
-0.008178
31
0.0
0
LINE
8
0
6
CONTINUOUS
10
0.034687
20
-0.006319
30
0.0
11
0.033440
21
-0.007353
31
0.0
0
LINE
8
0
6
CONTINUOUS
10
0.061607
20
-0.035304
30
0.0
11
0.037685
21
-0.004919
31
0.0
0
LINE
8
0
6
CONTINUOUS
10
0.036438
20
-0.005952
30
0.0
11
0.060360
21
-0.036338
31
0.0
0
LINE
8
0
6
CONTINUOUS
10
0.093944
20
-0.050658
30
0.0
11
0.091526
21
-0.046912
31
0.0
0
LINE
8
0
6
CONTINUOUS
10
0.091526
20
-0.046912
30
0.0
11
0.088135
21
-0.043957
31
0.0
0
LINE
8
0
6
CONTINUOUS
10
0.095610
20
-0.059595
30
0.0
11
0.095611
21
-0.059387
31
0.0
0
LINE
8
0
6
CONTINUOUS
10
0.095611
20
-0.059387
30
0.0
11
0.094560
21
-0.063810
31
0.0
0
LINE
8
0
6
CONTINUOUS
10
0.094560
20
-0.063810
30
0.0
11
0.092405
21
-0.067703
31
0.0
0
LINE
8
0
6
CONTINUOUS
10
0.092405
20
-0.067703
30
0.0
11
0.089352
21
-0.070986
31
0.0
0
LINE
8
0
6
CONTINUOUS
10
0.095611
20
-0.059387
30
0.0
11
0.095369
21
-0.054854
31
0.0
0
LINE
8
0
6
CONTINUOUS
10
0.084115
20
-0.041870
30
0.0
11
0.079546
21
-0.040852
31
0.0
0
LINE
8
0
6
CONTINUOUS
10
0.088135
20
-0.043957
30
0.0
11
0.084115
21
-0.041870
31
0.0
0
LINE
8
0
6
CONTINUOUS
10
0.079546
20
-0.040852
30
0.0
11
0.074865
21
-0.041086
31
0.0
0
LINE
8
0
6
CONTINUOUS
10
0.095369
20
-0.054854
30
0.0
11
0.093944
21
-0.050658
31
0.0
0
LINE
8
0
6
CONTINUOUS
10
0.067551
20
-0.040783
30
0.0
11
0.065860
21
-0.038652
31
0.0
0
LINE
8
0
6
CONTINUOUS
10
0.072291
20
-0.041702
30
0.0
11
0.071325
21
-0.041780
31
0.0
0
LINE
8
0
6
CONTINUOUS
10
0.074865
20
-0.041086
30
0.0
11
0.072291
21
-0.041702
31
0.0
0
LINE
8
0
6
CONTINUOUS
10
0.064488
20
-0.068881
30
0.0
11
0.067879
21
-0.071836
31
0.0
0
LINE
8
0
6
CONTINUOUS
10
0.062070
20
-0.065135
30
0.0
11
0.064488
21
-0.068881
31
0.0
0
LINE
8
0
6
CONTINUOUS
10
0.076468
20
-0.074941
30
0.0
11
0.081149
21
-0.074707
31
0.0
0
LINE
8
0
6
CONTINUOUS
10
0.081149
20
-0.074707
30
0.0
11
0.085483
21
-0.073327
31
0.0
0
LINE
8
0
6
CONTINUOUS
10
0.085483
20
-0.073327
30
0.0
11
0.089352
21
-0.070986
31
0.0
0
LINE
8
0
6
CONTINUOUS
10
0.071899
20
-0.073923
30
0.0
11
0.076468
21
-0.074941
31
0.0
0
LINE
8
0
6
CONTINUOUS
10
0.060645
20
-0.060939
30
0.0
11
0.060403
21
-0.056406
31
0.0
0
LINE
8
0
6
CONTINUOUS
10
0.062070
20
-0.065135
30
0.0
11
0.060645
21
-0.060939
31
0.0
0
LINE
8
0
6
CONTINUOUS
10
0.061454
20
-0.051983
30
0.0
11
0.060403
21
-0.056406
31
0.0
0
LINE
8
0
6
CONTINUOUS
10
0.067879
20
-0.071836
30
0.0
11
0.071899
21
-0.073923
31
0.0
0
LINE
8
0
6
CONTINUOUS
10
0.062773
20
-0.048728
30
0.0
11
0.062527
21
-0.049635
31
0.0
0
LINE
8
0
6
CONTINUOUS
10
0.062527
20
-0.049635
30
0.0
11
0.061454
21
-0.051983
31
0.0
0
LINE
8
0
6
CONTINUOUS
10
0.068557
20
-0.041250
30
0.0
11
0.070040
21
-0.041666
31
0.0
0
LINE
8
0
6
CONTINUOUS
10
0.062930
20
-0.047443
30
0.0
11
0.062882
21
-0.045861
31
0.0
0
LINE
8
0
6
CONTINUOUS
10
0.062773
20
-0.048728
30
0.0
11
0.062930
21
-0.047443
31
0.0
0
LINE
8
0
6
CONTINUOUS
10
0.068557
20
-0.041250
30
0.0
11
0.067551
21
-0.040783
31
0.0
0
LINE
8
0
6
CONTINUOUS
10
0.062649
20
-0.044766
30
0.0
11
0.062301
21
-0.045250
31
0.0
0
LINE
8
0
6
CONTINUOUS
10
0.062649
20
-0.044766
30
0.0
11
0.062882
21
-0.045861
31
0.0
0
LINE
8
0
6
CONTINUOUS
10
0.033560
20
-0.007695
30
0.0
11
0.033104
21
-0.008026
31
0.0
0
LINE
8
0
6
CONTINUOUS
10
0.034195
20
-0.007209
30
0.0
11
0.033560
21
-0.007695
31
0.0
0
LINE
8
0
6
CONTINUOUS
10
0.038381
20
-0.003779
30
0.0
11
0.038610
21
-0.003552
31
0.0
0
LINE
8
0
6
CONTINUOUS
10
0.037909
20
-0.004191
30
0.0
11
0.038381
21
-0.003779
31
0.0
0
LINE
8
0
6
CONTINUOUS
10
0.095600
20
-0.068169
30
0.0
11
0.095600
21
-0.068064
31
0.0
0
LINE
8
0
6
CONTINUOUS
10
0.094527
20
-0.072565
30
0.0
11
0.095600
21
-0.068169
31
0.0
0
LINE
8
0
6
CONTINUOUS
10
0.089352
20
-0.079780
30
0.0
11
0.092395
21
-0.076486
31
0.0
0
LINE
8
0
6
CONTINUOUS
10
0.092395
20
-0.076486
30
0.0
11
0.094527
21
-0.072565
31
0.0
0
LINE
8
0
6
CONTINUOUS
10
0.071883
20
-0.082698
30
0.0
11
0.076457
21
-0.083723
31
0.0
0
LINE
8
0
6
CONTINUOUS
10
0.060403
20
-0.065200
30
0.0
11
0.060645
21
-0.069733
31
0.0
0
LINE
8
0
6
CONTINUOUS
10
0.060403
20
-0.065095
30
0.0
11
0.060403
21
-0.065200
31
0.0
0
LINE
8
0
6
CONTINUOUS
10
0.076457
20
-0.083723
30
0.0
11
0.081116
21
-0.083462
31
0.0
0
LINE
8
0
6
CONTINUOUS
10
0.060645
20
-0.069733
30
0.0
11
0.062070
21
-0.073929
31
0.0
0
LINE
8
0
6
CONTINUOUS
10
0.085473
20
-0.082110
30
0.0
11
0.089352
21
-0.079780
31
0.0
0
LINE
8
0
6
CONTINUOUS
10
0.062070
20
-0.073929
30
0.0
11
0.064488
21
-0.077675
31
0.0
0
LINE
8
0
6
CONTINUOUS
10
0.064488
20
-0.077675
30
0.0
11
0.067865
21
-0.080614
31
0.0
0
LINE
8
0
6
CONTINUOUS
10
0.081116
20
-0.083462
30
0.0
11
0.085473
21
-0.082110
31
0.0
0
LINE
8
0
6
CONTINUOUS
10
0.067865
20
-0.080614
30
0.0
11
0.071883
21
-0.082698
31
0.0
0
LINE
8
0
6
CONTINUOUS
10
0.092000
20
0.010500
30
0.0
11
0.092000
21
0.075970
31
0.0
0
LINE
8
0
6
CONTINUOUS
10
0.064000
20
0.075970
30
0.0
11
0.064000
21
0.010500
31
0.0
0
LINE
8
0
6
CONTINUOUS
10
0.063863
20
0.081977
30
0.0
11
0.064000
21
0.075970
31
0.0
0
LINE
8
0
6
CONTINUOUS
10
0.092000
20
0.075970
30
0.0
11
0.090606
21
0.090273
31
0.0
0
LINE
8
0
6
CONTINUOUS
10
0.061953
20
0.087674
30
0.0
11
0.063863
21
0.081977
31
0.0
0
LINE
8
0
6
CONTINUOUS
10
0.090606
20
0.090273
30
0.0
11
0.085038
21
0.103521
31
0.0
0
LINE
8
0
6
CONTINUOUS
10
0.058441
20
0.092550
30
0.0
11
0.061953
21
0.087674
31
0.0
0
LINE
8
0
6
CONTINUOUS
10
0.085038
20
0.103521
30
0.0
11
0.075794
21
0.114524
31
0.0
0
LINE
8
0
6
CONTINUOUS
10
0.053642
20
0.096165
30
0.0
11
0.058441
21
0.092550
31
0.0
0
LINE
8
0
6
CONTINUOUS
10
0.075794
20
0.114524
30
0.0
11
0.063705
21
0.122294
31
0.0
0
LINE
8
0
6
CONTINUOUS
10
0.047987
20
0.098197
30
0.0
11
0.053642
21
0.096165
31
0.0
0
LINE
8
0
6
CONTINUOUS
10
0.063705
20
0.122294
30
0.0
11
0.049857
21
0.126134
31
0.0
0
LINE
8
0
6
CONTINUOUS
10
0.040936
20
0.098576
30
0.0
11
0.047987
21
0.098197
31
0.0
0
LINE
8
0
6
CONTINUOUS
10
0.049857
20
0.126134
30
0.0
11
0.041511
21
0.126514
31
0.0
0
LINE
8
0
6
CONTINUOUS
10
-0.100001
20
0.103527
30
0.0
11
-0.096612
21
0.103408
31
0.0
0
LINE
8
0
6
CONTINUOUS
10
-0.069585
20
0.102459
30
0.0
11
0.040936
21
0.098576
31
0.0
0
LINE
8
0
6
CONTINUOUS
10
0.041511
20
0.126514
30
0.0
11
-0.098380
21
0.131465
31
0.0
0
LINE
8
0
6
CONTINUOUS
10
-0.101000
20
0.103563
30
0.0
11
-0.100001
21
0.103527
31
0.0
0
LINE
8
0
6
CONTINUOUS
10
-0.100960
20
0.104246
30
0.0
11
-0.101000
21
0.103563
31
0.0
0
LINE
8
0
6
CONTINUOUS
10
-0.100845
20
0.106230
30
0.0
11
-0.100960
21
0.104246
31
0.0
0
LINE
8
0
6
CONTINUOUS
10
-0.100666
20
0.109321
30
0.0
11
-0.100845
21
0.106230
31
0.0
0
LINE
8
0
6
CONTINUOUS
10
-0.100440
20
0.113215
30
0.0
11
-0.100666
21
0.109321
31
0.0
0
LINE
8
0
6
CONTINUOUS
10
-0.100189
20
0.117531
30
0.0
11
-0.100440
21
0.113215
31
0.0
0
LINE
8
0
6
CONTINUOUS
10
-0.099939
20
0.121848
30
0.0
11
-0.100189
21
0.117531
31
0.0
0
LINE
8
0
6
CONTINUOUS
10
-0.099713
20
0.125742
30
0.0
11
-0.099939
21
0.121848
31
0.0
0
LINE
8
0
6
CONTINUOUS
10
-0.099534
20
0.128832
30
0.0
11
-0.099713
21
0.125742
31
0.0
0
LINE
8
0
6
CONTINUOUS
10
-0.099419
20
0.130816
30
0.0
11
-0.099534
21
0.128832
31
0.0
0
LINE
8
0
6
CONTINUOUS
10
-0.098380
20
0.131465
30
0.0
11
-0.099379
21
0.131500
31
0.0
0
LINE
8
0
6
CONTINUOUS
10
-0.099379
20
0.131500
30
0.0
11
-0.099419
21
0.130816
31
0.0
0
LINE
8
0
6
CONTINUOUS
10
0.064000
20
0.009500
30
0.0
11
0.064685
21
0.009500
31
0.0
0
LINE
8
0
6
CONTINUOUS
10
0.064000
20
0.010500
30
0.0
11
0.064000
21
0.009500
31
0.0
0
LINE
8
0
6
CONTINUOUS
10
0.064685
20
0.009500
30
0.0
11
0.066674
21
0.009500
31
0.0
0
LINE
8
0
6
CONTINUOUS
10
0.066674
20
0.009500
30
0.0
11
0.069771
21
0.009500
31
0.0
0
LINE
8
0
6
CONTINUOUS
10
0.069771
20
0.009500
30
0.0
11
0.073674
21
0.009500
31
0.0
0
LINE
8
0
6
CONTINUOUS
10
0.073674
20
0.009500
30
0.0
11
0.078000
21
0.009500
31
0.0
0
LINE
8
0
6
CONTINUOUS
10
0.078000
20
0.009500
30
0.0
11
0.082326
21
0.009500
31
0.0
0
LINE
8
0
6
CONTINUOUS
10
0.082326
20
0.009500
30
0.0
11
0.086229
21
0.009500
31
0.0
0
LINE
8
0
6
CONTINUOUS
10
0.086229
20
0.009500
30
0.0
11
0.089326
21
0.009500
31
0.0
0
LINE
8
0
6
CONTINUOUS
10
0.089326
20
0.009500
30
0.0
11
0.091315
21
0.009500
31
0.0
0
LINE
8
0
6
CONTINUOUS
10
0.092000
20
0.009500
30
0.0
11
0.092000
21
0.010500
31
0.0
0
LINE
8
0
6
CONTINUOUS
10
0.091315
20
0.009500
30
0.0
11
0.092000
21
0.009500
31
0.0
0
LINE
8
0
6
CONTINUOUS
10
-0.071313
20
0.093325
30
0.0
11
-0.071155
21
0.094267
31
0.0
0
LINE
8
0
6
CONTINUOUS
10
-0.071955
20
0.093448
30
0.0
11
-0.071313
21
0.093325
31
0.0
0
LINE
8
0
6
CONTINUOUS
10
-0.073819
20
0.093806
30
0.0
11
-0.071955
21
0.093448
31
0.0
0
LINE
8
0
6
CONTINUOUS
10
-0.076722
20
0.094362
30
0.0
11
-0.073819
21
0.093806
31
0.0
0
LINE
8
0
6
CONTINUOUS
10
-0.080381
20
0.095063
30
0.0
11
-0.076722
21
0.094362
31
0.0
0
LINE
8
0
6
CONTINUOUS
10
-0.084436
20
0.095840
30
0.0
11
-0.080381
21
0.095063
31
0.0
0
LINE
8
0
6
CONTINUOUS
10
-0.088491
20
0.096617
30
0.0
11
-0.084436
21
0.095840
31
0.0
0
LINE
8
0
6
CONTINUOUS
10
-0.092149
20
0.097317
30
0.0
11
-0.088491
21
0.096617
31
0.0
0
LINE
8
0
6
CONTINUOUS
10
-0.095052
20
0.097874
30
0.0
11
-0.092149
21
0.097317
31
0.0
0
LINE
8
0
6
CONTINUOUS
10
-0.096916
20
0.098231
30
0.0
11
-0.095052
21
0.097874
31
0.0
0
LINE
8
0
6
CONTINUOUS
10
-0.097400
20
0.099296
30
0.0
11
-0.097558
21
0.098354
31
0.0
0
LINE
8
0
6
CONTINUOUS
10
-0.097558
20
0.098354
30
0.0
11
-0.096916
21
0.098231
31
0.0
0
LINE
8
0
6
CONTINUOUS
10
-0.071155
20
0.094267
30
0.0
11
-0.069585
21
0.102459
31
0.0
0
LINE
8
0
6
CONTINUOUS
10
-0.096612
20
0.103409
30
0.0
11
-0.097400
21
0.099296
31
0.0
0
LINE
8
0
6
CONTINUOUS
10
-0.099581
20
0.128014
30
0.0
11
-0.099474
21
0.129855
31
0.0
0
LINE
8
0
6
CONTINUOUS
10
0.057891
20
-0.086203
30
0.0
11
0.057304
21
-0.095397
31
0.0
0
LINE
8
0
6
CONTINUOUS
10
0.098696
20
-0.095397
30
0.0
11
0.098109
21
-0.086203
31
0.0
0
LINE
8
0
6
CONTINUOUS
10
0.063936
20
0.008502
30
0.0
11
0.061363
21
-0.031809
31
0.0
0
LINE
8
0
6
CONTINUOUS
10
0.060523
20
-0.044974
30
0.0
11
0.059815
21
-0.056068
31
0.0
0
LINE
8
0
6
CONTINUOUS
10
0.096185
20
-0.056068
30
0.0
11
0.092064
21
0.008502
31
0.0
0
LINE
8
0
6
CONTINUOUS
10
0.084324
20
-0.094112
30
0.0
11
0.084171
21
-0.090393
31
0.0
0
LINE
8
0
6
CONTINUOUS
10
0.095666
20
-0.073836
30
0.0
11
0.095666
21
-0.073560
31
0.0
0
LINE
8
0
6
CONTINUOUS
10
0.082326
20
0.009500
30
0.0
11
0.078000
21
0.009500
31
0.0
0
LINE
8
0
6
CONTINUOUS
10
0.086229
20
0.009500
30
0.0
11
0.082326
21
0.009500
31
0.0
0
LINE
8
0
6
CONTINUOUS
10
0.089326
20
0.009500
30
0.0
11
0.086229
21
0.009500
31
0.0
0
LINE
8
0
6
CONTINUOUS
10
0.091315
20
0.009500
30
0.0
11
0.089326
21
0.009500
31
0.0
0
LINE
8
0
6
CONTINUOUS
10
0.092000
20
0.009500
30
0.0
11
0.091315
21
0.009500
31
0.0
0
LINE
8
0
6
CONTINUOUS
10
0.092064
20
0.008502
30
0.0
11
0.092000
21
0.009500
31
0.0
0
LINE
8
0
6
CONTINUOUS
10
0.101000
20
-0.131500
30
0.0
11
0.100936
21
-0.130502
31
0.0
0
LINE
8
0
6
CONTINUOUS
10
0.099874
20
-0.131500
30
0.0
11
0.101000
21
-0.131500
31
0.0
0
LINE
8
0
6
CONTINUOUS
10
0.096607
20
-0.131500
30
0.0
11
0.099874
21
-0.131500
31
0.0
0
LINE
8
0
6
CONTINUOUS
10
0.091519
20
-0.131500
30
0.0
11
0.096607
21
-0.131500
31
0.0
0
LINE
8
0
6
CONTINUOUS
10
0.085107
20
-0.131500
30
0.0
11
0.091519
21
-0.131500
31
0.0
0
LINE
8
0
6
CONTINUOUS
10
0.078000
20
-0.131500
30
0.0
11
0.085107
21
-0.131500
31
0.0
0
LINE
8
0
6
CONTINUOUS
10
0.095666
20
-0.073560
30
0.0
11
0.095663
21
-0.067577
31
0.0
0
LINE
8
0
6
CONTINUOUS
10
0.083456
20
-0.083590
30
0.0
11
0.078000
21
-0.084427
31
0.0
0
LINE
8
0
6
CONTINUOUS
10
0.088380
20
-0.081162
30
0.0
11
0.083456
21
-0.083590
31
0.0
0
LINE
8
0
6
CONTINUOUS
10
0.092288
20
-0.077379
30
0.0
11
0.088380
21
-0.081162
31
0.0
0
LINE
8
0
6
CONTINUOUS
10
0.094798
20
-0.072612
30
0.0
11
0.092288
21
-0.077379
31
0.0
0
LINE
8
0
6
CONTINUOUS
10
0.095663
20
-0.067577
30
0.0
11
0.095663
21
-0.067327
31
0.0
0
LINE
8
0
6
CONTINUOUS
10
0.094798
20
-0.072612
30
0.0
11
0.095663
21
-0.067327
31
0.0
0
LINE
8
0
6
CONTINUOUS
10
0.100936
20
-0.130502
30
0.0
11
0.098696
21
-0.095397
31
0.0
0
LINE
8
0
6
CONTINUOUS
10
0.098109
20
-0.086203
30
0.0
11
0.097801
21
-0.081387
31
0.0
0
LINE
8
0
6
CONTINUOUS
10
0.097801
20
-0.081387
30
0.0
11
0.097465
21
-0.076117
31
0.0
0
LINE
8
0
6
CONTINUOUS
10
0.084171
20
-0.090393
30
0.0
11
0.084014
21
-0.087797
31
0.0
0
LINE
8
0
6
CONTINUOUS
10
0.096722
20
-0.064475
30
0.0
11
0.096185
21
-0.056068
31
0.0
0
LINE
8
0
6
CONTINUOUS
10
0.097078
20
-0.070050
30
0.0
11
0.096722
21
-0.064475
31
0.0
0
LINE
8
0
6
CONTINUOUS
10
0.097465
20
-0.076117
30
0.0
11
0.097078
21
-0.070050
31
0.0
0
LINE
8
0
6
CONTINUOUS
10
0.078000
20
-0.095163
30
0.0
11
0.078000
21
-0.091392
31
0.0
0
LINE
8
0
6
CONTINUOUS
10
0.071829
20
-0.090393
30
0.0
11
0.071676
21
-0.094112
31
0.0
0
LINE
8
0
6
CONTINUOUS
10
0.060334
20
-0.073560
30
0.0
11
0.060334
21
-0.073836
31
0.0
0
LINE
8
0
6
CONTINUOUS
10
0.078000
20
0.009500
30
0.0
11
0.073674
21
0.009500
31
0.0
0
LINE
8
0
6
CONTINUOUS
10
0.073674
20
0.009500
30
0.0
11
0.069771
21
0.009500
31
0.0
0
LINE
8
0
6
CONTINUOUS
10
0.069771
20
0.009500
30
0.0
11
0.066674
21
0.009500
31
0.0
0
LINE
8
0
6
CONTINUOUS
10
0.066674
20
0.009500
30
0.0
11
0.064685
21
0.009500
31
0.0
0
LINE
8
0
6
CONTINUOUS
10
0.064000
20
0.009500
30
0.0
11
0.063936
21
0.008502
31
0.0
0
LINE
8
0
6
CONTINUOUS
10
0.064685
20
0.009500
30
0.0
11
0.064000
21
0.009500
31
0.0
0
LINE
8
0
6
CONTINUOUS
10
0.055000
20
-0.131500
30
0.0
11
0.056126
21
-0.131500
31
0.0
0
LINE
8
0
6
CONTINUOUS
10
0.055064
20
-0.130502
30
0.0
11
0.055000
21
-0.131500
31
0.0
0
LINE
8
0
6
CONTINUOUS
10
0.056126
20
-0.131500
30
0.0
11
0.059393
21
-0.131500
31
0.0
0
LINE
8
0
6
CONTINUOUS
10
0.059393
20
-0.131500
30
0.0
11
0.064481
21
-0.131500
31
0.0
0
LINE
8
0
6
CONTINUOUS
10
0.064481
20
-0.131500
30
0.0
11
0.070893
21
-0.131500
31
0.0
0
LINE
8
0
6
CONTINUOUS
10
0.070893
20
-0.131500
30
0.0
11
0.078000
21
-0.131500
31
0.0
0
LINE
8
0
6
CONTINUOUS
10
0.060337
20
-0.067577
30
0.0
11
0.060334
21
-0.073560
31
0.0
0
LINE
8
0
6
CONTINUOUS
10
0.078000
20
-0.084427
30
0.0
11
0.072544
21
-0.083590
31
0.0
0
LINE
8
0
6
CONTINUOUS
10
0.072544
20
-0.083590
30
0.0
11
0.067620
21
-0.081162
31
0.0
0
LINE
8
0
6
CONTINUOUS
10
0.067620
20
-0.081162
30
0.0
11
0.063712
21
-0.077379
31
0.0
0
LINE
8
0
6
CONTINUOUS
10
0.063712
20
-0.077379
30
0.0
11
0.061202
21
-0.072612
31
0.0
0
LINE
8
0
6
CONTINUOUS
10
0.060337
20
-0.067327
30
0.0
11
0.060337
21
-0.067577
31
0.0
0
LINE
8
0
6
CONTINUOUS
10
0.057304
20
-0.095397
30
0.0
11
0.055064
21
-0.130502
31
0.0
0
LINE
8
0
6
CONTINUOUS
10
0.078000
20
-0.099558
30
0.0
11
0.078000
21
-0.095163
31
0.0
0
LINE
8
0
6
CONTINUOUS
10
0.058199
20
-0.081387
30
0.0
11
0.057891
21
-0.086203
31
0.0
0
LINE
8
0
6
CONTINUOUS
10
0.058535
20
-0.076117
30
0.0
11
0.058199
21
-0.081387
31
0.0
0
LINE
8
0
6
CONTINUOUS
10
0.071986
20
-0.087797
30
0.0
11
0.071829
21
-0.090393
31
0.0
0
LINE
8
0
6
CONTINUOUS
10
0.078000
20
-0.091392
30
0.0
11
0.078000
21
-0.088725
31
0.0
0
LINE
8
0
6
CONTINUOUS
10
0.059815
20
-0.056068
30
0.0
11
0.059278
21
-0.064475
31
0.0
0
LINE
8
0
6
CONTINUOUS
10
0.059278
20
-0.064475
30
0.0
11
0.058922
21
-0.070050
31
0.0
0
LINE
8
0
6
CONTINUOUS
10
0.058922
20
-0.070050
30
0.0
11
0.058535
21
-0.076117
31
0.0
0
LINE
8
0
6
CONTINUOUS
10
-0.096612
20
0.103408
30
0.0
11
-0.095826
21
0.104035
31
0.0
0
LINE
8
0
6
CONTINUOUS
10
-0.095826
20
0.104035
30
0.0
11
-0.095720
21
0.104062
31
0.0
0
LINE
8
0
6
CONTINUOUS
10
-0.095720
20
0.104062
30
0.0
11
-0.093558
21
0.105785
31
0.0
0
LINE
8
0
6
CONTINUOUS
10
-0.072033
20
0.105217
30
0.0
11
-0.074155
21
0.107878
31
0.0
0
LINE
8
0
6
CONTINUOUS
10
-0.071693
20
0.105017
30
0.0
11
-0.072033
21
0.105217
31
0.0
0
LINE
8
0
6
CONTINUOUS
10
-0.069585
20
0.102459
30
0.0
11
-0.070122
21
0.103132
31
0.0
0
LINE
8
0
6
CONTINUOUS
10
-0.080914
20
0.112527
30
0.0
11
-0.081193
21
0.112879
31
0.0
0
LINE
8
0
6
CONTINUOUS
10
-0.081602
20
0.112551
30
0.0
11
-0.081193
21
0.112879
31
0.0
0
LINE
8
0
6
CONTINUOUS
10
-0.080914
20
0.112527
30
0.0
11
-0.077306
21
0.111223
31
0.0
0
LINE
8
0
6
CONTINUOUS
10
-0.075071
20
0.108420
30
0.0
11
-0.077306
21
0.111223
31
0.0
0
LINE
8
0
6
CONTINUOUS
10
-0.085658
20
0.111517
30
0.0
11
-0.081602
21
0.112551
31
0.0
0
LINE
8
0
6
CONTINUOUS
10
-0.088930
20
0.108908
30
0.0
11
-0.085658
21
0.111517
31
0.0
0
LINE
8
0
6
CONTINUOUS
10
-0.075071
20
0.108420
30
0.0
11
-0.074155
21
0.107878
31
0.0
0
LINE
8
0
6
CONTINUOUS
10
-0.093147
20
0.105960
30
0.0
11
-0.090041
21
0.108437
31
0.0
0
LINE
8
0
6
CONTINUOUS
10
-0.093558
20
0.105785
30
0.0
11
-0.093147
21
0.105960
31
0.0
0
LINE
8
0
6
CONTINUOUS
10
-0.070122
20
0.103132
30
0.0
11
-0.070217
21
0.103166
31
0.0
0
LINE
8
0
6
CONTINUOUS
10
-0.070217
20
0.103166
30
0.0
11
-0.071693
21
0.105017
31
0.0
0
LINE
8
0
6
CONTINUOUS
10
-0.090041
20
0.108437
30
0.0
11
-0.088930
21
0.108908
31
0.0
0
ENDSEC
0
EOF
