999
Erzeugt mit innoplus bad 
0
SECTION
2
HEADER
9
$ACADVER
1
AC1009
9
$DWGCODEPAGE
3
ISO8859-1
0
ENDSEC
0
SECTION
2
TABLES
0
TABLE
2
LAYER
70
1
0
LAYER
2
0
70
0
62
7
6
CONTINUOUS
0
ENDTAB
0
ENDSEC
0
SECTION
2
ENTITIES
0
LINE
8
0
6
CONTINUOUS
10
0.076725
20
-0.100826
30
0.0
11
0.077137
21
-0.100134
31
0.0
0
LINE
8
0
6
CONTINUOUS
10
0.082203
20
-0.098581
30
0.0
11
0.079023
21
-0.098802
31
0.0
0
LINE
8
0
6
CONTINUOUS
10
0.079758
20
-0.098982
30
0.0
11
0.083594
21
-0.098841
31
0.0
0
LINE
8
0
6
CONTINUOUS
10
0.086153
20
-0.098503
30
0.0
11
0.084065
21
-0.098590
31
0.0
0
LINE
8
0
6
CONTINUOUS
10
0.078598
20
-0.098216
30
0.0
11
0.082016
21
-0.098503
31
0.0
0
LINE
8
0
6
CONTINUOUS
10
0.076991
20
-0.100084
30
0.0
11
0.077551
21
-0.099803
31
0.0
0
LINE
8
0
6
CONTINUOUS
10
0.076348
20
-0.099295
30
0.0
11
0.075762
21
-0.099671
31
0.0
0
LINE
8
0
6
CONTINUOUS
10
0.083601
20
-0.096560
30
0.0
11
0.080030
21
-0.096112
31
0.0
0
LINE
8
0
6
CONTINUOUS
10
0.074947
20
-0.100826
30
0.0
11
0.075215
21
-0.100134
31
0.0
0
LINE
8
0
6
CONTINUOUS
10
0.074705
20
-0.101526
30
0.0
11
0.074947
21
-0.100826
31
0.0
0
LINE
8
0
6
CONTINUOUS
10
0.075762
20
-0.099671
30
0.0
11
0.075215
21
-0.100134
31
0.0
0
LINE
8
0
6
CONTINUOUS
10
0.076120
20
-0.098378
30
0.0
11
0.078598
21
-0.098216
31
0.0
0
LINE
8
0
6
CONTINUOUS
10
0.076470
20
-0.096816
30
0.0
11
0.075260
21
-0.097499
31
0.0
0
LINE
8
0
6
CONTINUOUS
10
0.075260
20
-0.097499
30
0.0
11
0.074141
21
-0.098403
31
0.0
0
LINE
8
0
6
CONTINUOUS
10
0.074141
20
-0.098403
30
0.0
11
0.073288
21
-0.099512
31
0.0
0
LINE
8
0
6
CONTINUOUS
10
0.073288
20
-0.099512
30
0.0
11
0.072620
21
-0.100382
31
0.0
0
LINE
8
0
6
CONTINUOUS
10
0.076202
20
-0.097113
30
0.0
11
0.078507
21
-0.096612
31
0.0
0
LINE
8
0
6
CONTINUOUS
10
0.085286
20
-0.096560
30
0.0
11
0.083601
21
-0.096560
31
0.0
0
LINE
8
0
6
CONTINUOUS
10
0.085148
20
-0.098503
30
0.0
11
0.086153
21
-0.098503
31
0.0
0
LINE
8
0
6
CONTINUOUS
10
0.083826
20
-0.098503
30
0.0
11
0.084561
21
-0.098503
31
0.0
0
LINE
8
0
6
CONTINUOUS
10
0.083846
20
-0.097051
30
0.0
11
0.084693
21
-0.097051
31
0.0
0
LINE
8
0
6
CONTINUOUS
10
0.085839
20
-0.098855
30
0.0
11
0.084065
21
-0.098590
31
0.0
0
LINE
8
0
6
CONTINUOUS
10
0.083594
20
-0.098841
30
0.0
11
0.085839
21
-0.098855
31
0.0
0
LINE
8
0
6
CONTINUOUS
10
0.086194
20
-0.096560
30
0.0
11
0.085286
21
-0.096560
31
0.0
0
LINE
8
0
6
CONTINUOUS
10
0.086194
20
-0.096560
30
0.0
11
0.084926
21
-0.096923
31
0.0
0
LINE
8
0
6
CONTINUOUS
10
0.082026
20
-0.097051
30
0.0
11
0.083846
21
-0.097051
31
0.0
0
LINE
8
0
6
CONTINUOUS
10
0.083826
20
-0.098503
30
0.0
11
0.082016
21
-0.098503
31
0.0
0
LINE
8
0
6
CONTINUOUS
10
0.084561
20
-0.098503
30
0.0
11
0.085148
21
-0.098503
31
0.0
0
LINE
8
0
6
CONTINUOUS
10
0.079023
20
-0.098802
30
0.0
11
0.076348
21
-0.099295
31
0.0
0
LINE
8
0
6
CONTINUOUS
10
0.084926
20
-0.096923
30
0.0
11
0.084693
21
-0.097051
31
0.0
0
LINE
8
0
6
CONTINUOUS
10
0.077639
20
-0.096540
30
0.0
11
0.076470
21
-0.096816
31
0.0
0
LINE
8
0
6
CONTINUOUS
10
0.080030
20
-0.096112
30
0.0
11
0.077639
21
-0.096540
31
0.0
0
LINE
8
0
6
CONTINUOUS
10
0.076470
20
-0.096816
30
0.0
11
0.078607
21
-0.096401
31
0.0
0
LINE
8
0
6
CONTINUOUS
10
0.074010
20
-0.101245
30
0.0
11
0.068822
21
-0.125694
31
0.0
0
LINE
8
0
6
CONTINUOUS
10
0.074705
20
-0.101526
30
0.0
11
0.069253
21
-0.128112
31
0.0
0
LINE
8
0
6
CONTINUOUS
10
0.072620
20
-0.100382
30
0.0
11
0.068993
21
-0.116900
31
0.0
0
LINE
8
0
6
CONTINUOUS
10
0.085839
20
-0.098855
30
0.0
11
0.086515
21
-0.098590
31
0.0
0
LINE
8
0
6
CONTINUOUS
10
0.086153
20
-0.098503
30
0.0
11
0.086515
21
-0.098590
31
0.0
0
LINE
8
0
6
CONTINUOUS
10
0.086515
20
-0.098590
30
0.0
11
0.086835
21
-0.098503
31
0.0
0
LINE
8
0
6
CONTINUOUS
10
0.076359
20
-0.101526
30
0.0
11
0.076725
21
-0.100826
31
0.0
0
LINE
8
0
6
CONTINUOUS
10
0.076991
20
-0.100084
30
0.0
11
0.076518
21
-0.100554
31
0.0
0
LINE
8
0
6
CONTINUOUS
10
0.077137
20
-0.100134
30
0.0
11
0.077630
21
-0.099671
31
0.0
0
LINE
8
0
6
CONTINUOUS
10
0.086153
20
-0.098503
30
0.0
11
0.086835
21
-0.098503
31
0.0
0
LINE
8
0
6
CONTINUOUS
10
0.086925
20
-0.096923
30
0.0
11
0.086194
21
-0.096560
31
0.0
0
LINE
8
0
6
CONTINUOUS
10
0.086885
20
-0.098503
30
0.0
11
0.087037
21
-0.097487
31
0.0
0
LINE
8
0
6
CONTINUOUS
10
0.086835
20
-0.098503
30
0.0
11
0.086885
21
-0.098503
31
0.0
0
LINE
8
0
6
CONTINUOUS
10
0.077551
20
-0.099803
30
0.0
11
0.080736
21
-0.098802
31
0.0
0
LINE
8
0
6
CONTINUOUS
10
0.087037
20
-0.097487
30
0.0
11
0.086996
21
-0.097051
31
0.0
0
LINE
8
0
6
CONTINUOUS
10
0.086996
20
-0.097051
30
0.0
11
0.086925
21
-0.096923
31
0.0
0
LINE
8
0
6
CONTINUOUS
10
0.070584
20
-0.127763
30
0.0
11
0.076359
21
-0.101526
31
0.0
0
LINE
8
0
6
CONTINUOUS
10
0.068631
20
-0.121740
30
0.0
11
0.073013
21
-0.100705
31
0.0
0
LINE
8
0
6
CONTINUOUS
10
0.035321
20
0.102401
30
0.0
11
0.037118
21
0.102401
31
0.0
0
LINE
8
0
6
CONTINUOUS
10
0.034708
20
0.102401
30
0.0
11
0.035321
21
0.102401
31
0.0
0
LINE
8
0
6
CONTINUOUS
10
0.035620
20
0.102401
30
0.0
11
0.034708
21
0.102401
31
0.0
0
LINE
8
0
6
CONTINUOUS
10
0.037118
20
0.102401
30
0.0
11
0.039977
21
0.102401
31
0.0
0
LINE
8
0
6
CONTINUOUS
10
0.039977
20
0.102401
30
0.0
11
0.043704
21
0.102401
31
0.0
0
LINE
8
0
6
CONTINUOUS
10
0.043704
20
0.102401
30
0.0
11
0.048043
21
0.102401
31
0.0
0
LINE
8
0
6
CONTINUOUS
10
0.048043
20
0.102401
30
0.0
11
0.052699
21
0.102401
31
0.0
0
LINE
8
0
6
CONTINUOUS
10
0.070691
20
0.102401
30
0.0
11
0.070078
21
0.102401
31
0.0
0
LINE
8
0
6
CONTINUOUS
10
0.033699
20
0.097319
30
0.0
11
0.033699
21
0.096506
31
0.0
0
LINE
8
0
6
CONTINUOUS
10
0.032254
20
0.037870
30
0.0
11
0.032234
21
0.037057
31
0.0
0
LINE
8
0
6
CONTINUOUS
10
0.023004
20
0.046331
30
0.0
11
0.025472
21
0.047338
31
0.0
0
LINE
8
0
6
CONTINUOUS
10
0.026489
20
0.082897
30
0.0
11
0.022770
21
0.081239
31
0.0
0
LINE
8
0
6
CONTINUOUS
10
0.058649
20
-0.155000
30
0.0
11
0.064196
21
-0.155000
31
0.0
0
LINE
8
0
6
CONTINUOUS
10
0.068960
20
-0.155000
30
0.0
11
0.072616
21
-0.155000
31
0.0
0
LINE
8
0
6
CONTINUOUS
10
0.030476
20
-0.155000
30
0.0
11
0.032774
21
-0.155000
31
0.0
0
LINE
8
0
6
CONTINUOUS
10
0.046742
20
-0.155000
30
0.0
11
0.052695
21
-0.155000
31
0.0
0
LINE
8
0
6
CONTINUOUS
10
0.075698
20
-0.155000
30
0.0
11
0.075673
21
-0.154000
31
0.0
0
LINE
8
0
6
CONTINUOUS
10
0.074914
20
-0.155000
30
0.0
11
0.075698
21
-0.155000
31
0.0
0
LINE
8
0
6
CONTINUOUS
10
0.036430
20
-0.155000
30
0.0
11
0.041194
21
-0.155000
31
0.0
0
LINE
8
0
6
CONTINUOUS
10
0.052695
20
-0.155000
30
0.0
11
0.058649
21
-0.155000
31
0.0
0
LINE
8
0
6
CONTINUOUS
10
0.064196
20
-0.155000
30
0.0
11
0.068960
21
-0.155000
31
0.0
0
LINE
8
0
6
CONTINUOUS
10
0.029717
20
-0.154000
30
0.0
11
0.029693
21
-0.155000
31
0.0
0
LINE
8
0
6
CONTINUOUS
10
0.029693
20
-0.155000
30
0.0
11
0.030476
21
-0.155000
31
0.0
0
LINE
8
0
6
CONTINUOUS
10
0.072616
20
-0.155000
30
0.0
11
0.074914
21
-0.155000
31
0.0
0
LINE
8
0
6
CONTINUOUS
10
0.041194
20
-0.155000
30
0.0
11
0.046742
21
-0.155000
31
0.0
0
LINE
8
0
6
CONTINUOUS
10
0.032774
20
-0.155000
30
0.0
11
0.036430
21
-0.155000
31
0.0
0
LINE
8
0
6
CONTINUOUS
10
0.047782
20
0.102401
30
0.0
11
0.043199
21
0.102401
31
0.0
0
LINE
8
0
6
CONTINUOUS
10
0.062199
20
0.102401
30
0.0
11
0.057617
21
0.102401
31
0.0
0
LINE
8
0
6
CONTINUOUS
10
0.039264
20
0.102401
30
0.0
11
0.036245
21
0.102401
31
0.0
0
LINE
8
0
6
CONTINUOUS
10
0.069154
20
0.102401
30
0.0
11
0.066134
21
0.102401
31
0.0
0
LINE
8
0
6
CONTINUOUS
10
0.071052
20
0.102401
30
0.0
11
0.069154
21
0.102401
31
0.0
0
LINE
8
0
6
CONTINUOUS
10
0.036245
20
0.102401
30
0.0
11
0.034347
21
0.102401
31
0.0
0
LINE
8
0
6
CONTINUOUS
10
0.052699
20
0.102401
30
0.0
11
0.047782
21
0.102401
31
0.0
0
LINE
8
0
6
CONTINUOUS
10
0.057617
20
0.102401
30
0.0
11
0.052699
21
0.102401
31
0.0
0
LINE
8
0
6
CONTINUOUS
10
0.043199
20
0.102401
30
0.0
11
0.039264
21
0.102401
31
0.0
0
LINE
8
0
6
CONTINUOUS
10
0.071699
20
0.102401
30
0.0
11
0.071052
21
0.102401
31
0.0
0
LINE
8
0
6
CONTINUOUS
10
0.071714
20
0.101401
30
0.0
11
0.071699
21
0.102401
31
0.0
0
LINE
8
0
6
CONTINUOUS
10
0.066134
20
0.102401
30
0.0
11
0.062199
21
0.102401
31
0.0
0
LINE
8
0
6
CONTINUOUS
10
0.033699
20
0.102401
30
0.0
11
0.033699
21
0.101401
31
0.0
0
LINE
8
0
6
CONTINUOUS
10
0.034347
20
0.102401
30
0.0
11
0.033699
21
0.102401
31
0.0
0
LINE
8
0
6
CONTINUOUS
10
-0.065811
20
0.020517
30
0.0
11
-0.064788
21
0.020901
31
0.0
0
LINE
8
0
6
CONTINUOUS
10
-0.069970
20
0.024430
30
0.0
11
-0.065811
21
0.020517
31
0.0
0
LINE
8
0
6
CONTINUOUS
10
-0.074949
20
0.029115
30
0.0
11
-0.069970
21
0.024430
31
0.0
0
LINE
8
0
6
CONTINUOUS
10
-0.063657
20
0.018489
30
0.0
11
-0.065811
21
0.020517
31
0.0
0
LINE
8
0
6
CONTINUOUS
10
-0.062921
20
0.017797
30
0.0
11
-0.061911
21
0.018209
31
0.0
0
LINE
8
0
6
CONTINUOUS
10
-0.063657
20
0.018489
30
0.0
11
-0.062921
21
0.017797
31
0.0
0
LINE
8
0
6
CONTINUOUS
10
-0.074949
20
0.029115
30
0.0
11
-0.073967
21
0.029539
31
0.0
0
LINE
8
0
6
CONTINUOUS
10
-0.079851
20
0.033728
30
0.0
11
-0.074949
21
0.029115
31
0.0
0
LINE
8
0
6
CONTINUOUS
10
-0.086858
20
0.040321
30
0.0
11
-0.085991
21
0.039505
31
0.0
0
LINE
8
0
6
CONTINUOUS
10
-0.085892
20
0.040751
30
0.0
11
-0.086858
21
0.040321
31
0.0
0
LINE
8
0
6
CONTINUOUS
10
-0.085991
20
0.039505
30
0.0
11
-0.083544
21
0.037203
31
0.0
0
LINE
8
0
6
CONTINUOUS
10
-0.083544
20
0.037203
30
0.0
11
-0.079851
21
0.033728
31
0.0
0
LINE
8
0
6
CONTINUOUS
10
-0.062921
20
0.017797
30
0.0
11
-0.063662
21
0.018494
31
0.0
0
LINE
8
0
6
CONTINUOUS
10
-0.063657
20
0.018489
30
0.0
11
-0.062921
21
0.017797
31
0.0
0
LINE
8
0
6
CONTINUOUS
10
0.072292
20
0.072401
30
0.0
11
0.071923
21
0.087401
31
0.0
0
LINE
8
0
6
CONTINUOUS
10
0.032234
20
0.037057
30
0.0
11
0.029717
21
-0.154000
31
0.0
0
LINE
8
0
6
CONTINUOUS
10
0.075673
20
-0.154000
30
0.0
11
0.075024
21
-0.107593
31
0.0
0
LINE
8
0
6
CONTINUOUS
10
0.074887
20
-0.097800
30
0.0
11
0.072785
21
0.052387
31
0.0
0
LINE
8
0
6
CONTINUOUS
10
0.038157
20
0.085197
30
0.0
11
0.039167
21
0.090920
31
0.0
0
LINE
8
0
6
CONTINUOUS
10
0.035561
20
0.080176
30
0.0
11
0.038157
21
0.085197
31
0.0
0
LINE
8
0
6
CONTINUOUS
10
0.030011
20
0.085816
30
0.0
11
0.026489
21
0.082897
31
0.0
0
LINE
8
0
6
CONTINUOUS
10
0.032647
20
0.090797
30
0.0
11
0.030011
21
0.085816
31
0.0
0
LINE
8
0
6
CONTINUOUS
10
0.033699
20
0.096506
30
0.0
11
0.032647
21
0.090797
31
0.0
0
LINE
8
0
6
CONTINUOUS
10
-0.064788
20
0.020901
30
0.0
11
0.025497
21
0.049497
31
0.0
0
LINE
8
0
6
CONTINUOUS
10
0.031450
20
0.043558
30
0.0
11
0.032254
21
0.037870
31
0.0
0
LINE
8
0
6
CONTINUOUS
10
0.031450
20
0.043558
30
0.0
11
0.032160
21
0.044329
31
0.0
0
LINE
8
0
6
CONTINUOUS
10
0.028970
20
0.047023
30
0.0
11
0.031450
21
0.043558
31
0.0
0
LINE
8
0
6
CONTINUOUS
10
0.026180
20
0.048152
30
0.0
11
0.025472
21
0.047338
31
0.0
0
LINE
8
0
6
CONTINUOUS
10
0.028970
20
0.047023
30
0.0
11
0.029678
21
0.047813
31
0.0
0
LINE
8
0
6
CONTINUOUS
10
0.025472
20
0.047338
30
0.0
11
0.028970
21
0.047023
31
0.0
0
LINE
8
0
6
CONTINUOUS
10
0.039964
20
0.070751
30
0.0
11
0.037969
21
0.069904
31
0.0
0
LINE
8
0
6
CONTINUOUS
10
-0.061911
20
0.018209
30
0.0
11
0.023004
21
0.046331
31
0.0
0
LINE
8
0
6
CONTINUOUS
10
0.028248
20
0.050529
30
0.0
11
0.025497
21
0.049497
31
0.0
0
LINE
8
0
6
CONTINUOUS
10
0.071923
20
0.087401
30
0.0
11
0.071714
21
0.101401
31
0.0
0
LINE
8
0
6
CONTINUOUS
10
0.038985
20
0.048793
30
0.0
11
0.041995
21
0.071386
31
0.0
0
LINE
8
0
6
CONTINUOUS
10
0.072785
20
0.052387
30
0.0
11
0.072292
21
0.072401
31
0.0
0
LINE
8
0
6
CONTINUOUS
10
0.036024
20
0.069078
30
0.0
11
0.032425
21
0.067551
31
0.0
0
LINE
8
0
6
CONTINUOUS
10
0.033699
20
0.101401
30
0.0
11
0.033699
21
0.097319
31
0.0
0
LINE
8
0
6
CONTINUOUS
10
0.035561
20
0.080176
30
0.0
11
0.032066
21
0.077203
31
0.0
0
LINE
8
0
6
CONTINUOUS
10
0.036024
20
0.069078
30
0.0
11
0.037969
21
0.069904
31
0.0
0
LINE
8
0
6
CONTINUOUS
10
0.028248
20
0.050529
30
0.0
11
0.026180
21
0.048152
31
0.0
0
LINE
8
0
6
CONTINUOUS
10
0.031745
20
0.050123
30
0.0
11
0.028248
21
0.050529
31
0.0
0
LINE
8
0
6
CONTINUOUS
10
-0.073967
20
0.029539
30
0.0
11
0.032425
21
0.067551
31
0.0
0
LINE
8
0
6
CONTINUOUS
10
0.022770
20
0.081239
30
0.0
11
-0.085892
21
0.040751
31
0.0
0
LINE
8
0
6
CONTINUOUS
10
0.028419
20
0.075501
30
0.0
11
0.032066
21
0.077203
31
0.0
0
LINE
8
0
6
CONTINUOUS
10
0.032160
20
0.044329
30
0.0
11
0.034235
21
0.046591
31
0.0
0
LINE
8
0
6
CONTINUOUS
10
0.031745
20
0.050123
30
0.0
11
0.029678
21
0.047813
31
0.0
0
LINE
8
0
6
CONTINUOUS
10
0.034235
20
0.046591
30
0.0
11
0.031745
21
0.050123
31
0.0
0
LINE
8
0
6
CONTINUOUS
10
-0.082878
20
0.036576
30
0.0
11
-0.086478
21
0.032655
31
0.0
0
LINE
8
0
6
CONTINUOUS
10
-0.069009
20
0.016619
30
0.0
11
-0.065607
21
0.020325
31
0.0
0
LINE
8
0
6
CONTINUOUS
10
-0.086478
20
0.032655
30
0.0
11
-0.087037
21
0.032018
31
0.0
0
LINE
8
0
6
CONTINUOUS
10
-0.086609
20
0.031626
30
0.0
11
-0.087037
21
0.032018
31
0.0
0
LINE
8
0
6
CONTINUOUS
10
-0.086609
20
0.031626
30
0.0
11
-0.085369
21
0.030487
31
0.0
0
LINE
8
0
6
CONTINUOUS
10
-0.085369
20
0.030487
30
0.0
11
-0.083436
21
0.028713
31
0.0
0
LINE
8
0
6
CONTINUOUS
10
-0.083436
20
0.028713
30
0.0
11
-0.081001
21
0.026478
31
0.0
0
LINE
8
0
6
CONTINUOUS
10
-0.081001
20
0.026478
30
0.0
11
-0.078302
21
0.024000
31
0.0
0
LINE
8
0
6
CONTINUOUS
10
-0.075603
20
0.021522
30
0.0
11
-0.078302
21
0.024000
31
0.0
0
LINE
8
0
6
CONTINUOUS
10
-0.075603
20
0.021522
30
0.0
11
-0.073168
21
0.019287
31
0.0
0
LINE
8
0
6
CONTINUOUS
10
-0.073168
20
0.019287
30
0.0
11
-0.071236
21
0.017513
31
0.0
0
LINE
8
0
6
CONTINUOUS
10
-0.069995
20
0.016374
30
0.0
11
-0.071236
21
0.017513
31
0.0
0
LINE
8
0
6
CONTINUOUS
10
-0.069568
20
0.015982
30
0.0
11
-0.069009
21
0.016619
31
0.0
0
LINE
8
0
6
CONTINUOUS
10
-0.069568
20
0.015982
30
0.0
11
-0.069995
21
0.016374
31
0.0
0
LINE
8
0
6
CONTINUOUS
10
0.057504
20
0.103531
30
0.0
11
0.062027
21
0.103531
31
0.0
0
LINE
8
0
6
CONTINUOUS
10
0.033832
20
0.103531
30
0.0
11
0.034511
21
0.103531
31
0.0
0
LINE
8
0
6
CONTINUOUS
10
0.033832
20
0.104268
30
0.0
11
0.033832
21
0.103531
31
0.0
0
LINE
8
0
6
CONTINUOUS
10
0.034511
20
0.103531
30
0.0
11
0.036322
21
0.103531
31
0.0
0
LINE
8
0
6
CONTINUOUS
10
0.036322
20
0.103531
30
0.0
11
0.039341
21
0.103531
31
0.0
0
LINE
8
0
6
CONTINUOUS
10
0.069018
20
0.103531
30
0.0
11
0.070868
21
0.103531
31
0.0
0
LINE
8
0
6
CONTINUOUS
10
0.052698
20
0.103531
30
0.0
11
0.057504
21
0.103531
31
0.0
0
LINE
8
0
6
CONTINUOUS
10
0.047868
20
0.103531
30
0.0
11
0.052698
21
0.103531
31
0.0
0
LINE
8
0
6
CONTINUOUS
10
0.071563
20
0.103531
30
0.0
11
0.071563
21
0.104268
31
0.0
0
LINE
8
0
6
CONTINUOUS
10
0.070868
20
0.103531
30
0.0
11
0.071563
21
0.103531
31
0.0
0
LINE
8
0
6
CONTINUOUS
10
0.043340
20
0.103531
30
0.0
11
0.047868
21
0.103531
31
0.0
0
LINE
8
0
6
CONTINUOUS
10
0.066037
20
0.103531
30
0.0
11
0.069018
21
0.103531
31
0.0
0
LINE
8
0
6
CONTINUOUS
10
0.039341
20
0.103531
30
0.0
11
0.043340
21
0.103531
31
0.0
0
LINE
8
0
6
CONTINUOUS
10
0.062027
20
0.103531
30
0.0
11
0.066037
21
0.103531
31
0.0
0
LINE
8
0
6
CONTINUOUS
10
0.035620
20
0.104268
30
0.0
11
0.035620
21
0.101873
31
0.0
0
LINE
8
0
6
CONTINUOUS
10
0.069776
20
0.102401
30
0.0
11
0.069776
21
0.104268
31
0.0
0
LINE
8
0
6
CONTINUOUS
10
-0.013464
20
0.154624
30
0.0
11
-0.013618
21
0.154018
31
0.0
0
LINE
8
0
6
CONTINUOUS
10
-0.015310
20
0.144963
30
0.0
11
0.024247
21
0.135330
31
0.0
0
LINE
8
0
6
CONTINUOUS
10
0.024415
20
0.135684
30
0.0
11
-0.015215
21
0.145339
31
0.0
0
LINE
8
0
6
CONTINUOUS
10
-0.014143
20
0.151953
30
0.0
11
-0.014622
21
0.150064
31
0.0
0
LINE
8
0
6
CONTINUOUS
10
-0.013618
20
0.154018
30
0.0
11
-0.013736
21
0.153554
31
0.0
0
LINE
8
0
6
CONTINUOUS
10
-0.014143
20
0.151953
30
0.0
11
-0.013964
21
0.152659
31
0.0
0
LINE
8
0
6
CONTINUOUS
10
0.031478
20
0.131948
30
0.0
11
0.032569
21
0.130011
31
0.0
0
LINE
8
0
6
CONTINUOUS
10
0.053236
20
0.141400
30
0.0
11
0.051032
21
0.141400
31
0.0
0
LINE
8
0
6
CONTINUOUS
10
0.044147
20
0.141400
30
0.0
11
0.053236
21
0.141400
31
0.0
0
LINE
8
0
6
CONTINUOUS
10
0.043360
20
0.141400
30
0.0
11
0.044147
21
0.141400
31
0.0
0
LINE
8
0
6
CONTINUOUS
10
0.053236
20
0.141400
30
0.0
11
0.055441
21
0.141400
31
0.0
0
LINE
8
0
6
CONTINUOUS
10
0.053333
20
0.141400
30
0.0
11
0.059849
21
0.141400
31
0.0
0
LINE
8
0
6
CONTINUOUS
10
0.056854
20
0.141400
30
0.0
11
0.053333
21
0.141400
31
0.0
0
LINE
8
0
6
CONTINUOUS
10
0.062053
20
0.141400
30
0.0
11
0.056854
21
0.141400
31
0.0
0
LINE
8
0
6
CONTINUOUS
10
0.059849
20
0.141400
30
0.0
11
0.062053
21
0.141400
31
0.0
0
LINE
8
0
6
CONTINUOUS
10
0.033832
20
0.124788
30
0.0
11
0.033832
21
0.104268
31
0.0
0
LINE
8
0
6
CONTINUOUS
10
0.071563
20
0.104268
30
0.0
11
0.071563
21
0.124788
31
0.0
0
LINE
8
0
6
CONTINUOUS
10
-0.013736
20
0.153554
30
0.0
11
-0.013964
21
0.152659
31
0.0
0
LINE
8
0
6
CONTINUOUS
10
0.032265
20
0.142071
30
0.0
11
0.033537
21
0.141594
31
0.0
0
LINE
8
0
6
CONTINUOUS
10
0.031985
20
0.135993
30
0.0
11
0.031884
21
0.134026
31
0.0
0
LINE
8
0
6
CONTINUOUS
10
0.025636
20
0.143916
30
0.0
11
0.028446
21
0.143188
31
0.0
0
LINE
8
0
6
CONTINUOUS
10
0.062055
20
0.141400
30
0.0
11
0.057527
21
0.141400
31
0.0
0
LINE
8
0
6
CONTINUOUS
10
0.039341
20
0.141400
30
0.0
11
0.036322
21
0.141400
31
0.0
0
LINE
8
0
6
CONTINUOUS
10
0.047868
20
0.141400
30
0.0
11
0.043340
21
0.141400
31
0.0
0
LINE
8
0
6
CONTINUOUS
10
0.043340
20
0.141400
30
0.0
11
0.039341
21
0.141400
31
0.0
0
LINE
8
0
6
CONTINUOUS
10
0.066055
20
0.141400
30
0.0
11
0.062055
21
0.141400
31
0.0
0
LINE
8
0
6
CONTINUOUS
10
0.071563
20
0.141400
30
0.0
11
0.070884
21
0.141400
31
0.0
0
LINE
8
0
6
CONTINUOUS
10
0.071563
20
0.140542
30
0.0
11
0.071563
21
0.141400
31
0.0
0
LINE
8
0
6
CONTINUOUS
10
0.070884
20
0.141400
30
0.0
11
0.069073
21
0.141400
31
0.0
0
LINE
8
0
6
CONTINUOUS
10
0.069073
20
0.141400
30
0.0
11
0.066055
21
0.141400
31
0.0
0
LINE
8
0
6
CONTINUOUS
10
0.052698
20
0.141400
30
0.0
11
0.047868
21
0.141400
31
0.0
0
LINE
8
0
6
CONTINUOUS
10
0.057527
20
0.141400
30
0.0
11
0.052698
21
0.141400
31
0.0
0
LINE
8
0
6
CONTINUOUS
10
-0.013178
20
0.153391
30
0.0
11
0.025636
21
0.143916
31
0.0
0
LINE
8
0
6
CONTINUOUS
10
0.035299
20
0.143158
30
0.0
11
0.031406
21
0.143937
31
0.0
0
LINE
8
0
6
CONTINUOUS
10
0.032231
20
0.140199
30
0.0
11
0.033605
21
0.139438
31
0.0
0
LINE
8
0
6
CONTINUOUS
10
0.031850
20
0.131992
30
0.0
11
0.033036
21
0.130052
31
0.0
0
LINE
8
0
6
CONTINUOUS
10
0.034592
20
0.127151
30
0.0
11
0.034024
21
0.128336
31
0.0
0
LINE
8
0
6
CONTINUOUS
10
0.033419
20
0.128256
30
0.0
11
0.033832
21
0.126937
31
0.0
0
LINE
8
0
6
CONTINUOUS
10
0.035074
20
0.141400
30
0.0
11
0.034476
21
0.141400
31
0.0
0
LINE
8
0
6
CONTINUOUS
10
0.051032
20
0.141400
30
0.0
11
0.047076
21
0.141636
31
0.0
0
LINE
8
0
6
CONTINUOUS
10
0.031221
20
0.140610
30
0.0
11
0.032231
21
0.140199
31
0.0
0
LINE
8
0
6
CONTINUOUS
10
0.030745
20
0.134596
30
0.0
11
0.031850
21
0.131992
31
0.0
0
LINE
8
0
6
CONTINUOUS
10
0.031850
20
0.131992
30
0.0
11
0.031884
21
0.134026
31
0.0
0
LINE
8
0
6
CONTINUOUS
10
0.027280
20
0.134944
30
0.0
11
0.024415
21
0.135684
31
0.0
0
LINE
8
0
6
CONTINUOUS
10
0.024247
20
0.135330
30
0.0
11
0.027107
21
0.134591
31
0.0
0
LINE
8
0
6
CONTINUOUS
10
0.031406
20
0.143937
30
0.0
11
0.028432
21
0.144710
31
0.0
0
LINE
8
0
6
CONTINUOUS
10
0.027758
20
0.144503
30
0.0
11
0.030693
21
0.143743
31
0.0
0
LINE
8
0
6
CONTINUOUS
10
0.039209
20
0.142509
30
0.0
11
0.035299
21
0.143158
31
0.0
0
LINE
8
0
6
CONTINUOUS
10
0.034476
20
0.141400
30
0.0
11
0.034959
21
0.141400
31
0.0
0
LINE
8
0
6
CONTINUOUS
10
0.028432
20
0.144710
30
0.0
11
-0.012810
21
0.154836
31
0.0
0
LINE
8
0
6
CONTINUOUS
10
0.071563
20
0.127365
30
0.0
11
0.071563
21
0.130172
31
0.0
0
LINE
8
0
6
CONTINUOUS
10
0.034959
20
0.141400
30
0.0
11
0.043360
21
0.141400
31
0.0
0
LINE
8
0
6
CONTINUOUS
10
0.071563
20
0.124788
30
0.0
11
0.071563
21
0.127365
31
0.0
0
LINE
8
0
6
CONTINUOUS
10
0.071563
20
0.130172
30
0.0
11
0.071563
21
0.132979
31
0.0
0
LINE
8
0
6
CONTINUOUS
10
0.071563
20
0.138593
30
0.0
11
0.071563
21
0.140542
31
0.0
0
LINE
8
0
6
CONTINUOUS
10
0.071563
20
0.132979
30
0.0
11
0.071563
21
0.135786
31
0.0
0
LINE
8
0
6
CONTINUOUS
10
0.027107
20
0.134591
30
0.0
11
0.030302
21
0.133079
31
0.0
0
LINE
8
0
6
CONTINUOUS
10
0.071563
20
0.135786
30
0.0
11
0.071563
21
0.138593
31
0.0
0
LINE
8
0
6
CONTINUOUS
10
-0.015868
20
0.145127
30
0.0
11
-0.015310
21
0.144963
31
0.0
0
LINE
8
0
6
CONTINUOUS
10
-0.015773
20
0.145503
30
0.0
11
-0.015868
21
0.145127
31
0.0
0
LINE
8
0
6
CONTINUOUS
10
-0.015773
20
0.145503
30
0.0
11
-0.015215
21
0.145339
31
0.0
0
LINE
8
0
6
CONTINUOUS
10
-0.015503
20
0.146573
30
0.0
11
-0.015773
21
0.145503
31
0.0
0
LINE
8
0
6
CONTINUOUS
10
-0.015099
20
0.148175
30
0.0
11
-0.015503
21
0.146573
31
0.0
0
LINE
8
0
6
CONTINUOUS
10
0.034024
20
0.128336
30
0.0
11
0.033036
21
0.130052
31
0.0
0
LINE
8
0
6
CONTINUOUS
10
0.032569
20
0.130011
30
0.0
11
0.033419
21
0.128256
31
0.0
0
LINE
8
0
6
CONTINUOUS
10
-0.014622
20
0.150064
30
0.0
11
-0.015099
21
0.148175
31
0.0
0
LINE
8
0
6
CONTINUOUS
10
0.036322
20
0.141400
30
0.0
11
0.035074
21
0.141400
31
0.0
0
LINE
8
0
6
CONTINUOUS
10
0.043133
20
0.142001
30
0.0
11
0.039209
21
0.142509
31
0.0
0
LINE
8
0
6
CONTINUOUS
10
0.033259
20
0.143019
30
0.0
11
0.030693
21
0.143743
31
0.0
0
LINE
8
0
6
CONTINUOUS
10
0.033832
20
0.126937
30
0.0
11
0.033832
21
0.124788
31
0.0
0
LINE
8
0
6
CONTINUOUS
10
0.034476
20
0.141400
30
0.0
11
0.033537
21
0.141594
31
0.0
0
LINE
8
0
6
CONTINUOUS
10
0.030514
20
0.133443
30
0.0
11
0.030745
21
0.134596
31
0.0
0
LINE
8
0
6
CONTINUOUS
10
0.030302
20
0.133079
30
0.0
11
0.031478
21
0.131948
31
0.0
0
LINE
8
0
6
CONTINUOUS
10
0.031234
20
0.142339
30
0.0
11
0.031228
21
0.141486
31
0.0
0
LINE
8
0
6
CONTINUOUS
10
0.032265
20
0.142071
30
0.0
11
0.031234
21
0.142339
31
0.0
0
LINE
8
0
6
CONTINUOUS
10
0.047076
20
0.141636
30
0.0
11
0.043133
21
0.142001
31
0.0
0
LINE
8
0
6
CONTINUOUS
10
-0.013464
20
0.154624
30
0.0
11
-0.012906
21
0.154461
31
0.0
0
LINE
8
0
6
CONTINUOUS
10
-0.013369
20
0.155000
30
0.0
11
-0.013464
21
0.154624
31
0.0
0
LINE
8
0
6
CONTINUOUS
10
-0.012810
20
0.154836
30
0.0
11
-0.013369
21
0.155000
31
0.0
0
LINE
8
0
6
CONTINUOUS
10
0.063770
20
0.141400
30
0.0
11
0.066462
21
0.141400
31
0.0
0
LINE
8
0
6
CONTINUOUS
10
0.066871
20
0.141400
30
0.0
11
0.063770
21
0.141400
31
0.0
0
LINE
8
0
6
CONTINUOUS
10
0.068666
20
0.141400
30
0.0
11
0.066871
21
0.141400
31
0.0
0
LINE
8
0
6
CONTINUOUS
10
0.066462
20
0.141400
30
0.0
11
0.068666
21
0.141400
31
0.0
0
LINE
8
0
6
CONTINUOUS
10
0.027758
20
0.144503
30
0.0
11
-0.012906
21
0.154461
31
0.0
0
LINE
8
0
6
CONTINUOUS
10
0.068822
20
-0.125694
30
0.0
11
0.068770
21
-0.124060
31
0.0
0
LINE
8
0
6
CONTINUOUS
10
0.068770
20
-0.124060
30
0.0
11
0.068630
21
-0.121748
31
0.0
0
ENDSEC
0
EOF
