999
Erzeugt mit innoplus bad 
0
SECTION
2
HEADER
9
$ACADVER
1
AC1009
9
$DWGCODEPAGE
3
ISO8859-1
0
ENDSEC
0
SECTION
2
TABLES
0
TABLE
2
LAYER
70
1
0
LAYER
2
0
70
0
62
7
6
CONTINUOUS
0
ENDTAB
0
ENDSEC
0
SECTION
2
ENTITIES
0
LINE
8
0
6
CONTINUOUS
10
-0.002294
20
0.103531
30
0.0
11
0.002536
21
0.103531
31
0.0
0
LINE
8
0
6
CONTINUOUS
10
0.002536
20
0.103531
30
0.0
11
0.007063
21
0.103531
31
0.0
0
LINE
8
0
6
CONTINUOUS
10
0.007063
20
0.103531
30
0.0
11
0.011063
21
0.103531
31
0.0
0
LINE
8
0
6
CONTINUOUS
10
0.016572
20
0.103531
30
0.0
11
0.016572
21
0.104268
31
0.0
0
LINE
8
0
6
CONTINUOUS
10
0.015893
20
0.103531
30
0.0
11
0.016572
21
0.103531
31
0.0
0
LINE
8
0
6
CONTINUOUS
10
0.014081
20
0.103531
30
0.0
11
0.015893
21
0.103531
31
0.0
0
LINE
8
0
6
CONTINUOUS
10
0.011063
20
0.103531
30
0.0
11
0.014081
21
0.103531
31
0.0
0
LINE
8
0
6
CONTINUOUS
10
-0.007123
20
0.103531
30
0.0
11
-0.002294
21
0.103531
31
0.0
0
LINE
8
0
6
CONTINUOUS
10
-0.011651
20
0.103531
30
0.0
11
-0.007123
21
0.103531
31
0.0
0
LINE
8
0
6
CONTINUOUS
10
-0.015651
20
0.103531
30
0.0
11
-0.011651
21
0.103531
31
0.0
0
LINE
8
0
6
CONTINUOUS
10
-0.021159
20
0.103531
30
0.0
11
-0.020480
21
0.103531
31
0.0
0
LINE
8
0
6
CONTINUOUS
10
-0.021159
20
0.104268
30
0.0
11
-0.021159
21
0.103531
31
0.0
0
LINE
8
0
6
CONTINUOUS
10
-0.020480
20
0.103531
30
0.0
11
-0.018669
21
0.103531
31
0.0
0
LINE
8
0
6
CONTINUOUS
10
-0.018669
20
0.103531
30
0.0
11
-0.015651
21
0.103531
31
0.0
0
LINE
8
0
6
CONTINUOUS
10
0.014784
20
0.101873
30
0.0
11
0.014784
21
0.104268
31
0.0
0
LINE
8
0
6
CONTINUOUS
10
-0.019372
20
0.104268
30
0.0
11
-0.019372
21
0.101873
31
0.0
0
LINE
8
0
6
CONTINUOUS
10
-0.007050
20
0.149901
30
0.0
11
-0.007050
21
0.140343
31
0.0
0
LINE
8
0
6
CONTINUOUS
10
-0.004114
20
0.145339
30
0.0
11
-0.004114
21
0.135684
31
0.0
0
LINE
8
0
6
CONTINUOUS
10
0.002462
20
0.140343
30
0.0
11
0.002462
21
0.149901
31
0.0
0
LINE
8
0
6
CONTINUOUS
10
-0.002294
20
0.144963
30
0.0
11
-0.002294
21
0.135330
31
0.0
0
LINE
8
0
6
CONTINUOUS
10
-0.000474
20
0.135684
30
0.0
11
-0.000474
21
0.145339
31
0.0
0
LINE
8
0
6
CONTINUOUS
10
0.002100
20
0.151953
30
0.0
11
0.001646
21
0.152659
31
0.0
0
LINE
8
0
6
CONTINUOUS
10
0.000401
20
0.154018
30
0.0
11
-0.000474
21
0.154624
31
0.0
0
LINE
8
0
6
CONTINUOUS
10
-0.004114
20
0.154624
30
0.0
11
-0.004989
21
0.154018
31
0.0
0
LINE
8
0
6
CONTINUOUS
10
-0.006234
20
0.152659
30
0.0
11
-0.006688
21
0.151953
31
0.0
0
LINE
8
0
6
CONTINUOUS
10
0.001069
20
0.153554
30
0.0
11
0.000401
21
0.154018
31
0.0
0
LINE
8
0
6
CONTINUOUS
10
0.001646
20
0.152659
30
0.0
11
0.001069
21
0.153554
31
0.0
0
LINE
8
0
6
CONTINUOUS
10
-0.004989
20
0.154018
30
0.0
11
-0.005657
21
0.153554
31
0.0
0
LINE
8
0
6
CONTINUOUS
10
-0.005657
20
0.153554
30
0.0
11
-0.006234
21
0.152659
31
0.0
0
LINE
8
0
6
CONTINUOUS
10
0.002462
20
0.150064
30
0.0
11
0.002100
21
0.151953
31
0.0
0
LINE
8
0
6
CONTINUOUS
10
-0.000474
20
0.154624
30
0.0
11
-0.002294
21
0.155000
31
0.0
0
LINE
8
0
6
CONTINUOUS
10
-0.006688
20
0.151953
30
0.0
11
-0.007050
21
0.150064
31
0.0
0
LINE
8
0
6
CONTINUOUS
10
-0.002294
20
0.155000
30
0.0
11
-0.004114
21
0.154624
31
0.0
0
LINE
8
0
6
CONTINUOUS
10
0.005284
20
0.141400
30
0.0
11
0.003583
21
0.141400
31
0.0
0
LINE
8
0
6
CONTINUOUS
10
0.002462
20
0.141400
30
0.0
11
0.005284
21
0.141400
31
0.0
0
LINE
8
0
6
CONTINUOUS
10
-0.011128
20
0.141400
30
0.0
11
-0.007050
21
0.141400
31
0.0
0
LINE
8
0
6
CONTINUOUS
10
-0.011222
20
0.141400
30
0.0
11
-0.011128
21
0.141400
31
0.0
0
LINE
8
0
6
CONTINUOUS
10
-0.007050
20
0.141400
30
0.0
11
-0.011222
21
0.141400
31
0.0
0
LINE
8
0
6
CONTINUOUS
10
0.006118
20
0.141400
30
0.0
11
0.002462
21
0.141400
31
0.0
0
LINE
8
0
6
CONTINUOUS
10
-0.021159
20
0.124788
30
0.0
11
-0.021159
21
0.104268
31
0.0
0
LINE
8
0
6
CONTINUOUS
10
-0.021159
20
0.140542
30
0.0
11
-0.021159
21
0.138593
31
0.0
0
LINE
8
0
6
CONTINUOUS
10
0.002264
20
0.135993
30
0.0
11
0.001352
21
0.134026
31
0.0
0
LINE
8
0
6
CONTINUOUS
10
0.011063
20
0.141400
30
0.0
11
0.007063
21
0.141400
31
0.0
0
LINE
8
0
6
CONTINUOUS
10
0.015893
20
0.141400
30
0.0
11
0.014081
21
0.141400
31
0.0
0
LINE
8
0
6
CONTINUOUS
10
0.014081
20
0.141400
30
0.0
11
0.011063
21
0.141400
31
0.0
0
LINE
8
0
6
CONTINUOUS
10
0.016572
20
0.141400
30
0.0
11
0.015893
21
0.141400
31
0.0
0
LINE
8
0
6
CONTINUOUS
10
0.016572
20
0.140542
30
0.0
11
0.016572
21
0.141400
31
0.0
0
LINE
8
0
6
CONTINUOUS
10
-0.011651
20
0.141400
30
0.0
11
-0.015651
21
0.141400
31
0.0
0
LINE
8
0
6
CONTINUOUS
10
-0.018669
20
0.141400
30
0.0
11
-0.020480
21
0.141400
31
0.0
0
LINE
8
0
6
CONTINUOUS
10
-0.015651
20
0.141400
30
0.0
11
-0.018669
21
0.141400
31
0.0
0
LINE
8
0
6
CONTINUOUS
10
-0.021160
20
0.141400
30
0.0
11
-0.021159
21
0.140542
31
0.0
0
LINE
8
0
6
CONTINUOUS
10
-0.020480
20
0.141400
30
0.0
11
-0.021160
21
0.141400
31
0.0
0
LINE
8
0
6
CONTINUOUS
10
-0.005657
20
0.134596
30
0.0
11
-0.004702
21
0.131992
31
0.0
0
LINE
8
0
6
CONTINUOUS
10
-0.005657
20
0.134596
30
0.0
11
-0.004114
21
0.133443
31
0.0
0
LINE
8
0
6
CONTINUOUS
10
0.002511
20
0.140199
30
0.0
11
0.003409
21
0.139438
31
0.0
0
LINE
8
0
6
CONTINUOUS
10
-0.005594
20
0.130052
30
0.0
11
-0.006570
21
0.128336
31
0.0
0
LINE
8
0
6
CONTINUOUS
10
0.000115
20
0.131992
30
0.0
11
0.001006
21
0.130052
31
0.0
0
LINE
8
0
6
CONTINUOUS
10
0.002737
20
0.127151
30
0.0
11
0.001982
21
0.128336
31
0.0
0
LINE
8
0
6
CONTINUOUS
10
0.004519
20
0.141400
30
0.0
11
0.003673
21
0.141400
31
0.0
0
LINE
8
0
6
CONTINUOUS
10
0.001069
20
0.134596
30
0.0
11
0.000115
21
0.131992
31
0.0
0
LINE
8
0
6
CONTINUOUS
10
0.000115
20
0.131992
30
0.0
11
0.001352
21
0.134026
31
0.0
0
LINE
8
0
6
CONTINUOUS
10
-0.000474
20
0.134944
30
0.0
11
-0.000474
21
0.135684
31
0.0
0
LINE
8
0
6
CONTINUOUS
10
0.002462
20
0.139610
30
0.0
11
0.002462
21
0.140343
31
0.0
0
LINE
8
0
6
CONTINUOUS
10
0.016572
20
0.138593
30
0.0
11
0.016572
21
0.140542
31
0.0
0
LINE
8
0
6
CONTINUOUS
10
0.015000
20
0.141400
30
0.0
11
0.006118
21
0.141400
31
0.0
0
LINE
8
0
6
CONTINUOUS
10
0.015679
20
0.141400
30
0.0
11
0.015000
21
0.141400
31
0.0
0
LINE
8
0
6
CONTINUOUS
10
0.006633
20
0.141400
30
0.0
11
0.015679
21
0.141400
31
0.0
0
LINE
8
0
6
CONTINUOUS
10
0.016572
20
0.124788
30
0.0
11
0.016572
21
0.127365
31
0.0
0
LINE
8
0
6
CONTINUOUS
10
0.016572
20
0.127365
30
0.0
11
0.016572
21
0.130172
31
0.0
0
LINE
8
0
6
CONTINUOUS
10
0.016572
20
0.135786
30
0.0
11
0.016572
21
0.138593
31
0.0
0
LINE
8
0
6
CONTINUOUS
10
0.016572
20
0.130172
30
0.0
11
0.016572
21
0.132979
31
0.0
0
LINE
8
0
6
CONTINUOUS
10
0.016572
20
0.132979
30
0.0
11
0.016572
21
0.135786
31
0.0
0
LINE
8
0
6
CONTINUOUS
10
-0.000474
20
0.145503
30
0.0
11
-0.002294
21
0.145127
31
0.0
0
LINE
8
0
6
CONTINUOUS
10
-0.000474
20
0.145503
30
0.0
11
-0.000474
21
0.145339
31
0.0
0
LINE
8
0
6
CONTINUOUS
10
0.001069
20
0.146573
30
0.0
11
-0.000474
21
0.145503
31
0.0
0
LINE
8
0
6
CONTINUOUS
10
-0.005594
20
0.130052
30
0.0
11
-0.004702
21
0.131992
31
0.0
0
LINE
8
0
6
CONTINUOUS
10
0.002100
20
0.148175
30
0.0
11
0.001069
21
0.146573
31
0.0
0
LINE
8
0
6
CONTINUOUS
10
0.001982
20
0.128336
30
0.0
11
0.001006
21
0.130052
31
0.0
0
LINE
8
0
6
CONTINUOUS
10
0.002462
20
0.150064
30
0.0
11
0.002100
21
0.148175
31
0.0
0
LINE
8
0
6
CONTINUOUS
10
0.002462
20
0.149901
30
0.0
11
0.002462
21
0.150064
31
0.0
0
LINE
8
0
6
CONTINUOUS
10
0.002462
20
0.138475
30
0.0
11
0.002462
21
0.139610
31
0.0
0
LINE
8
0
6
CONTINUOUS
10
0.007063
20
0.141400
30
0.0
11
0.004519
21
0.141400
31
0.0
0
LINE
8
0
6
CONTINUOUS
10
-0.002294
20
0.134591
30
0.0
11
-0.002294
21
0.135330
31
0.0
0
LINE
8
0
6
CONTINUOUS
10
-0.004114
20
0.135684
30
0.0
11
-0.004114
21
0.134944
31
0.0
0
LINE
8
0
6
CONTINUOUS
10
-0.007050
20
0.140343
30
0.0
11
-0.007050
21
0.139610
31
0.0
0
LINE
8
0
6
CONTINUOUS
10
-0.008261
20
0.141400
30
0.0
11
-0.009107
21
0.141400
31
0.0
0
LINE
8
0
6
CONTINUOUS
10
-0.009107
20
0.141400
30
0.0
11
-0.011651
21
0.141400
31
0.0
0
LINE
8
0
6
CONTINUOUS
10
-0.007255
20
0.141594
30
0.0
11
-0.008261
21
0.141400
31
0.0
0
LINE
8
0
6
CONTINUOUS
10
0.003673
20
0.141400
30
0.0
11
0.002667
21
0.141594
31
0.0
0
LINE
8
0
6
CONTINUOUS
10
-0.021159
20
0.127365
30
0.0
11
-0.021159
21
0.124788
31
0.0
0
LINE
8
0
6
CONTINUOUS
10
-0.021160
20
0.130172
30
0.0
11
-0.021159
21
0.127365
31
0.0
0
LINE
8
0
6
CONTINUOUS
10
-0.000474
20
0.133443
30
0.0
11
0.001069
21
0.134596
31
0.0
0
LINE
8
0
6
CONTINUOUS
10
-0.002294
20
0.133079
30
0.0
11
-0.002294
21
0.134591
31
0.0
0
LINE
8
0
6
CONTINUOUS
10
-0.021159
20
0.138593
30
0.0
11
-0.021159
21
0.135786
31
0.0
0
LINE
8
0
6
CONTINUOUS
10
-0.002294
20
0.133079
30
0.0
11
-0.002294
21
0.131948
31
0.0
0
LINE
8
0
6
CONTINUOUS
10
-0.007050
20
0.139610
30
0.0
11
-0.007050
21
0.138475
31
0.0
0
LINE
8
0
6
CONTINUOUS
10
-0.021159
20
0.132979
30
0.0
11
-0.021160
21
0.130172
31
0.0
0
LINE
8
0
6
CONTINUOUS
10
-0.021159
20
0.135786
30
0.0
11
-0.021159
21
0.132979
31
0.0
0
LINE
8
0
6
CONTINUOUS
10
-0.002294
20
0.145127
30
0.0
11
-0.004114
21
0.145503
31
0.0
0
LINE
8
0
6
CONTINUOUS
10
-0.002294
20
0.144963
30
0.0
11
-0.002294
21
0.145127
31
0.0
0
LINE
8
0
6
CONTINUOUS
10
-0.004114
20
0.145503
30
0.0
11
-0.005657
21
0.146573
31
0.0
0
LINE
8
0
6
CONTINUOUS
10
-0.004114
20
0.145339
30
0.0
11
-0.004114
21
0.145503
31
0.0
0
LINE
8
0
6
CONTINUOUS
10
-0.007325
20
0.127151
30
0.0
11
-0.006570
21
0.128336
31
0.0
0
LINE
8
0
6
CONTINUOUS
10
-0.005657
20
0.146573
30
0.0
11
-0.006688
21
0.148175
31
0.0
0
LINE
8
0
6
CONTINUOUS
10
-0.007050
20
0.150064
30
0.0
11
-0.007050
21
0.149901
31
0.0
0
LINE
8
0
6
CONTINUOUS
10
-0.006688
20
0.148175
30
0.0
11
-0.007050
21
0.150064
31
0.0
0
LINE
8
0
6
CONTINUOUS
10
0.016572
20
0.104268
30
0.0
11
0.016572
21
0.124788
31
0.0
0
LINE
8
0
6
CONTINUOUS
10
-0.009876
20
0.141400
30
0.0
11
-0.007050
21
0.141400
31
0.0
0
LINE
8
0
6
CONTINUOUS
10
-0.008178
20
0.141400
30
0.0
11
-0.009876
21
0.141400
31
0.0
0
LINE
8
0
6
CONTINUOUS
10
0.023937
20
-0.098581
30
0.0
11
0.020599
21
-0.098802
31
0.0
0
LINE
8
0
6
CONTINUOUS
10
0.019911
20
-0.098949
30
0.0
11
0.021968
21
-0.098841
31
0.0
0
LINE
8
0
6
CONTINUOUS
10
0.020911
20
-0.098216
30
0.0
11
0.024159
21
-0.098503
31
0.0
0
LINE
8
0
6
CONTINUOUS
10
0.021973
20
-0.096560
30
0.0
11
0.019872
21
-0.096183
31
0.0
0
LINE
8
0
6
CONTINUOUS
10
0.019902
20
-0.098310
30
0.0
11
0.020911
21
-0.098216
31
0.0
0
LINE
8
0
6
CONTINUOUS
10
0.019882
20
-0.096918
30
0.0
11
0.021143
21
-0.096612
31
0.0
0
LINE
8
0
6
CONTINUOUS
10
0.023151
20
-0.096560
30
0.0
11
0.021973
21
-0.096560
31
0.0
0
LINE
8
0
6
CONTINUOUS
10
0.023537
20
-0.098855
30
0.0
11
0.024906
21
-0.098590
31
0.0
0
LINE
8
0
6
CONTINUOUS
10
0.021968
20
-0.098841
30
0.0
11
0.023537
21
-0.098855
31
0.0
0
LINE
8
0
6
CONTINUOUS
10
0.023785
20
-0.096560
30
0.0
11
0.023151
21
-0.096560
31
0.0
0
LINE
8
0
6
CONTINUOUS
10
0.025028
20
-0.096923
30
0.0
11
0.023785
21
-0.096560
31
0.0
0
LINE
8
0
6
CONTINUOUS
10
0.025139
20
-0.098503
30
0.0
11
0.025294
21
-0.097487
31
0.0
0
LINE
8
0
6
CONTINUOUS
10
0.025294
20
-0.097487
30
0.0
11
0.025234
21
-0.097051
31
0.0
0
LINE
8
0
6
CONTINUOUS
10
0.025234
20
-0.097051
30
0.0
11
0.025016
21
-0.096923
31
0.0
0
LINE
8
0
6
CONTINUOUS
10
0.024250
20
-0.097051
30
0.0
11
0.025234
21
-0.097051
31
0.0
0
LINE
8
0
6
CONTINUOUS
10
0.025139
20
-0.098503
30
0.0
11
0.024159
21
-0.098503
31
0.0
0
LINE
8
0
6
CONTINUOUS
10
0.024906
20
-0.098590
30
0.0
11
0.025139
21
-0.098503
31
0.0
0
LINE
8
0
6
CONTINUOUS
10
0.019912
20
-0.099043
30
0.0
11
0.020599
21
-0.098802
31
0.0
0
LINE
8
0
6
CONTINUOUS
10
0.020599
20
-0.098802
30
0.0
11
0.019911
21
-0.099000
31
0.0
0
LINE
8
0
6
CONTINUOUS
10
0.019878
20
-0.096617
30
0.0
11
0.021009
21
-0.096401
31
0.0
0
LINE
8
0
6
CONTINUOUS
10
-0.005082
20
0.029798
30
0.0
11
-0.002294
21
0.030097
31
0.0
0
LINE
8
0
6
CONTINUOUS
10
-0.002294
20
0.030097
30
0.0
11
0.000495
21
0.029798
31
0.0
0
LINE
8
0
6
CONTINUOUS
10
0.000495
20
0.029798
30
0.0
11
0.003010
21
0.028932
31
0.0
0
LINE
8
0
6
CONTINUOUS
10
0.003010
20
0.028932
30
0.0
11
0.005006
21
0.027583
31
0.0
0
LINE
8
0
6
CONTINUOUS
10
0.005006
20
0.027583
30
0.0
11
0.006287
21
0.025884
31
0.0
0
LINE
8
0
6
CONTINUOUS
10
0.006287
20
0.025884
30
0.0
11
0.006728
21
0.024000
31
0.0
0
LINE
8
0
6
CONTINUOUS
10
0.006728
20
0.024000
30
0.0
11
0.006287
21
0.022116
31
0.0
0
LINE
8
0
6
CONTINUOUS
10
0.006287
20
0.022116
30
0.0
11
0.005006
21
0.020417
31
0.0
0
LINE
8
0
6
CONTINUOUS
10
0.005006
20
0.020417
30
0.0
11
0.003010
21
0.019068
31
0.0
0
LINE
8
0
6
CONTINUOUS
10
0.003010
20
0.019068
30
0.0
11
0.000495
21
0.018202
31
0.0
0
LINE
8
0
6
CONTINUOUS
10
0.000495
20
0.018202
30
0.0
11
-0.002294
21
0.017903
31
0.0
0
LINE
8
0
6
CONTINUOUS
10
-0.002294
20
0.017903
30
0.0
11
-0.005082
21
0.018202
31
0.0
0
LINE
8
0
6
CONTINUOUS
10
-0.005082
20
0.018202
30
0.0
11
-0.007598
21
0.019068
31
0.0
0
LINE
8
0
6
CONTINUOUS
10
-0.007598
20
0.019068
30
0.0
11
-0.009594
21
0.020417
31
0.0
0
LINE
8
0
6
CONTINUOUS
10
-0.009594
20
0.020417
30
0.0
11
-0.010875
21
0.022116
31
0.0
0
LINE
8
0
6
CONTINUOUS
10
-0.010875
20
0.022116
30
0.0
11
-0.011316
21
0.024000
31
0.0
0
LINE
8
0
6
CONTINUOUS
10
-0.011316
20
0.024000
30
0.0
11
-0.010875
21
0.025884
31
0.0
0
LINE
8
0
6
CONTINUOUS
10
-0.010875
20
0.025884
30
0.0
11
-0.009594
21
0.027583
31
0.0
0
LINE
8
0
6
CONTINUOUS
10
-0.009594
20
0.027583
30
0.0
11
-0.007598
21
0.028932
31
0.0
0
LINE
8
0
6
CONTINUOUS
10
-0.007598
20
0.028932
30
0.0
11
-0.005082
21
0.029798
31
0.0
0
LINE
8
0
6
CONTINUOUS
10
-0.014157
20
0.028451
30
0.0
11
-0.014157
21
0.024637
31
0.0
0
LINE
8
0
6
CONTINUOUS
10
0.009569
20
0.024637
30
0.0
11
0.009569
21
0.028451
31
0.0
0
LINE
8
0
6
CONTINUOUS
10
-0.002294
20
0.032018
30
0.0
11
-0.005960
21
0.031626
31
0.0
0
LINE
8
0
6
CONTINUOUS
10
0.001372
20
0.031626
30
0.0
11
-0.002294
21
0.032018
31
0.0
0
LINE
8
0
6
CONTINUOUS
10
0.004679
20
0.030487
30
0.0
11
0.001372
21
0.031626
31
0.0
0
LINE
8
0
6
CONTINUOUS
10
0.007304
20
0.028713
30
0.0
11
0.004679
21
0.030487
31
0.0
0
LINE
8
0
6
CONTINUOUS
10
0.008989
20
0.026478
30
0.0
11
0.007304
21
0.028713
31
0.0
0
LINE
8
0
6
CONTINUOUS
10
0.009569
20
0.024000
30
0.0
11
0.009569
21
0.024637
31
0.0
0
LINE
8
0
6
CONTINUOUS
10
0.009569
20
0.024000
30
0.0
11
0.008989
21
0.026478
31
0.0
0
LINE
8
0
6
CONTINUOUS
10
0.008989
20
0.021522
30
0.0
11
0.009569
21
0.024000
31
0.0
0
LINE
8
0
6
CONTINUOUS
10
0.007304
20
0.019287
30
0.0
11
0.008989
21
0.021522
31
0.0
0
LINE
8
0
6
CONTINUOUS
10
0.004679
20
0.017513
30
0.0
11
0.007304
21
0.019287
31
0.0
0
LINE
8
0
6
CONTINUOUS
10
0.001372
20
0.016374
30
0.0
11
0.004679
21
0.017513
31
0.0
0
LINE
8
0
6
CONTINUOUS
10
-0.002294
20
0.015982
30
0.0
11
0.001372
21
0.016374
31
0.0
0
LINE
8
0
6
CONTINUOUS
10
-0.005960
20
0.016374
30
0.0
11
-0.002294
21
0.015982
31
0.0
0
LINE
8
0
6
CONTINUOUS
10
-0.009267
20
0.017513
30
0.0
11
-0.005960
21
0.016374
31
0.0
0
LINE
8
0
6
CONTINUOUS
10
-0.011891
20
0.019287
30
0.0
11
-0.009267
21
0.017513
31
0.0
0
LINE
8
0
6
CONTINUOUS
10
-0.013577
20
0.021522
30
0.0
11
-0.011891
21
0.019287
31
0.0
0
LINE
8
0
6
CONTINUOUS
10
-0.014157
20
0.024000
30
0.0
11
-0.013577
21
0.021522
31
0.0
0
LINE
8
0
6
CONTINUOUS
10
-0.014157
20
0.024637
30
0.0
11
-0.014157
21
0.024000
31
0.0
0
LINE
8
0
6
CONTINUOUS
10
-0.013577
20
0.026478
30
0.0
11
-0.014157
21
0.024000
31
0.0
0
LINE
8
0
6
CONTINUOUS
10
-0.011891
20
0.028713
30
0.0
11
-0.013577
21
0.026478
31
0.0
0
LINE
8
0
6
CONTINUOUS
10
-0.009267
20
0.030487
30
0.0
11
-0.011891
21
0.028713
31
0.0
0
LINE
8
0
6
CONTINUOUS
10
-0.005960
20
0.031626
30
0.0
11
-0.009267
21
0.030487
31
0.0
0
LINE
8
0
6
CONTINUOUS
10
0.006287
20
0.022498
30
0.0
11
0.006728
21
0.024382
31
0.0
0
LINE
8
0
6
CONTINUOUS
10
0.005006
20
0.020799
30
0.0
11
0.006287
21
0.022498
31
0.0
0
LINE
8
0
6
CONTINUOUS
10
0.003010
20
0.019450
30
0.0
11
0.005006
21
0.020799
31
0.0
0
LINE
8
0
6
CONTINUOUS
10
0.000495
20
0.018583
30
0.0
11
0.003010
21
0.019450
31
0.0
0
LINE
8
0
6
CONTINUOUS
10
-0.002294
20
0.018285
30
0.0
11
0.000495
21
0.018583
31
0.0
0
LINE
8
0
6
CONTINUOUS
10
-0.005082
20
0.018583
30
0.0
11
-0.002294
21
0.018285
31
0.0
0
LINE
8
0
6
CONTINUOUS
10
-0.007598
20
0.019450
30
0.0
11
-0.005082
21
0.018583
31
0.0
0
LINE
8
0
6
CONTINUOUS
10
-0.009594
20
0.020799
30
0.0
11
-0.007598
21
0.019450
31
0.0
0
LINE
8
0
6
CONTINUOUS
10
-0.010875
20
0.022498
30
0.0
11
-0.009594
21
0.020799
31
0.0
0
LINE
8
0
6
CONTINUOUS
10
-0.011316
20
0.024382
30
0.0
11
-0.010875
21
0.022498
31
0.0
0
LINE
8
0
6
CONTINUOUS
10
-0.006950
20
0.102401
30
0.0
11
-0.002294
21
0.102401
31
0.0
0
LINE
8
0
6
CONTINUOUS
10
-0.011290
20
0.102401
30
0.0
11
-0.006950
21
0.102401
31
0.0
0
LINE
8
0
6
CONTINUOUS
10
0.002363
20
0.102401
30
0.0
11
0.006702
21
0.102401
31
0.0
0
LINE
8
0
6
CONTINUOUS
10
-0.002294
20
0.102401
30
0.0
11
0.002363
21
0.102401
31
0.0
0
LINE
8
0
6
CONTINUOUS
10
-0.015016
20
0.102401
30
0.0
11
-0.011290
21
0.102401
31
0.0
0
LINE
8
0
6
CONTINUOUS
10
-0.013480
20
0.102401
30
0.0
11
-0.015016
21
0.102401
31
0.0
0
LINE
8
0
6
CONTINUOUS
10
0.006702
20
0.102401
30
0.0
11
0.010428
21
0.102401
31
0.0
0
LINE
8
0
6
CONTINUOUS
10
0.010428
20
0.102401
30
0.0
11
0.008892
21
0.102401
31
0.0
0
LINE
8
0
6
CONTINUOUS
10
0.013932
20
0.069904
30
0.0
11
0.013959
21
0.070751
31
0.0
0
LINE
8
0
6
CONTINUOUS
10
0.003659
20
-0.155000
30
0.0
11
0.009206
21
-0.155000
31
0.0
0
LINE
8
0
6
CONTINUOUS
10
0.020706
20
-0.155000
30
0.0
11
0.020681
21
-0.154000
31
0.0
0
LINE
8
0
6
CONTINUOUS
10
0.019922
20
-0.155000
30
0.0
11
0.020706
21
-0.155000
31
0.0
0
LINE
8
0
6
CONTINUOUS
10
0.013970
20
-0.155000
30
0.0
11
0.017625
21
-0.155000
31
0.0
0
LINE
8
0
6
CONTINUOUS
10
-0.002294
20
-0.155000
30
0.0
11
0.003659
21
-0.155000
31
0.0
0
LINE
8
0
6
CONTINUOUS
10
0.017625
20
-0.155000
30
0.0
11
0.019922
21
-0.155000
31
0.0
0
LINE
8
0
6
CONTINUOUS
10
0.009206
20
-0.155000
30
0.0
11
0.013970
21
-0.155000
31
0.0
0
LINE
8
0
6
CONTINUOUS
10
-0.013794
20
-0.155000
30
0.0
11
-0.008247
21
-0.155000
31
0.0
0
LINE
8
0
6
CONTINUOUS
10
-0.025269
20
-0.154000
30
0.0
11
-0.025294
21
-0.155000
31
0.0
0
LINE
8
0
6
CONTINUOUS
10
-0.025294
20
-0.155000
30
0.0
11
-0.024510
21
-0.155000
31
0.0
0
LINE
8
0
6
CONTINUOUS
10
-0.022212
20
-0.155000
30
0.0
11
-0.018557
21
-0.155000
31
0.0
0
LINE
8
0
6
CONTINUOUS
10
-0.008247
20
-0.155000
30
0.0
11
-0.002294
21
-0.155000
31
0.0
0
LINE
8
0
6
CONTINUOUS
10
-0.024510
20
-0.155000
30
0.0
11
-0.022212
21
-0.155000
31
0.0
0
LINE
8
0
6
CONTINUOUS
10
-0.018557
20
-0.155000
30
0.0
11
-0.013794
21
-0.155000
31
0.0
0
LINE
8
0
6
CONTINUOUS
10
0.016059
20
0.102401
30
0.0
11
0.014161
21
0.102401
31
0.0
0
LINE
8
0
6
CONTINUOUS
10
0.011141
20
0.102401
30
0.0
11
0.007206
21
0.102401
31
0.0
0
LINE
8
0
6
CONTINUOUS
10
0.007206
20
0.102401
30
0.0
11
0.002624
21
0.102401
31
0.0
0
LINE
8
0
6
CONTINUOUS
10
0.016721
20
0.101401
30
0.0
11
0.016706
21
0.102401
31
0.0
0
LINE
8
0
6
CONTINUOUS
10
0.016706
20
0.102401
30
0.0
11
0.016059
21
0.102401
31
0.0
0
LINE
8
0
6
CONTINUOUS
10
0.014161
20
0.102401
30
0.0
11
0.011141
21
0.102401
31
0.0
0
LINE
8
0
6
CONTINUOUS
10
0.002624
20
0.102401
30
0.0
11
-0.002294
21
0.102401
31
0.0
0
LINE
8
0
6
CONTINUOUS
10
-0.018748
20
0.102401
30
0.0
11
-0.020646
21
0.102401
31
0.0
0
LINE
8
0
6
CONTINUOUS
10
-0.011794
20
0.102401
30
0.0
11
-0.015729
21
0.102401
31
0.0
0
LINE
8
0
6
CONTINUOUS
10
-0.007211
20
0.102401
30
0.0
11
-0.011794
21
0.102401
31
0.0
0
LINE
8
0
6
CONTINUOUS
10
-0.021294
20
0.102401
30
0.0
11
-0.021309
21
0.101401
31
0.0
0
LINE
8
0
6
CONTINUOUS
10
-0.020646
20
0.102401
30
0.0
11
-0.021294
21
0.102401
31
0.0
0
LINE
8
0
6
CONTINUOUS
10
-0.015729
20
0.102401
30
0.0
11
-0.018748
21
0.102401
31
0.0
0
LINE
8
0
6
CONTINUOUS
10
-0.002294
20
0.102401
30
0.0
11
-0.007211
21
0.102401
31
0.0
0
LINE
8
0
6
CONTINUOUS
10
0.007965
20
0.020517
30
0.0
11
0.011405
21
0.024430
31
0.0
0
LINE
8
0
6
CONTINUOUS
10
0.011405
20
0.024430
30
0.0
11
0.012908
21
0.029115
31
0.0
0
LINE
8
0
6
CONTINUOUS
10
0.012908
20
0.029115
30
0.0
11
0.012932
21
0.029539
31
0.0
0
LINE
8
0
6
CONTINUOUS
10
0.012908
20
0.029115
30
0.0
11
0.011439
21
0.033728
31
0.0
0
LINE
8
0
6
CONTINUOUS
10
-0.002294
20
0.040321
30
0.0
11
0.003326
21
0.039505
31
0.0
0
LINE
8
0
6
CONTINUOUS
10
0.003326
20
0.039505
30
0.0
11
0.008117
21
0.037203
31
0.0
0
LINE
8
0
6
CONTINUOUS
10
0.008117
20
0.037203
30
0.0
11
0.011439
21
0.033728
31
0.0
0
LINE
8
0
6
CONTINUOUS
10
-0.015993
20
0.024430
30
0.0
11
-0.012553
21
0.020517
31
0.0
0
LINE
8
0
6
CONTINUOUS
10
-0.017496
20
0.029115
30
0.0
11
-0.015993
21
0.024430
31
0.0
0
LINE
8
0
6
CONTINUOUS
10
-0.017496
20
0.029115
30
0.0
11
-0.016026
21
0.033728
31
0.0
0
LINE
8
0
6
CONTINUOUS
10
-0.017519
20
0.029539
30
0.0
11
-0.017496
21
0.029115
31
0.0
0
LINE
8
0
6
CONTINUOUS
10
-0.002294
20
0.040321
30
0.0
11
-0.007914
21
0.039505
31
0.0
0
LINE
8
0
6
CONTINUOUS
10
-0.007914
20
0.039505
30
0.0
11
-0.012705
21
0.037203
31
0.0
0
LINE
8
0
6
CONTINUOUS
10
-0.012705
20
0.037203
30
0.0
11
-0.016026
21
0.033728
31
0.0
0
LINE
8
0
6
CONTINUOUS
10
0.017792
20
0.052387
30
0.0
11
0.017299
21
0.072401
31
0.0
0
LINE
8
0
6
CONTINUOUS
10
0.017299
20
0.072401
30
0.0
11
0.016930
21
0.087401
31
0.0
0
LINE
8
0
6
CONTINUOUS
10
-0.022380
20
0.052387
30
0.0
11
-0.025269
21
-0.154000
31
0.0
0
LINE
8
0
6
CONTINUOUS
10
0.020681
20
-0.154000
30
0.0
11
0.017792
21
0.052387
31
0.0
0
LINE
8
0
6
CONTINUOUS
10
0.011341
20
0.085197
30
0.0
11
0.011238
21
0.090920
31
0.0
0
LINE
8
0
6
CONTINUOUS
10
0.011438
20
0.080176
30
0.0
11
0.011341
21
0.085197
31
0.0
0
LINE
8
0
6
CONTINUOUS
10
-0.018444
20
0.067551
30
0.0
11
-0.017519
21
0.029539
31
0.0
0
LINE
8
0
6
CONTINUOUS
10
-0.018519
20
0.069904
30
0.0
11
-0.018493
21
0.069078
31
0.0
0
LINE
8
0
6
CONTINUOUS
10
-0.016090
20
0.077203
30
0.0
11
-0.016026
21
0.080176
31
0.0
0
LINE
8
0
6
CONTINUOUS
10
0.013857
20
0.067551
30
0.0
11
0.013905
21
0.069078
31
0.0
0
LINE
8
0
6
CONTINUOUS
10
-0.019217
20
0.071618
30
0.0
11
-0.018369
21
0.064443
31
0.0
0
LINE
8
0
6
CONTINUOUS
10
0.013779
20
0.064369
30
0.0
11
0.014363
21
0.071386
31
0.0
0
LINE
8
0
6
CONTINUOUS
10
-0.021887
20
0.072401
30
0.0
11
-0.022380
21
0.052387
31
0.0
0
LINE
8
0
6
CONTINUOUS
10
-0.021518
20
0.087401
30
0.0
11
-0.021887
21
0.072401
31
0.0
0
LINE
8
0
6
CONTINUOUS
10
-0.021309
20
0.101401
30
0.0
11
-0.021518
21
0.087401
31
0.0
0
LINE
8
0
6
CONTINUOUS
10
0.011438
20
0.080176
30
0.0
11
0.011502
21
0.077203
31
0.0
0
LINE
8
0
6
CONTINUOUS
10
0.013905
20
0.069078
30
0.0
11
0.013932
21
0.069904
31
0.0
0
LINE
8
0
6
CONTINUOUS
10
-0.015826
20
0.090920
30
0.0
11
-0.015929
21
0.085197
31
0.0
0
LINE
8
0
6
CONTINUOUS
10
-0.018308
20
0.061944
30
0.0
11
-0.019217
21
0.071618
31
0.0
0
LINE
8
0
6
CONTINUOUS
10
0.012932
20
0.029539
30
0.0
11
0.013857
21
0.067551
31
0.0
0
LINE
8
0
6
CONTINUOUS
10
0.016930
20
0.087401
30
0.0
11
0.016721
21
0.101401
31
0.0
0
LINE
8
0
6
CONTINUOUS
10
0.011499
20
0.075501
30
0.0
11
0.011502
21
0.077203
31
0.0
0
LINE
8
0
6
CONTINUOUS
10
-0.018493
20
0.069078
30
0.0
11
-0.018444
21
0.067551
31
0.0
0
LINE
8
0
6
CONTINUOUS
10
-0.016087
20
0.075501
30
0.0
11
-0.016090
21
0.077203
31
0.0
0
LINE
8
0
6
CONTINUOUS
10
-0.018546
20
0.070751
30
0.0
11
-0.018519
21
0.069904
31
0.0
0
LINE
8
0
6
CONTINUOUS
10
-0.016026
20
0.080176
30
0.0
11
-0.015929
21
0.085197
31
0.0
0
LINE
8
0
6
CONTINUOUS
10
-0.006666
20
0.102401
30
0.0
11
-0.002294
21
0.102401
31
0.0
0
LINE
8
0
6
CONTINUOUS
10
0.004679
20
0.035025
30
0.0
11
0.006659
21
0.033668
31
0.0
0
LINE
8
0
6
CONTINUOUS
10
-0.011891
20
0.033227
30
0.0
11
-0.013577
21
0.030962
31
0.0
0
LINE
8
0
6
CONTINUOUS
10
0.007304
20
0.033227
30
0.0
11
0.008989
21
0.030962
31
0.0
0
LINE
8
0
6
CONTINUOUS
10
0.006659
20
0.033668
30
0.0
11
0.007304
21
0.033227
31
0.0
0
LINE
8
0
6
CONTINUOUS
10
0.008989
20
0.030962
30
0.0
11
0.009410
21
0.029139
31
0.0
0
LINE
8
0
6
CONTINUOUS
10
-0.011247
20
0.033668
30
0.0
11
-0.009267
21
0.035025
31
0.0
0
LINE
8
0
6
CONTINUOUS
10
-0.013998
20
0.029139
30
0.0
11
-0.014157
21
0.028451
31
0.0
0
LINE
8
0
6
CONTINUOUS
10
-0.013577
20
0.030962
30
0.0
11
-0.013998
21
0.029139
31
0.0
0
LINE
8
0
6
CONTINUOUS
10
0.009410
20
0.029139
30
0.0
11
0.009569
21
0.028451
31
0.0
0
LINE
8
0
6
CONTINUOUS
10
-0.009267
20
0.035025
30
0.0
11
-0.005960
21
0.036179
31
0.0
0
ENDSEC
0
EOF
