999
Erzeugt mit innoplus bad 
0
SECTION
2
HEADER
9
$ACADVER
1
AC1009
9
$DWGCODEPAGE
3
ISO8859-1
0
ENDSEC
0
SECTION
2
TABLES
0
TABLE
2
LAYER
70
1
0
LAYER
2
0
70
0
62
7
6
CONTINUOUS
0
ENDTAB
0
ENDSEC
0
SECTION
2
ENTITIES
0
LINE
8
0
6
CONTINUOUS
10
-0.027829
20
0.118663
30
0.0
11
-0.031204
21
0.118663
31
0.0
0
LINE
8
0
6
CONTINUOUS
10
-0.004967
20
0.083337
30
0.0
11
-0.004042
21
0.083337
31
0.0
0
LINE
8
0
6
CONTINUOUS
10
-0.016316
20
-0.122075
30
0.0
11
-0.013598
21
0.070659
31
0.0
0
LINE
8
0
6
CONTINUOUS
10
-0.041098
20
0.106388
30
0.0
11
-0.041586
21
0.101000
31
0.0
0
LINE
8
0
6
CONTINUOUS
10
-0.009254
20
0.082188
30
0.0
11
-0.004967
21
0.083337
31
0.0
0
LINE
8
0
6
CONTINUOUS
10
-0.013540
20
0.074763
30
0.0
11
-0.012392
21
0.079050
31
0.0
0
LINE
8
0
6
CONTINUOUS
10
-0.015765
20
0.082423
30
0.0
11
-0.013256
21
0.079915
31
0.0
0
LINE
8
0
6
CONTINUOUS
10
-0.010118
20
0.083053
30
0.0
11
-0.012627
21
0.085561
31
0.0
0
LINE
8
0
6
CONTINUOUS
10
-0.047858
20
0.088575
30
0.0
11
-0.048223
21
0.092954
31
0.0
0
LINE
8
0
6
CONTINUOUS
10
-0.048584
20
0.094032
30
0.0
11
-0.048592
21
0.089389
31
0.0
0
LINE
8
0
6
CONTINUOUS
10
-0.048663
20
0.097897
30
0.0
11
-0.048584
21
0.094032
31
0.0
0
LINE
8
0
6
CONTINUOUS
10
-0.048223
20
0.092954
30
0.0
11
-0.048532
21
0.097248
31
0.0
0
LINE
8
0
6
CONTINUOUS
10
-0.049042
20
0.100716
30
0.0
11
-0.048663
21
0.097897
31
0.0
0
LINE
8
0
6
CONTINUOUS
10
-0.048532
20
0.097248
30
0.0
11
-0.048354
21
0.101578
31
0.0
0
LINE
8
0
6
CONTINUOUS
10
-0.048538
20
0.084636
30
0.0
11
-0.046092
21
-0.122075
31
0.0
0
LINE
8
0
6
CONTINUOUS
10
-0.048592
20
0.089389
30
0.0
11
-0.048538
21
0.084636
31
0.0
0
LINE
8
0
6
CONTINUOUS
10
-0.039955
20
-0.122441
30
0.0
11
-0.035804
21
-0.122318
31
0.0
0
LINE
8
0
6
CONTINUOUS
10
-0.043248
20
-0.122631
30
0.0
11
-0.039955
21
-0.122441
31
0.0
0
LINE
8
0
6
CONTINUOUS
10
-0.045363
20
-0.122872
30
0.0
11
-0.043248
21
-0.122631
31
0.0
0
LINE
8
0
6
CONTINUOUS
10
-0.046092
20
-0.122075
30
0.0
11
-0.046092
21
-0.123138
31
0.0
0
LINE
8
0
6
CONTINUOUS
10
-0.046092
20
-0.123138
30
0.0
11
-0.045363
21
-0.122872
31
0.0
0
LINE
8
0
6
CONTINUOUS
10
-0.046092
20
-0.123138
30
0.0
11
-0.045363
21
-0.123404
31
0.0
0
LINE
8
0
6
CONTINUOUS
10
-0.045363
20
-0.123404
30
0.0
11
-0.043248
21
-0.123645
31
0.0
0
LINE
8
0
6
CONTINUOUS
10
-0.043248
20
-0.123645
30
0.0
11
-0.039955
21
-0.123835
31
0.0
0
LINE
8
0
6
CONTINUOUS
10
-0.039955
20
-0.123835
30
0.0
11
-0.035804
21
-0.123958
31
0.0
0
LINE
8
0
6
CONTINUOUS
10
-0.035804
20
-0.123958
30
0.0
11
-0.031204
21
-0.124000
31
0.0
0
LINE
8
0
6
CONTINUOUS
10
-0.031204
20
-0.124000
30
0.0
11
-0.026603
21
-0.123958
31
0.0
0
LINE
8
0
6
CONTINUOUS
10
-0.026603
20
-0.123958
30
0.0
11
-0.022453
21
-0.123835
31
0.0
0
LINE
8
0
6
CONTINUOUS
10
-0.022453
20
-0.123835
30
0.0
11
-0.019159
21
-0.123645
31
0.0
0
LINE
8
0
6
CONTINUOUS
10
-0.019159
20
-0.123645
30
0.0
11
-0.017044
21
-0.123404
31
0.0
0
LINE
8
0
6
CONTINUOUS
10
-0.017044
20
-0.123404
30
0.0
11
-0.016316
21
-0.123138
31
0.0
0
LINE
8
0
6
CONTINUOUS
10
-0.016316
20
-0.123138
30
0.0
11
-0.016316
21
-0.122075
31
0.0
0
LINE
8
0
6
CONTINUOUS
10
-0.017044
20
-0.122872
30
0.0
11
-0.016316
21
-0.123138
31
0.0
0
LINE
8
0
6
CONTINUOUS
10
-0.019159
20
-0.122631
30
0.0
11
-0.017044
21
-0.122872
31
0.0
0
LINE
8
0
6
CONTINUOUS
10
-0.022453
20
-0.122441
30
0.0
11
-0.019159
21
-0.122631
31
0.0
0
LINE
8
0
6
CONTINUOUS
10
-0.026603
20
-0.122318
30
0.0
11
-0.022453
21
-0.122441
31
0.0
0
LINE
8
0
6
CONTINUOUS
10
-0.031204
20
-0.122276
30
0.0
11
-0.026603
21
-0.122318
31
0.0
0
LINE
8
0
6
CONTINUOUS
10
-0.035804
20
-0.122318
30
0.0
11
-0.031204
21
-0.122276
31
0.0
0
LINE
8
0
6
CONTINUOUS
10
-0.018309
20
0.083893
30
0.0
11
-0.014093
21
0.088089
31
0.0
0
LINE
8
0
6
CONTINUOUS
10
-0.048466
20
0.106632
30
0.0
11
-0.048560
21
0.106662
31
0.0
0
LINE
8
0
6
CONTINUOUS
10
-0.004042
20
0.083337
30
0.0
11
0.000084
21
0.083337
31
0.0
0
LINE
8
0
6
CONTINUOUS
10
0.001084
20
0.086710
30
0.0
11
0.001084
21
0.090618
31
0.0
0
LINE
8
0
6
CONTINUOUS
10
0.001084
20
0.090618
30
0.0
11
0.001084
21
0.095542
31
0.0
0
LINE
8
0
6
CONTINUOUS
10
0.001084
20
0.084201
30
0.0
11
0.001084
21
0.086710
31
0.0
0
LINE
8
0
6
CONTINUOUS
10
0.001084
20
0.095542
30
0.0
11
0.001084
21
0.101000
31
0.0
0
LINE
8
0
6
CONTINUOUS
10
0.000084
20
0.083337
30
0.0
11
0.001084
21
0.083337
31
0.0
0
LINE
8
0
6
CONTINUOUS
10
0.001084
20
0.083337
30
0.0
11
0.001084
21
0.084201
31
0.0
0
LINE
8
0
6
CONTINUOUS
10
0.001084
20
0.111382
30
0.0
11
0.001084
21
0.115290
31
0.0
0
LINE
8
0
6
CONTINUOUS
10
0.001084
20
0.106458
30
0.0
11
0.001084
21
0.111382
31
0.0
0
LINE
8
0
6
CONTINUOUS
10
0.001084
20
0.115290
30
0.0
11
0.001084
21
0.117799
31
0.0
0
LINE
8
0
6
CONTINUOUS
10
0.001084
20
0.101000
30
0.0
11
0.001084
21
0.106458
31
0.0
0
LINE
8
0
6
CONTINUOUS
10
0.001084
20
0.118663
30
0.0
11
0.000084
21
0.118663
31
0.0
0
LINE
8
0
6
CONTINUOUS
10
0.001084
20
0.117799
30
0.0
11
0.001084
21
0.118663
31
0.0
0
LINE
8
0
6
CONTINUOUS
10
-0.022361
20
0.084399
30
0.0
11
-0.020823
21
0.078928
31
0.0
0
LINE
8
0
6
CONTINUOUS
10
-0.020823
20
0.078928
30
0.0
11
-0.018309
21
0.083893
31
0.0
0
LINE
8
0
6
CONTINUOUS
10
-0.012392
20
0.079050
30
0.0
11
-0.009254
21
0.082188
31
0.0
0
LINE
8
0
6
CONTINUOUS
10
-0.013256
20
0.079915
30
0.0
11
-0.012392
21
0.079050
31
0.0
0
LINE
8
0
6
CONTINUOUS
10
-0.010118
20
0.083053
30
0.0
11
-0.013256
21
0.079915
31
0.0
0
LINE
8
0
6
CONTINUOUS
10
-0.009254
20
0.082188
30
0.0
11
-0.010118
21
0.083053
31
0.0
0
LINE
8
0
6
CONTINUOUS
10
-0.054204
20
0.101000
30
0.0
11
-0.053078
21
0.093893
31
0.0
0
LINE
8
0
6
CONTINUOUS
10
-0.049811
20
0.087481
30
0.0
11
-0.048556
21
0.086226
31
0.0
0
LINE
8
0
6
CONTINUOUS
10
-0.053078
20
0.093893
30
0.0
11
-0.049811
21
0.087481
31
0.0
0
LINE
8
0
6
CONTINUOUS
10
-0.053078
20
0.108107
30
0.0
11
-0.054204
21
0.101000
31
0.0
0
LINE
8
0
6
CONTINUOUS
10
-0.017685
20
0.119607
30
0.0
11
-0.024096
21
0.122874
31
0.0
0
LINE
8
0
6
CONTINUOUS
10
-0.044723
20
0.119607
30
0.0
11
-0.049811
21
0.114519
31
0.0
0
LINE
8
0
6
CONTINUOUS
10
-0.031204
20
0.124000
30
0.0
11
-0.038311
21
0.122874
31
0.0
0
LINE
8
0
6
CONTINUOUS
10
-0.016740
20
0.118663
30
0.0
11
-0.017685
21
0.119607
31
0.0
0
LINE
8
0
6
CONTINUOUS
10
-0.049811
20
0.114519
30
0.0
11
-0.053078
21
0.108107
31
0.0
0
LINE
8
0
6
CONTINUOUS
10
-0.038311
20
0.122874
30
0.0
11
-0.044723
21
0.119607
31
0.0
0
LINE
8
0
6
CONTINUOUS
10
-0.024096
20
0.122874
30
0.0
11
-0.031204
21
0.124000
31
0.0
0
LINE
8
0
6
CONTINUOUS
10
-0.013598
20
0.070659
30
0.0
11
-0.013540
21
0.074763
31
0.0
0
LINE
8
0
6
CONTINUOUS
10
-0.021080
20
0.118663
30
0.0
11
-0.024454
21
0.118663
31
0.0
0
LINE
8
0
6
CONTINUOUS
10
-0.024454
20
0.118663
30
0.0
11
-0.027829
21
0.118663
31
0.0
0
LINE
8
0
6
CONTINUOUS
10
-0.017705
20
0.118663
30
0.0
11
-0.021080
21
0.118663
31
0.0
0
LINE
8
0
6
CONTINUOUS
10
0.000084
20
0.118663
30
0.0
11
-0.017705
21
0.118663
31
0.0
0
LINE
8
0
6
CONTINUOUS
10
0.042046
20
0.090053
30
0.0
11
0.040957
21
0.092179
31
0.0
0
LINE
8
0
6
CONTINUOUS
10
0.038915
20
0.118517
30
0.0
11
0.037007
21
0.118512
31
0.0
0
LINE
8
0
6
CONTINUOUS
10
0.053312
20
0.062518
30
0.0
11
0.053836
21
0.063172
31
0.0
0
LINE
8
0
6
CONTINUOUS
10
0.044792
20
0.064838
30
0.0
11
0.035252
21
0.084597
31
0.0
0
LINE
8
0
6
CONTINUOUS
10
0.037007
20
0.118512
30
0.0
11
0.034261
21
0.118508
31
0.0
0
LINE
8
0
6
CONTINUOUS
10
0.030548
20
0.091141
30
0.0
11
0.033096
21
0.091238
31
0.0
0
LINE
8
0
6
CONTINUOUS
10
0.034261
20
0.118508
30
0.0
11
0.031514
21
0.118507
31
0.0
0
LINE
8
0
6
CONTINUOUS
10
0.044178
20
0.085890
30
0.0
11
0.042046
21
0.090053
31
0.0
0
LINE
8
0
6
CONTINUOUS
10
0.031514
20
0.118507
30
0.0
11
0.028768
21
0.118506
31
0.0
0
LINE
8
0
6
CONTINUOUS
10
0.023499
20
0.118505
30
0.0
11
0.005013
21
0.118503
31
0.0
0
LINE
8
0
6
CONTINUOUS
10
0.026021
20
0.118506
30
0.0
11
0.023499
21
0.118505
31
0.0
0
LINE
8
0
6
CONTINUOUS
10
0.028768
20
0.118506
30
0.0
11
0.026021
21
0.118506
31
0.0
0
LINE
8
0
6
CONTINUOUS
10
0.040957
20
0.092179
30
0.0
11
0.040258
21
0.093422
31
0.0
0
LINE
8
0
6
CONTINUOUS
10
0.033096
20
0.091238
30
0.0
11
0.031968
21
0.089952
31
0.0
0
LINE
8
0
6
CONTINUOUS
10
0.033437
20
0.088142
30
0.0
11
0.031968
21
0.089952
31
0.0
0
LINE
8
0
6
CONTINUOUS
10
0.033437
20
0.088142
30
0.0
11
0.035252
21
0.084597
31
0.0
0
LINE
8
0
6
CONTINUOUS
10
0.053718
20
0.066131
30
0.0
11
0.044178
21
0.085890
31
0.0
0
LINE
8
0
6
CONTINUOUS
10
0.040017
20
0.093913
30
0.0
11
0.039754
21
0.097007
31
0.0
0
LINE
8
0
6
CONTINUOUS
10
0.025811
20
0.094642
30
0.0
11
0.026971
21
0.093758
31
0.0
0
LINE
8
0
6
CONTINUOUS
10
0.030548
20
0.087531
30
0.0
11
0.033096
21
0.086197
31
0.0
0
LINE
8
0
6
CONTINUOUS
10
0.028650
20
0.087527
30
0.0
11
0.026971
21
0.087348
31
0.0
0
LINE
8
0
6
CONTINUOUS
10
0.035252
20
0.081869
30
0.0
11
0.044792
21
0.062110
31
0.0
0
LINE
8
0
6
CONTINUOUS
10
0.044425
20
0.063421
30
0.0
11
0.034884
21
0.083180
31
0.0
0
LINE
8
0
6
CONTINUOUS
10
0.031514
20
0.083495
30
0.0
11
0.034261
21
0.083495
31
0.0
0
LINE
8
0
6
CONTINUOUS
10
0.028768
20
0.083495
30
0.0
11
0.031514
21
0.083495
31
0.0
0
LINE
8
0
6
CONTINUOUS
10
0.026021
20
0.083495
30
0.0
11
0.028768
21
0.083495
31
0.0
0
LINE
8
0
6
CONTINUOUS
10
0.031611
20
0.088469
30
0.0
11
0.030505
21
0.089128
31
0.0
0
LINE
8
0
6
CONTINUOUS
10
0.023499
20
0.083495
30
0.0
11
0.026021
21
0.083495
31
0.0
0
LINE
8
0
6
CONTINUOUS
10
0.005013
20
0.083495
30
0.0
11
0.023499
21
0.083495
31
0.0
0
LINE
8
0
6
CONTINUOUS
10
0.031968
20
0.087224
30
0.0
11
0.033437
21
0.085413
31
0.0
0
LINE
8
0
6
CONTINUOUS
10
0.033092
20
0.086681
30
0.0
11
0.031611
21
0.088469
31
0.0
0
LINE
8
0
6
CONTINUOUS
10
0.033437
20
0.085413
30
0.0
11
0.035252
21
0.081869
31
0.0
0
LINE
8
0
6
CONTINUOUS
10
0.034884
20
0.083180
30
0.0
11
0.033092
21
0.086681
31
0.0
0
LINE
8
0
6
CONTINUOUS
10
0.026971
20
0.087348
30
0.0
11
0.025811
21
0.087100
31
0.0
0
LINE
8
0
6
CONTINUOUS
10
0.038981
20
0.092278
30
0.0
11
0.038578
21
0.093150
31
0.0
0
LINE
8
0
6
CONTINUOUS
10
0.028650
20
0.092474
30
0.0
11
0.026971
21
0.093758
31
0.0
0
LINE
8
0
6
CONTINUOUS
10
0.040536
20
0.093203
30
0.0
11
0.040053
21
0.095641
31
0.0
0
LINE
8
0
6
CONTINUOUS
10
0.028650
20
0.092474
30
0.0
11
0.030548
21
0.091141
31
0.0
0
LINE
8
0
6
CONTINUOUS
10
0.030548
20
0.087531
30
0.0
11
0.028650
21
0.087527
31
0.0
0
LINE
8
0
6
CONTINUOUS
10
0.053836
20
0.065901
30
0.0
11
0.053718
21
0.066131
31
0.0
0
LINE
8
0
6
CONTINUOUS
10
0.054204
20
0.064590
30
0.0
11
0.053836
21
0.065901
31
0.0
0
LINE
8
0
6
CONTINUOUS
10
0.052789
20
0.061864
30
0.0
11
0.053312
21
0.062518
31
0.0
0
LINE
8
0
6
CONTINUOUS
10
0.052061
20
0.067159
30
0.0
11
0.051222
21
0.067452
31
0.0
0
LINE
8
0
6
CONTINUOUS
10
0.053836
20
0.065901
30
0.0
11
0.053312
21
0.066403
31
0.0
0
LINE
8
0
6
CONTINUOUS
10
0.051222
20
0.067452
30
0.0
11
0.049373
21
0.067455
31
0.0
0
LINE
8
0
6
CONTINUOUS
10
0.049373
20
0.067455
30
0.0
11
0.047525
21
0.066916
31
0.0
0
LINE
8
0
6
CONTINUOUS
10
0.047525
20
0.066916
30
0.0
11
0.045957
21
0.065916
31
0.0
0
LINE
8
0
6
CONTINUOUS
10
0.045957
20
0.065916
30
0.0
11
0.044910
21
0.064608
31
0.0
0
LINE
8
0
6
CONTINUOUS
10
0.044910
20
0.064608
30
0.0
11
0.044792
21
0.064838
31
0.0
0
LINE
8
0
6
CONTINUOUS
10
0.044910
20
0.064608
30
0.0
11
0.044543
21
0.063191
31
0.0
0
LINE
8
0
6
CONTINUOUS
10
0.053836
20
0.063172
30
0.0
11
0.054204
21
0.064590
31
0.0
0
LINE
8
0
6
CONTINUOUS
10
0.051222
20
0.060865
30
0.0
11
0.052061
21
0.061400
31
0.0
0
LINE
8
0
6
CONTINUOUS
10
0.049373
20
0.060325
30
0.0
11
0.051222
21
0.060865
31
0.0
0
LINE
8
0
6
CONTINUOUS
10
0.047525
20
0.060329
30
0.0
11
0.049373
21
0.060325
31
0.0
0
LINE
8
0
6
CONTINUOUS
10
0.045957
20
0.060875
30
0.0
11
0.047525
21
0.060329
31
0.0
0
LINE
8
0
6
CONTINUOUS
10
0.044910
20
0.061880
30
0.0
11
0.045957
21
0.060875
31
0.0
0
LINE
8
0
6
CONTINUOUS
10
0.044792
20
0.062110
30
0.0
11
0.044910
21
0.061880
31
0.0
0
LINE
8
0
6
CONTINUOUS
10
0.044543
20
0.063191
30
0.0
11
0.044425
21
0.063421
31
0.0
0
LINE
8
0
6
CONTINUOUS
10
0.044910
20
0.061880
30
0.0
11
0.044543
21
0.063191
31
0.0
0
LINE
8
0
6
CONTINUOUS
10
0.039754
20
0.115147
30
0.0
11
0.039754
21
0.117341
31
0.0
0
LINE
8
0
6
CONTINUOUS
10
0.039754
20
0.111934
30
0.0
11
0.039754
21
0.115147
31
0.0
0
LINE
8
0
6
CONTINUOUS
10
0.039754
20
0.103541
30
0.0
11
0.039754
21
0.108042
31
0.0
0
LINE
8
0
6
CONTINUOUS
10
0.039754
20
0.108042
30
0.0
11
0.039754
21
0.111934
31
0.0
0
LINE
8
0
6
CONTINUOUS
10
0.039754
20
0.098853
30
0.0
11
0.039754
21
0.103541
31
0.0
0
LINE
8
0
6
CONTINUOUS
10
0.039754
20
0.118519
30
0.0
11
0.038915
21
0.118517
31
0.0
0
LINE
8
0
6
CONTINUOUS
10
0.039754
20
0.117341
30
0.0
11
0.039754
21
0.118519
31
0.0
0
LINE
8
0
6
CONTINUOUS
10
0.040672
20
0.091555
30
0.0
11
0.041504
21
0.089979
31
0.0
0
LINE
8
0
6
CONTINUOUS
10
0.039754
20
0.095278
30
0.0
11
0.039754
21
0.096247
31
0.0
0
LINE
8
0
6
CONTINUOUS
10
0.039754
20
0.096247
30
0.0
11
0.039754
21
0.098853
31
0.0
0
LINE
8
0
6
CONTINUOUS
10
0.039944
20
0.093999
30
0.0
11
0.039754
21
0.095278
31
0.0
0
LINE
8
0
6
CONTINUOUS
10
0.040410
20
0.092536
30
0.0
11
0.039944
21
0.093999
31
0.0
0
LINE
8
0
6
CONTINUOUS
10
0.040410
20
0.092536
30
0.0
11
0.040672
21
0.091555
31
0.0
0
LINE
8
0
6
CONTINUOUS
10
0.052061
20
0.061400
30
0.0
11
0.052789
21
0.061864
31
0.0
0
LINE
8
0
6
CONTINUOUS
10
0.052789
20
0.066906
30
0.0
11
0.052061
21
0.067159
31
0.0
0
LINE
8
0
6
CONTINUOUS
10
0.053312
20
0.066403
30
0.0
11
0.052789
21
0.066906
31
0.0
0
LINE
8
0
6
CONTINUOUS
10
0.040053
20
0.095641
30
0.0
11
0.039754
21
0.098491
31
0.0
0
LINE
8
0
6
CONTINUOUS
10
0.005609
20
0.117613
30
0.0
11
0.001084
21
0.117613
31
0.0
0
LINE
8
0
6
CONTINUOUS
10
0.001084
20
0.084390
30
0.0
11
0.005609
21
0.084390
31
0.0
0
LINE
8
0
6
CONTINUOUS
10
0.004593
20
0.108042
30
0.0
11
0.004593
21
0.103541
31
0.0
0
LINE
8
0
6
CONTINUOUS
10
0.004593
20
0.111934
30
0.0
11
0.004593
21
0.108042
31
0.0
0
LINE
8
0
6
CONTINUOUS
10
0.004593
20
0.115147
30
0.0
11
0.004593
21
0.111934
31
0.0
0
LINE
8
0
6
CONTINUOUS
10
0.004593
20
0.117328
30
0.0
11
0.004593
21
0.115147
31
0.0
0
LINE
8
0
6
CONTINUOUS
10
0.004593
20
0.103541
30
0.0
11
0.004593
21
0.098853
31
0.0
0
LINE
8
0
6
CONTINUOUS
10
0.004593
20
0.098853
30
0.0
11
0.004593
21
0.094446
31
0.0
0
LINE
8
0
6
CONTINUOUS
10
0.004593
20
0.094446
30
0.0
11
0.004593
21
0.090446
31
0.0
0
LINE
8
0
6
CONTINUOUS
10
0.004593
20
0.118503
30
0.0
11
0.004593
21
0.117328
31
0.0
0
LINE
8
0
6
CONTINUOUS
10
0.005013
20
0.118503
30
0.0
11
0.004593
21
0.118503
31
0.0
0
LINE
8
0
6
CONTINUOUS
10
0.004593
20
0.083495
30
0.0
11
0.005013
21
0.083495
31
0.0
0
LINE
8
0
6
CONTINUOUS
10
0.004593
20
0.084826
30
0.0
11
0.004593
21
0.083518
31
0.0
0
LINE
8
0
6
CONTINUOUS
10
0.004593
20
0.087206
30
0.0
11
0.004593
21
0.084826
31
0.0
0
LINE
8
0
6
CONTINUOUS
10
0.004593
20
0.090446
30
0.0
11
0.004593
21
0.087206
31
0.0
0
ENDSEC
0
EOF
