999
Erzeugt mit innoplus bad 
0
SECTION
2
HEADER
9
$ACADVER
1
AC1009
9
$DWGCODEPAGE
3
ISO8859-1
0
ENDSEC
0
SECTION
2
TABLES
0
TABLE
2
LAYER
70
1
0
LAYER
2
0
70
0
62
7
6
CONTINUOUS
0
ENDTAB
0
ENDSEC
0
SECTION
2
ENTITIES
0
LINE
8
0
6
CONTINUOUS
10
-0.007738
20
0.119497
30
0.0
11
-0.004600
21
0.122988
31
0.0
0
LINE
8
0
6
CONTINUOUS
10
-0.010279
20
0.116396
30
0.0
11
-0.009743
21
0.117125
31
0.0
0
LINE
8
0
6
CONTINUOUS
10
-0.010782
20
0.115638
30
0.0
11
-0.010279
21
0.116396
31
0.0
0
LINE
8
0
6
CONTINUOUS
10
-0.011110
20
0.115213
30
0.0
11
-0.010782
21
0.115638
31
0.0
0
LINE
8
0
6
CONTINUOUS
10
-0.011568
20
0.114621
30
0.0
11
-0.011110
21
0.115213
31
0.0
0
LINE
8
0
6
CONTINUOUS
10
-0.009801
20
0.117088
30
0.0
11
-0.007738
21
0.119497
31
0.0
0
LINE
8
0
6
CONTINUOUS
10
-0.011820
20
0.115146
30
0.0
11
-0.012142
21
0.114621
31
0.0
0
LINE
8
0
6
CONTINUOUS
10
-0.009827
20
0.117208
30
0.0
11
-0.007767
21
0.119512
31
0.0
0
LINE
8
0
6
CONTINUOUS
10
-0.003616
20
0.124808
30
0.0
11
-0.003662
21
0.125655
31
0.0
0
LINE
8
0
6
CONTINUOUS
10
-0.003675
20
0.124852
30
0.0
11
-0.003721
21
0.125698
31
0.0
0
LINE
8
0
6
CONTINUOUS
10
-0.004035
20
0.126217
30
0.0
11
-0.005125
21
0.127199
31
0.0
0
LINE
8
0
6
CONTINUOUS
10
-0.005125
20
0.127199
30
0.0
11
-0.003882
21
0.125932
31
0.0
0
LINE
8
0
6
CONTINUOUS
10
-0.004600
20
0.122988
30
0.0
11
-0.003616
21
0.124808
31
0.0
0
LINE
8
0
6
CONTINUOUS
10
-0.004659
20
0.123031
30
0.0
11
-0.003675
21
0.124852
31
0.0
0
LINE
8
0
6
CONTINUOUS
10
-0.003882
20
0.125932
30
0.0
11
-0.003721
21
0.125698
31
0.0
0
LINE
8
0
6
CONTINUOUS
10
-0.003662
20
0.125655
30
0.0
11
-0.004035
21
0.126217
31
0.0
0
LINE
8
0
6
CONTINUOUS
10
-0.015147
20
0.116235
30
0.0
11
-0.016372
21
0.114621
31
0.0
0
LINE
8
0
6
CONTINUOUS
10
-0.010071
20
0.117476
30
0.0
11
-0.007901
21
0.119612
31
0.0
0
LINE
8
0
6
CONTINUOUS
10
-0.009260
20
0.126244
30
0.0
11
-0.011459
21
0.122097
31
0.0
0
LINE
8
0
6
CONTINUOUS
10
-0.012997
20
0.119399
30
0.0
11
-0.013497
21
0.118644
31
0.0
0
LINE
8
0
6
CONTINUOUS
10
-0.013497
20
0.118644
30
0.0
11
-0.014037
21
0.117912
31
0.0
0
LINE
8
0
6
CONTINUOUS
10
-0.014322
20
0.117458
30
0.0
11
-0.014776
21
0.116735
31
0.0
0
LINE
8
0
6
CONTINUOUS
10
-0.014037
20
0.117912
30
0.0
11
-0.014322
21
0.117458
31
0.0
0
LINE
8
0
6
CONTINUOUS
10
-0.014776
20
0.116735
30
0.0
11
-0.015147
21
0.116235
31
0.0
0
LINE
8
0
6
CONTINUOUS
10
-0.011459
20
0.122097
30
0.0
11
-0.013012
21
0.119331
31
0.0
0
LINE
8
0
6
CONTINUOUS
10
-0.014762
20
0.115983
30
0.0
11
-0.014141
21
0.116768
31
0.0
0
LINE
8
0
6
CONTINUOUS
10
-0.015202
20
0.115243
30
0.0
11
-0.014762
21
0.115983
31
0.0
0
LINE
8
0
6
CONTINUOUS
10
-0.011435
20
0.122075
30
0.0
11
-0.012890
21
0.119348
31
0.0
0
LINE
8
0
6
CONTINUOUS
10
-0.007078
20
0.128042
30
0.0
11
-0.007889
21
0.127794
31
0.0
0
LINE
8
0
6
CONTINUOUS
10
-0.007017
20
0.128001
30
0.0
11
-0.007828
21
0.127753
31
0.0
0
LINE
8
0
6
CONTINUOUS
10
-0.005125
20
0.127199
30
0.0
11
-0.006422
21
0.127885
31
0.0
0
LINE
8
0
6
CONTINUOUS
10
-0.006742
20
0.127930
30
0.0
11
-0.005125
21
0.127199
31
0.0
0
LINE
8
0
6
CONTINUOUS
10
-0.007889
20
0.127794
30
0.0
11
-0.009260
21
0.126244
31
0.0
0
LINE
8
0
6
CONTINUOUS
10
-0.007828
20
0.127753
30
0.0
11
-0.009199
21
0.126203
31
0.0
0
LINE
8
0
6
CONTINUOUS
10
-0.006422
20
0.127885
30
0.0
11
-0.007078
21
0.128042
31
0.0
0
LINE
8
0
6
CONTINUOUS
10
-0.007017
20
0.128001
30
0.0
11
-0.006742
21
0.127930
31
0.0
0
LINE
8
0
6
CONTINUOUS
10
-0.011295
20
0.121983
30
0.0
11
-0.012555
21
0.119211
31
0.0
0
LINE
8
0
6
CONTINUOUS
10
-0.015202
20
0.115243
30
0.0
11
-0.015630
21
0.114621
31
0.0
0
LINE
8
0
6
CONTINUOUS
10
-0.027829
20
0.114621
30
0.0
11
-0.031204
21
0.114621
31
0.0
0
LINE
8
0
6
CONTINUOUS
10
-0.004967
20
0.079295
30
0.0
11
-0.004042
21
0.079295
31
0.0
0
LINE
8
0
6
CONTINUOUS
10
-0.016316
20
-0.126117
30
0.0
11
-0.013598
21
0.066617
31
0.0
0
LINE
8
0
6
CONTINUOUS
10
-0.041098
20
0.102346
30
0.0
11
-0.041586
21
0.096958
31
0.0
0
LINE
8
0
6
CONTINUOUS
10
-0.009254
20
0.078146
30
0.0
11
-0.004967
21
0.079295
31
0.0
0
LINE
8
0
6
CONTINUOUS
10
-0.013540
20
0.070721
30
0.0
11
-0.012392
21
0.075008
31
0.0
0
LINE
8
0
6
CONTINUOUS
10
-0.015765
20
0.078381
30
0.0
11
-0.013256
21
0.075873
31
0.0
0
LINE
8
0
6
CONTINUOUS
10
-0.010118
20
0.079011
30
0.0
11
-0.012627
21
0.081519
31
0.0
0
LINE
8
0
6
CONTINUOUS
10
-0.047858
20
0.084533
30
0.0
11
-0.048223
21
0.088912
31
0.0
0
LINE
8
0
6
CONTINUOUS
10
-0.048584
20
0.089990
30
0.0
11
-0.048592
21
0.085347
31
0.0
0
LINE
8
0
6
CONTINUOUS
10
-0.048663
20
0.093855
30
0.0
11
-0.048584
21
0.089990
31
0.0
0
LINE
8
0
6
CONTINUOUS
10
-0.048223
20
0.088912
30
0.0
11
-0.048532
21
0.093206
31
0.0
0
LINE
8
0
6
CONTINUOUS
10
-0.049042
20
0.096674
30
0.0
11
-0.048663
21
0.093855
31
0.0
0
LINE
8
0
6
CONTINUOUS
10
-0.048532
20
0.093206
30
0.0
11
-0.048354
21
0.097536
31
0.0
0
LINE
8
0
6
CONTINUOUS
10
-0.048538
20
0.080594
30
0.0
11
-0.046092
21
-0.126117
31
0.0
0
LINE
8
0
6
CONTINUOUS
10
-0.048592
20
0.085347
30
0.0
11
-0.048538
21
0.080594
31
0.0
0
LINE
8
0
6
CONTINUOUS
10
-0.039955
20
-0.126483
30
0.0
11
-0.035804
21
-0.126360
31
0.0
0
LINE
8
0
6
CONTINUOUS
10
-0.043248
20
-0.126673
30
0.0
11
-0.039955
21
-0.126483
31
0.0
0
LINE
8
0
6
CONTINUOUS
10
-0.045363
20
-0.126914
30
0.0
11
-0.043248
21
-0.126673
31
0.0
0
LINE
8
0
6
CONTINUOUS
10
-0.046092
20
-0.126117
30
0.0
11
-0.046092
21
-0.127180
31
0.0
0
LINE
8
0
6
CONTINUOUS
10
-0.046092
20
-0.127180
30
0.0
11
-0.045363
21
-0.126914
31
0.0
0
LINE
8
0
6
CONTINUOUS
10
-0.046092
20
-0.127180
30
0.0
11
-0.045363
21
-0.127446
31
0.0
0
LINE
8
0
6
CONTINUOUS
10
-0.045363
20
-0.127446
30
0.0
11
-0.043248
21
-0.127687
31
0.0
0
LINE
8
0
6
CONTINUOUS
10
-0.043248
20
-0.127687
30
0.0
11
-0.039955
21
-0.127877
31
0.0
0
LINE
8
0
6
CONTINUOUS
10
-0.039955
20
-0.127877
30
0.0
11
-0.035804
21
-0.128000
31
0.0
0
LINE
8
0
6
CONTINUOUS
10
-0.035804
20
-0.128000
30
0.0
11
-0.031204
21
-0.128042
31
0.0
0
LINE
8
0
6
CONTINUOUS
10
-0.031204
20
-0.128042
30
0.0
11
-0.026603
21
-0.128000
31
0.0
0
LINE
8
0
6
CONTINUOUS
10
-0.026603
20
-0.128000
30
0.0
11
-0.022453
21
-0.127877
31
0.0
0
LINE
8
0
6
CONTINUOUS
10
-0.022453
20
-0.127877
30
0.0
11
-0.019159
21
-0.127687
31
0.0
0
LINE
8
0
6
CONTINUOUS
10
-0.019159
20
-0.127687
30
0.0
11
-0.017044
21
-0.127446
31
0.0
0
LINE
8
0
6
CONTINUOUS
10
-0.017044
20
-0.127446
30
0.0
11
-0.016316
21
-0.127180
31
0.0
0
LINE
8
0
6
CONTINUOUS
10
-0.016316
20
-0.127180
30
0.0
11
-0.016316
21
-0.126117
31
0.0
0
LINE
8
0
6
CONTINUOUS
10
-0.017044
20
-0.126914
30
0.0
11
-0.016316
21
-0.127180
31
0.0
0
LINE
8
0
6
CONTINUOUS
10
-0.019159
20
-0.126674
30
0.0
11
-0.017044
21
-0.126914
31
0.0
0
LINE
8
0
6
CONTINUOUS
10
-0.022453
20
-0.126483
30
0.0
11
-0.019159
21
-0.126674
31
0.0
0
LINE
8
0
6
CONTINUOUS
10
-0.026603
20
-0.126360
30
0.0
11
-0.022453
21
-0.126483
31
0.0
0
LINE
8
0
6
CONTINUOUS
10
-0.031204
20
-0.126318
30
0.0
11
-0.026603
21
-0.126360
31
0.0
0
LINE
8
0
6
CONTINUOUS
10
-0.035804
20
-0.126360
30
0.0
11
-0.031204
21
-0.126318
31
0.0
0
LINE
8
0
6
CONTINUOUS
10
-0.018309
20
0.079851
30
0.0
11
-0.014093
21
0.084047
31
0.0
0
LINE
8
0
6
CONTINUOUS
10
-0.048466
20
0.102590
30
0.0
11
-0.048560
21
0.102620
31
0.0
0
LINE
8
0
6
CONTINUOUS
10
-0.004042
20
0.079295
30
0.0
11
0.000084
21
0.079295
31
0.0
0
LINE
8
0
6
CONTINUOUS
10
0.001084
20
0.082668
30
0.0
11
0.001084
21
0.086576
31
0.0
0
LINE
8
0
6
CONTINUOUS
10
0.001084
20
0.086576
30
0.0
11
0.001084
21
0.091500
31
0.0
0
LINE
8
0
6
CONTINUOUS
10
0.001084
20
0.080159
30
0.0
11
0.001084
21
0.082668
31
0.0
0
LINE
8
0
6
CONTINUOUS
10
0.001084
20
0.091500
30
0.0
11
0.001084
21
0.096958
31
0.0
0
LINE
8
0
6
CONTINUOUS
10
0.000084
20
0.079295
30
0.0
11
0.001084
21
0.079295
31
0.0
0
LINE
8
0
6
CONTINUOUS
10
0.001084
20
0.079295
30
0.0
11
0.001084
21
0.080159
31
0.0
0
LINE
8
0
6
CONTINUOUS
10
0.001084
20
0.107340
30
0.0
11
0.001084
21
0.111248
31
0.0
0
LINE
8
0
6
CONTINUOUS
10
0.001084
20
0.102416
30
0.0
11
0.001084
21
0.107340
31
0.0
0
LINE
8
0
6
CONTINUOUS
10
0.001084
20
0.111248
30
0.0
11
0.001084
21
0.113757
31
0.0
0
LINE
8
0
6
CONTINUOUS
10
0.001084
20
0.096958
30
0.0
11
0.001084
21
0.102416
31
0.0
0
LINE
8
0
6
CONTINUOUS
10
0.001084
20
0.114621
30
0.0
11
0.000084
21
0.114621
31
0.0
0
LINE
8
0
6
CONTINUOUS
10
0.001084
20
0.113757
30
0.0
11
0.001084
21
0.114621
31
0.0
0
LINE
8
0
6
CONTINUOUS
10
-0.022361
20
0.080357
30
0.0
11
-0.020823
21
0.074886
31
0.0
0
LINE
8
0
6
CONTINUOUS
10
-0.020823
20
0.074886
30
0.0
11
-0.018309
21
0.079851
31
0.0
0
LINE
8
0
6
CONTINUOUS
10
-0.012392
20
0.075008
30
0.0
11
-0.009254
21
0.078146
31
0.0
0
LINE
8
0
6
CONTINUOUS
10
-0.013256
20
0.075873
30
0.0
11
-0.012392
21
0.075008
31
0.0
0
LINE
8
0
6
CONTINUOUS
10
-0.010118
20
0.079011
30
0.0
11
-0.013256
21
0.075873
31
0.0
0
LINE
8
0
6
CONTINUOUS
10
-0.009254
20
0.078146
30
0.0
11
-0.010118
21
0.079011
31
0.0
0
LINE
8
0
6
CONTINUOUS
10
-0.054204
20
0.096958
30
0.0
11
-0.053078
21
0.089851
31
0.0
0
LINE
8
0
6
CONTINUOUS
10
-0.049811
20
0.083439
30
0.0
11
-0.048556
21
0.082184
31
0.0
0
LINE
8
0
6
CONTINUOUS
10
-0.053078
20
0.089851
30
0.0
11
-0.049811
21
0.083439
31
0.0
0
LINE
8
0
6
CONTINUOUS
10
-0.053078
20
0.104065
30
0.0
11
-0.054204
21
0.096958
31
0.0
0
LINE
8
0
6
CONTINUOUS
10
-0.017685
20
0.115565
30
0.0
11
-0.024096
21
0.118832
31
0.0
0
LINE
8
0
6
CONTINUOUS
10
-0.044723
20
0.115565
30
0.0
11
-0.049811
21
0.110477
31
0.0
0
LINE
8
0
6
CONTINUOUS
10
-0.031204
20
0.119958
30
0.0
11
-0.038311
21
0.118832
31
0.0
0
LINE
8
0
6
CONTINUOUS
10
-0.016740
20
0.114621
30
0.0
11
-0.017685
21
0.115565
31
0.0
0
LINE
8
0
6
CONTINUOUS
10
-0.049811
20
0.110477
30
0.0
11
-0.053078
21
0.104065
31
0.0
0
LINE
8
0
6
CONTINUOUS
10
-0.038311
20
0.118832
30
0.0
11
-0.044723
21
0.115565
31
0.0
0
LINE
8
0
6
CONTINUOUS
10
-0.024096
20
0.118832
30
0.0
11
-0.031204
21
0.119958
31
0.0
0
LINE
8
0
6
CONTINUOUS
10
-0.013598
20
0.066617
30
0.0
11
-0.013540
21
0.070721
31
0.0
0
LINE
8
0
6
CONTINUOUS
10
-0.021080
20
0.114621
30
0.0
11
-0.024454
21
0.114621
31
0.0
0
LINE
8
0
6
CONTINUOUS
10
-0.024454
20
0.114621
30
0.0
11
-0.027829
21
0.114621
31
0.0
0
LINE
8
0
6
CONTINUOUS
10
-0.017705
20
0.114621
30
0.0
11
-0.021080
21
0.114621
31
0.0
0
LINE
8
0
6
CONTINUOUS
10
0.000084
20
0.114621
30
0.0
11
-0.017705
21
0.114621
31
0.0
0
LINE
8
0
6
CONTINUOUS
10
0.042046
20
0.086011
30
0.0
11
0.040957
21
0.088137
31
0.0
0
LINE
8
0
6
CONTINUOUS
10
0.038915
20
0.114475
30
0.0
11
0.037007
21
0.114470
31
0.0
0
LINE
8
0
6
CONTINUOUS
10
0.053312
20
0.058476
30
0.0
11
0.053836
21
0.059130
31
0.0
0
LINE
8
0
6
CONTINUOUS
10
0.044792
20
0.060796
30
0.0
11
0.035252
21
0.080555
31
0.0
0
LINE
8
0
6
CONTINUOUS
10
0.037007
20
0.114470
30
0.0
11
0.034261
21
0.114466
31
0.0
0
LINE
8
0
6
CONTINUOUS
10
0.030548
20
0.087099
30
0.0
11
0.033096
21
0.087196
31
0.0
0
LINE
8
0
6
CONTINUOUS
10
0.034261
20
0.114466
30
0.0
11
0.031514
21
0.114465
31
0.0
0
LINE
8
0
6
CONTINUOUS
10
0.044178
20
0.081848
30
0.0
11
0.042046
21
0.086011
31
0.0
0
LINE
8
0
6
CONTINUOUS
10
0.031514
20
0.114465
30
0.0
11
0.028768
21
0.114464
31
0.0
0
LINE
8
0
6
CONTINUOUS
10
0.023499
20
0.114463
30
0.0
11
0.005013
21
0.114461
31
0.0
0
LINE
8
0
6
CONTINUOUS
10
0.026021
20
0.114464
30
0.0
11
0.023499
21
0.114463
31
0.0
0
LINE
8
0
6
CONTINUOUS
10
0.028768
20
0.114464
30
0.0
11
0.026021
21
0.114464
31
0.0
0
LINE
8
0
6
CONTINUOUS
10
0.040957
20
0.088137
30
0.0
11
0.040258
21
0.089380
31
0.0
0
LINE
8
0
6
CONTINUOUS
10
0.033096
20
0.087196
30
0.0
11
0.031968
21
0.085910
31
0.0
0
LINE
8
0
6
CONTINUOUS
10
0.033437
20
0.084100
30
0.0
11
0.031968
21
0.085910
31
0.0
0
LINE
8
0
6
CONTINUOUS
10
0.033437
20
0.084100
30
0.0
11
0.035252
21
0.080555
31
0.0
0
LINE
8
0
6
CONTINUOUS
10
0.053718
20
0.062089
30
0.0
11
0.044178
21
0.081848
31
0.0
0
LINE
8
0
6
CONTINUOUS
10
0.040017
20
0.089871
30
0.0
11
0.039754
21
0.092965
31
0.0
0
LINE
8
0
6
CONTINUOUS
10
0.025811
20
0.090600
30
0.0
11
0.026971
21
0.089716
31
0.0
0
LINE
8
0
6
CONTINUOUS
10
0.030548
20
0.083489
30
0.0
11
0.033096
21
0.082155
31
0.0
0
LINE
8
0
6
CONTINUOUS
10
0.028650
20
0.083485
30
0.0
11
0.026971
21
0.083306
31
0.0
0
LINE
8
0
6
CONTINUOUS
10
0.035252
20
0.077827
30
0.0
11
0.044792
21
0.058068
31
0.0
0
LINE
8
0
6
CONTINUOUS
10
0.044425
20
0.059379
30
0.0
11
0.034884
21
0.079138
31
0.0
0
LINE
8
0
6
CONTINUOUS
10
0.031514
20
0.079453
30
0.0
11
0.034261
21
0.079453
31
0.0
0
LINE
8
0
6
CONTINUOUS
10
0.028768
20
0.079453
30
0.0
11
0.031514
21
0.079453
31
0.0
0
LINE
8
0
6
CONTINUOUS
10
0.026021
20
0.079453
30
0.0
11
0.028768
21
0.079453
31
0.0
0
LINE
8
0
6
CONTINUOUS
10
0.031611
20
0.084427
30
0.0
11
0.030505
21
0.085086
31
0.0
0
LINE
8
0
6
CONTINUOUS
10
0.023499
20
0.079453
30
0.0
11
0.026021
21
0.079453
31
0.0
0
LINE
8
0
6
CONTINUOUS
10
0.005013
20
0.079453
30
0.0
11
0.023499
21
0.079453
31
0.0
0
LINE
8
0
6
CONTINUOUS
10
0.031968
20
0.083182
30
0.0
11
0.033437
21
0.081371
31
0.0
0
LINE
8
0
6
CONTINUOUS
10
0.033092
20
0.082639
30
0.0
11
0.031611
21
0.084427
31
0.0
0
LINE
8
0
6
CONTINUOUS
10
0.033437
20
0.081371
30
0.0
11
0.035252
21
0.077827
31
0.0
0
LINE
8
0
6
CONTINUOUS
10
0.034884
20
0.079138
30
0.0
11
0.033092
21
0.082639
31
0.0
0
LINE
8
0
6
CONTINUOUS
10
0.026971
20
0.083306
30
0.0
11
0.025811
21
0.083058
31
0.0
0
LINE
8
0
6
CONTINUOUS
10
0.038981
20
0.088236
30
0.0
11
0.038579
21
0.089108
31
0.0
0
LINE
8
0
6
CONTINUOUS
10
0.028650
20
0.088432
30
0.0
11
0.026971
21
0.089716
31
0.0
0
LINE
8
0
6
CONTINUOUS
10
0.040536
20
0.089161
30
0.0
11
0.040053
21
0.091599
31
0.0
0
LINE
8
0
6
CONTINUOUS
10
0.028650
20
0.088432
30
0.0
11
0.030548
21
0.087099
31
0.0
0
LINE
8
0
6
CONTINUOUS
10
0.030548
20
0.083489
30
0.0
11
0.028650
21
0.083485
31
0.0
0
LINE
8
0
6
CONTINUOUS
10
0.053836
20
0.061859
30
0.0
11
0.053718
21
0.062089
31
0.0
0
LINE
8
0
6
CONTINUOUS
10
0.054204
20
0.060548
30
0.0
11
0.053836
21
0.061859
31
0.0
0
LINE
8
0
6
CONTINUOUS
10
0.052789
20
0.057822
30
0.0
11
0.053312
21
0.058476
31
0.0
0
LINE
8
0
6
CONTINUOUS
10
0.052061
20
0.063117
30
0.0
11
0.051222
21
0.063410
31
0.0
0
LINE
8
0
6
CONTINUOUS
10
0.053836
20
0.061859
30
0.0
11
0.053312
21
0.062361
31
0.0
0
LINE
8
0
6
CONTINUOUS
10
0.051222
20
0.063410
30
0.0
11
0.049373
21
0.063413
31
0.0
0
LINE
8
0
6
CONTINUOUS
10
0.049373
20
0.063413
30
0.0
11
0.047525
21
0.062874
31
0.0
0
LINE
8
0
6
CONTINUOUS
10
0.047525
20
0.062874
30
0.0
11
0.045957
21
0.061874
31
0.0
0
LINE
8
0
6
CONTINUOUS
10
0.045957
20
0.061874
30
0.0
11
0.044910
21
0.060566
31
0.0
0
LINE
8
0
6
CONTINUOUS
10
0.044910
20
0.060566
30
0.0
11
0.044792
21
0.060796
31
0.0
0
LINE
8
0
6
CONTINUOUS
10
0.044910
20
0.060566
30
0.0
11
0.044543
21
0.059149
31
0.0
0
LINE
8
0
6
CONTINUOUS
10
0.053836
20
0.059130
30
0.0
11
0.054204
21
0.060548
31
0.0
0
LINE
8
0
6
CONTINUOUS
10
0.051222
20
0.056822
30
0.0
11
0.052061
21
0.057358
31
0.0
0
LINE
8
0
6
CONTINUOUS
10
0.049373
20
0.056283
30
0.0
11
0.051222
21
0.056822
31
0.0
0
LINE
8
0
6
CONTINUOUS
10
0.047525
20
0.056287
30
0.0
11
0.049373
21
0.056283
31
0.0
0
LINE
8
0
6
CONTINUOUS
10
0.045957
20
0.056833
30
0.0
11
0.047525
21
0.056287
31
0.0
0
LINE
8
0
6
CONTINUOUS
10
0.044910
20
0.057838
30
0.0
11
0.045957
21
0.056833
31
0.0
0
LINE
8
0
6
CONTINUOUS
10
0.044792
20
0.058068
30
0.0
11
0.044910
21
0.057838
31
0.0
0
LINE
8
0
6
CONTINUOUS
10
0.044543
20
0.059149
30
0.0
11
0.044425
21
0.059379
31
0.0
0
LINE
8
0
6
CONTINUOUS
10
0.044910
20
0.057838
30
0.0
11
0.044543
21
0.059149
31
0.0
0
LINE
8
0
6
CONTINUOUS
10
0.039754
20
0.111105
30
0.0
11
0.039754
21
0.113299
31
0.0
0
LINE
8
0
6
CONTINUOUS
10
0.039754
20
0.107892
30
0.0
11
0.039754
21
0.111105
31
0.0
0
LINE
8
0
6
CONTINUOUS
10
0.039754
20
0.099499
30
0.0
11
0.039754
21
0.104000
31
0.0
0
LINE
8
0
6
CONTINUOUS
10
0.039754
20
0.104000
30
0.0
11
0.039754
21
0.107892
31
0.0
0
LINE
8
0
6
CONTINUOUS
10
0.039754
20
0.094811
30
0.0
11
0.039754
21
0.099499
31
0.0
0
LINE
8
0
6
CONTINUOUS
10
0.039754
20
0.114477
30
0.0
11
0.038915
21
0.114475
31
0.0
0
LINE
8
0
6
CONTINUOUS
10
0.039754
20
0.113299
30
0.0
11
0.039754
21
0.114477
31
0.0
0
LINE
8
0
6
CONTINUOUS
10
0.040672
20
0.087513
30
0.0
11
0.041504
21
0.085937
31
0.0
0
LINE
8
0
6
CONTINUOUS
10
0.039754
20
0.091236
30
0.0
11
0.039754
21
0.092205
31
0.0
0
LINE
8
0
6
CONTINUOUS
10
0.039754
20
0.092205
30
0.0
11
0.039754
21
0.094811
31
0.0
0
LINE
8
0
6
CONTINUOUS
10
0.039944
20
0.089957
30
0.0
11
0.039754
21
0.091236
31
0.0
0
LINE
8
0
6
CONTINUOUS
10
0.040410
20
0.088494
30
0.0
11
0.039944
21
0.089957
31
0.0
0
LINE
8
0
6
CONTINUOUS
10
0.040410
20
0.088494
30
0.0
11
0.040672
21
0.087513
31
0.0
0
LINE
8
0
6
CONTINUOUS
10
0.052061
20
0.057358
30
0.0
11
0.052789
21
0.057822
31
0.0
0
LINE
8
0
6
CONTINUOUS
10
0.052789
20
0.062864
30
0.0
11
0.052061
21
0.063117
31
0.0
0
LINE
8
0
6
CONTINUOUS
10
0.053312
20
0.062361
30
0.0
11
0.052789
21
0.062864
31
0.0
0
LINE
8
0
6
CONTINUOUS
10
0.040053
20
0.091599
30
0.0
11
0.039754
21
0.094449
31
0.0
0
LINE
8
0
6
CONTINUOUS
10
0.005609
20
0.113571
30
0.0
11
0.001084
21
0.113571
31
0.0
0
LINE
8
0
6
CONTINUOUS
10
0.001084
20
0.080348
30
0.0
11
0.005609
21
0.080348
31
0.0
0
LINE
8
0
6
CONTINUOUS
10
0.004593
20
0.104000
30
0.0
11
0.004593
21
0.099499
31
0.0
0
LINE
8
0
6
CONTINUOUS
10
0.004593
20
0.107892
30
0.0
11
0.004593
21
0.104000
31
0.0
0
LINE
8
0
6
CONTINUOUS
10
0.004593
20
0.111105
30
0.0
11
0.004593
21
0.107892
31
0.0
0
LINE
8
0
6
CONTINUOUS
10
0.004593
20
0.113286
30
0.0
11
0.004593
21
0.111105
31
0.0
0
LINE
8
0
6
CONTINUOUS
10
0.004593
20
0.099499
30
0.0
11
0.004593
21
0.094811
31
0.0
0
LINE
8
0
6
CONTINUOUS
10
0.004593
20
0.094811
30
0.0
11
0.004593
21
0.090404
31
0.0
0
LINE
8
0
6
CONTINUOUS
10
0.004593
20
0.090404
30
0.0
11
0.004593
21
0.086404
31
0.0
0
LINE
8
0
6
CONTINUOUS
10
0.004593
20
0.114461
30
0.0
11
0.004593
21
0.113286
31
0.0
0
LINE
8
0
6
CONTINUOUS
10
0.005013
20
0.114461
30
0.0
11
0.004593
21
0.114461
31
0.0
0
LINE
8
0
6
CONTINUOUS
10
0.004593
20
0.079453
30
0.0
11
0.005013
21
0.079453
31
0.0
0
LINE
8
0
6
CONTINUOUS
10
0.004593
20
0.080784
30
0.0
11
0.004593
21
0.079476
31
0.0
0
LINE
8
0
6
CONTINUOUS
10
0.004593
20
0.083164
30
0.0
11
0.004593
21
0.080784
31
0.0
0
LINE
8
0
6
CONTINUOUS
10
0.004593
20
0.086404
30
0.0
11
0.004593
21
0.083164
31
0.0
0
ENDSEC
0
EOF
