999
Erzeugt mit innoplus bad 
0
SECTION
2
HEADER
9
$ACADVER
1
AC1009
9
$DWGCODEPAGE
3
ISO8859-1
0
ENDSEC
0
SECTION
2
TABLES
0
TABLE
2
LAYER
70
1
0
LAYER
2
0
70
0
62
7
6
CONTINUOUS
0
ENDTAB
0
ENDSEC
0
SECTION
2
ENTITIES
0
LINE
8
0
6
CONTINUOUS
10
-0.004972
20
-0.050210
30
0.0
11
-0.008311
21
-0.050430
31
0.0
0
LINE
8
0
6
CONTINUOUS
10
-0.009622
20
-0.050610
30
0.0
11
-0.006942
21
-0.050470
31
0.0
0
LINE
8
0
6
CONTINUOUS
10
-0.007998
20
-0.049845
30
0.0
11
-0.004750
21
-0.050132
31
0.0
0
LINE
8
0
6
CONTINUOUS
10
-0.010425
20
-0.051300
30
0.0
11
-0.010019
21
-0.050924
31
0.0
0
LINE
8
0
6
CONTINUOUS
10
-0.006937
20
-0.048188
30
0.0
11
-0.009432
21
-0.047741
31
0.0
0
LINE
8
0
6
CONTINUOUS
10
-0.009743
20
-0.050007
30
0.0
11
-0.007998
21
-0.049845
31
0.0
0
LINE
8
0
6
CONTINUOUS
10
-0.009827
20
-0.048742
30
0.0
11
-0.007767
21
-0.048240
31
0.0
0
LINE
8
0
6
CONTINUOUS
10
-0.005759
20
-0.048188
30
0.0
11
-0.006937
21
-0.048188
31
0.0
0
LINE
8
0
6
CONTINUOUS
10
-0.005373
20
-0.050484
30
0.0
11
-0.004004
21
-0.050219
31
0.0
0
LINE
8
0
6
CONTINUOUS
10
-0.006942
20
-0.050470
30
0.0
11
-0.005373
21
-0.050484
31
0.0
0
LINE
8
0
6
CONTINUOUS
10
-0.005125
20
-0.048188
30
0.0
11
-0.005759
21
-0.048188
31
0.0
0
LINE
8
0
6
CONTINUOUS
10
-0.003882
20
-0.048551
30
0.0
11
-0.005125
21
-0.048188
31
0.0
0
LINE
8
0
6
CONTINUOUS
10
-0.003771
20
-0.050132
30
0.0
11
-0.003616
21
-0.049116
31
0.0
0
LINE
8
0
6
CONTINUOUS
10
-0.003616
20
-0.049116
30
0.0
11
-0.003675
21
-0.048679
31
0.0
0
LINE
8
0
6
CONTINUOUS
10
-0.003675
20
-0.048679
30
0.0
11
-0.003894
21
-0.048551
31
0.0
0
LINE
8
0
6
CONTINUOUS
10
-0.004659
20
-0.048679
30
0.0
11
-0.003675
21
-0.048679
31
0.0
0
LINE
8
0
6
CONTINUOUS
10
-0.003771
20
-0.050132
30
0.0
11
-0.004750
21
-0.050132
31
0.0
0
LINE
8
0
6
CONTINUOUS
10
-0.004004
20
-0.050219
30
0.0
11
-0.003771
21
-0.050132
31
0.0
0
LINE
8
0
6
CONTINUOUS
10
-0.010433
20
-0.051175
30
0.0
11
-0.008311
21
-0.050430
31
0.0
0
LINE
8
0
6
CONTINUOUS
10
-0.008311
20
-0.050430
30
0.0
11
-0.010019
21
-0.050924
31
0.0
0
LINE
8
0
6
CONTINUOUS
10
-0.010071
20
-0.048445
30
0.0
11
-0.007901
21
-0.048030
31
0.0
0
LINE
8
0
6
CONTINUOUS
10
-0.009432
20
-0.047741
30
0.0
11
-0.010558
21
-0.047915
31
0.0
0
LINE
8
0
6
CONTINUOUS
10
-0.006178
20
0.039832
30
0.0
11
-0.004667
21
0.039832
31
0.0
0
LINE
8
0
6
CONTINUOUS
10
-0.014460
20
0.063403
30
0.0
11
-0.017044
21
0.069698
31
0.0
0
LINE
8
0
6
CONTINUOUS
10
-0.044572
20
0.042950
30
0.0
11
-0.045116
21
0.043506
31
0.0
0
LINE
8
0
6
CONTINUOUS
10
-0.013256
20
0.052037
30
0.0
11
-0.010118
21
0.052037
31
0.0
0
LINE
8
0
6
CONTINUOUS
10
-0.010118
20
0.052037
30
0.0
11
-0.012627
21
0.047113
31
0.0
0
LINE
8
0
6
CONTINUOUS
10
-0.013256
20
0.052037
30
0.0
11
-0.012392
21
0.057496
31
0.0
0
LINE
8
0
6
CONTINUOUS
10
-0.015765
20
0.067878
30
0.0
11
-0.013256
21
0.062954
31
0.0
0
LINE
8
0
6
CONTINUOUS
10
-0.010118
20
0.062954
30
0.0
11
-0.012627
21
0.067878
31
0.0
0
LINE
8
0
6
CONTINUOUS
10
-0.009254
20
0.057496
30
0.0
11
-0.010118
21
0.052037
31
0.0
0
LINE
8
0
6
CONTINUOUS
10
-0.010724
20
0.039711
30
0.0
11
-0.012963
21
0.042147
31
0.0
0
LINE
8
0
6
CONTINUOUS
10
-0.013419
20
0.037016
30
0.0
11
-0.015855
21
0.039255
31
0.0
0
LINE
8
0
6
CONTINUOUS
10
-0.048592
20
0.057960
30
0.0
11
-0.048584
21
0.056999
31
0.0
0
LINE
8
0
6
CONTINUOUS
10
-0.009859
20
0.038846
30
0.0
11
-0.006178
21
0.039832
31
0.0
0
LINE
8
0
6
CONTINUOUS
10
-0.012554
20
0.036151
30
0.0
11
-0.009859
21
0.038846
31
0.0
0
LINE
8
0
6
CONTINUOUS
10
-0.009859
20
0.038846
30
0.0
11
-0.010724
21
0.039711
31
0.0
0
LINE
8
0
6
CONTINUOUS
10
-0.013540
20
0.032471
30
0.0
11
-0.012554
21
0.036151
31
0.0
0
LINE
8
0
6
CONTINUOUS
10
-0.012554
20
0.036151
30
0.0
11
-0.013419
21
0.037016
31
0.0
0
LINE
8
0
6
CONTINUOUS
10
-0.047858
20
0.063329
30
0.0
11
-0.048223
21
0.062735
31
0.0
0
LINE
8
0
6
CONTINUOUS
10
-0.048532
20
0.061674
30
0.0
11
-0.048663
21
0.054259
31
0.0
0
LINE
8
0
6
CONTINUOUS
10
-0.048223
20
0.062735
30
0.0
11
-0.048532
21
0.061674
31
0.0
0
LINE
8
0
6
CONTINUOUS
10
-0.048354
20
0.060727
30
0.0
11
-0.049042
21
0.050424
31
0.0
0
LINE
8
0
6
CONTINUOUS
10
-0.049148
20
0.044899
30
0.0
11
-0.054184
21
-0.109000
31
0.0
0
LINE
8
0
6
CONTINUOUS
10
-0.008225
20
-0.109000
30
0.0
11
-0.013431
21
0.027315
31
0.0
0
LINE
8
0
6
CONTINUOUS
10
-0.016091
20
0.044184
30
0.0
11
-0.013700
21
0.045944
31
0.0
0
LINE
8
0
6
CONTINUOUS
10
-0.017835
20
0.044058
30
0.0
11
-0.016091
21
0.044184
31
0.0
0
LINE
8
0
6
CONTINUOUS
10
-0.045363
20
0.069698
30
0.0
11
-0.047804
21
0.063465
31
0.0
0
LINE
8
0
6
CONTINUOUS
10
-0.047858
20
0.063329
30
0.0
11
-0.048592
21
0.057960
31
0.0
0
LINE
8
0
6
CONTINUOUS
10
-0.047804
20
0.063465
30
0.0
11
-0.047858
21
0.063329
31
0.0
0
LINE
8
0
6
CONTINUOUS
10
-0.004667
20
0.039832
30
0.0
11
0.000084
21
0.039832
31
0.0
0
LINE
8
0
6
CONTINUOUS
10
-0.035804
20
0.079273
30
0.0
11
-0.039955
21
0.077163
31
0.0
0
LINE
8
0
6
CONTINUOUS
10
-0.039955
20
0.077163
30
0.0
11
-0.043248
21
0.073877
31
0.0
0
LINE
8
0
6
CONTINUOUS
10
-0.043248
20
0.073877
30
0.0
11
-0.045363
21
0.069736
31
0.0
0
LINE
8
0
6
CONTINUOUS
10
-0.045363
20
0.069736
30
0.0
11
-0.046092
21
0.065145
31
0.0
0
LINE
8
0
6
CONTINUOUS
10
-0.045363
20
0.060555
30
0.0
11
-0.046092
21
0.065145
31
0.0
0
LINE
8
0
6
CONTINUOUS
10
-0.043248
20
0.056414
30
0.0
11
-0.045363
21
0.060555
31
0.0
0
LINE
8
0
6
CONTINUOUS
10
-0.039955
20
0.053128
30
0.0
11
-0.043248
21
0.056414
31
0.0
0
LINE
8
0
6
CONTINUOUS
10
-0.035804
20
0.051018
30
0.0
11
-0.039955
21
0.053128
31
0.0
0
LINE
8
0
6
CONTINUOUS
10
-0.031204
20
0.050291
30
0.0
11
-0.035804
21
0.051018
31
0.0
0
LINE
8
0
6
CONTINUOUS
10
-0.026603
20
0.051018
30
0.0
11
-0.031204
21
0.050291
31
0.0
0
LINE
8
0
6
CONTINUOUS
10
-0.022453
20
0.053128
30
0.0
11
-0.026603
21
0.051018
31
0.0
0
LINE
8
0
6
CONTINUOUS
10
-0.019159
20
0.056414
30
0.0
11
-0.022453
21
0.053128
31
0.0
0
LINE
8
0
6
CONTINUOUS
10
-0.017044
20
0.060555
30
0.0
11
-0.019159
21
0.056414
31
0.0
0
LINE
8
0
6
CONTINUOUS
10
-0.016316
20
0.065145
30
0.0
11
-0.017044
21
0.060555
31
0.0
0
LINE
8
0
6
CONTINUOUS
10
-0.016316
20
0.065145
30
0.0
11
-0.017044
21
0.069736
31
0.0
0
LINE
8
0
6
CONTINUOUS
10
-0.017044
20
0.069736
30
0.0
11
-0.019159
21
0.073877
31
0.0
0
LINE
8
0
6
CONTINUOUS
10
-0.019159
20
0.073877
30
0.0
11
-0.022453
21
0.077163
31
0.0
0
LINE
8
0
6
CONTINUOUS
10
-0.022453
20
0.077163
30
0.0
11
-0.026603
21
0.079273
31
0.0
0
LINE
8
0
6
CONTINUOUS
10
-0.026603
20
0.079273
30
0.0
11
-0.031204
21
0.080000
31
0.0
0
LINE
8
0
6
CONTINUOUS
10
-0.031204
20
0.080000
30
0.0
11
-0.035804
21
0.079273
31
0.0
0
LINE
8
0
6
CONTINUOUS
10
-0.039062
20
0.041916
30
0.0
11
-0.035335
21
0.042402
31
0.0
0
LINE
8
0
6
CONTINUOUS
10
-0.042019
20
0.041159
30
0.0
11
-0.039062
21
0.041916
31
0.0
0
LINE
8
0
6
CONTINUOUS
10
-0.043918
20
0.040205
30
0.0
11
-0.042019
21
0.041159
31
0.0
0
LINE
8
0
6
CONTINUOUS
10
-0.044572
20
0.040075
30
0.0
11
-0.044572
21
0.039147
31
0.0
0
LINE
8
0
6
CONTINUOUS
10
-0.044572
20
0.039147
30
0.0
11
-0.043918
21
0.040205
31
0.0
0
LINE
8
0
6
CONTINUOUS
10
-0.044572
20
0.039147
30
0.0
11
-0.043918
21
0.038089
31
0.0
0
LINE
8
0
6
CONTINUOUS
10
-0.043918
20
0.038089
30
0.0
11
-0.042019
21
0.037135
31
0.0
0
LINE
8
0
6
CONTINUOUS
10
-0.042019
20
0.037135
30
0.0
11
-0.039062
21
0.036378
31
0.0
0
LINE
8
0
6
CONTINUOUS
10
-0.039062
20
0.036378
30
0.0
11
-0.035335
21
0.035892
31
0.0
0
LINE
8
0
6
CONTINUOUS
10
-0.035335
20
0.035892
30
0.0
11
-0.031204
21
0.035724
31
0.0
0
LINE
8
0
6
CONTINUOUS
10
-0.031204
20
0.035724
30
0.0
11
-0.027072
21
0.035892
31
0.0
0
LINE
8
0
6
CONTINUOUS
10
-0.027072
20
0.035892
30
0.0
11
-0.023346
21
0.036378
31
0.0
0
LINE
8
0
6
CONTINUOUS
10
-0.023346
20
0.036378
30
0.0
11
-0.020388
21
0.037135
31
0.0
0
LINE
8
0
6
CONTINUOUS
10
-0.020388
20
0.037135
30
0.0
11
-0.018489
21
0.038089
31
0.0
0
LINE
8
0
6
CONTINUOUS
10
-0.018489
20
0.038089
30
0.0
11
-0.017835
21
0.039147
31
0.0
0
LINE
8
0
6
CONTINUOUS
10
-0.017835
20
0.039147
30
0.0
11
-0.017835
21
0.040075
31
0.0
0
LINE
8
0
6
CONTINUOUS
10
-0.018489
20
0.040205
30
0.0
11
-0.017835
21
0.039147
31
0.0
0
LINE
8
0
6
CONTINUOUS
10
-0.020388
20
0.041159
30
0.0
11
-0.018489
21
0.040205
31
0.0
0
LINE
8
0
6
CONTINUOUS
10
-0.023346
20
0.041916
30
0.0
11
-0.020388
21
0.041159
31
0.0
0
LINE
8
0
6
CONTINUOUS
10
-0.027072
20
0.042402
30
0.0
11
-0.023346
21
0.041916
31
0.0
0
LINE
8
0
6
CONTINUOUS
10
-0.031204
20
0.042570
30
0.0
11
-0.027072
21
0.042402
31
0.0
0
LINE
8
0
6
CONTINUOUS
10
-0.035335
20
0.042402
30
0.0
11
-0.031204
21
0.042570
31
0.0
0
LINE
8
0
6
CONTINUOUS
10
-0.017835
20
0.040075
30
0.0
11
-0.017835
21
0.059564
31
0.0
0
LINE
8
0
6
CONTINUOUS
10
-0.044572
20
0.059564
30
0.0
11
-0.044572
21
0.040075
31
0.0
0
LINE
8
0
6
CONTINUOUS
10
-0.037181
20
0.041253
30
0.0
11
-0.034346
21
0.041622
31
0.0
0
LINE
8
0
6
CONTINUOUS
10
-0.039430
20
0.040677
30
0.0
11
-0.037181
21
0.041253
31
0.0
0
LINE
8
0
6
CONTINUOUS
10
-0.040874
20
0.039951
30
0.0
11
-0.039430
21
0.040677
31
0.0
0
LINE
8
0
6
CONTINUOUS
10
-0.041371
20
0.039147
30
0.0
11
-0.040874
21
0.039951
31
0.0
0
LINE
8
0
6
CONTINUOUS
10
-0.021534
20
0.039951
30
0.0
11
-0.021036
21
0.039147
31
0.0
0
LINE
8
0
6
CONTINUOUS
10
-0.022978
20
0.040677
30
0.0
11
-0.021534
21
0.039951
31
0.0
0
LINE
8
0
6
CONTINUOUS
10
-0.025227
20
0.041253
30
0.0
11
-0.022978
21
0.040677
31
0.0
0
LINE
8
0
6
CONTINUOUS
10
-0.028061
20
0.041622
30
0.0
11
-0.025227
21
0.041253
31
0.0
0
LINE
8
0
6
CONTINUOUS
10
-0.031204
20
0.041750
30
0.0
11
-0.028061
21
0.041622
31
0.0
0
LINE
8
0
6
CONTINUOUS
10
-0.034346
20
0.041622
30
0.0
11
-0.031204
21
0.041750
31
0.0
0
LINE
8
0
6
CONTINUOUS
10
-0.039430
20
0.037617
30
0.0
11
-0.037181
21
0.037042
31
0.0
0
LINE
8
0
6
CONTINUOUS
10
-0.028061
20
0.036672
30
0.0
11
-0.025227
21
0.037042
31
0.0
0
LINE
8
0
6
CONTINUOUS
10
-0.025227
20
0.037042
30
0.0
11
-0.022978
21
0.037617
31
0.0
0
LINE
8
0
6
CONTINUOUS
10
-0.037181
20
0.037042
30
0.0
11
-0.034346
21
0.036672
31
0.0
0
LINE
8
0
6
CONTINUOUS
10
-0.022978
20
0.037617
30
0.0
11
-0.021534
21
0.038343
31
0.0
0
LINE
8
0
6
CONTINUOUS
10
-0.034346
20
0.036672
30
0.0
11
-0.031204
21
0.036544
31
0.0
0
LINE
8
0
6
CONTINUOUS
10
-0.041371
20
0.039147
30
0.0
11
-0.040874
21
0.038343
31
0.0
0
LINE
8
0
6
CONTINUOUS
10
-0.021534
20
0.038343
30
0.0
11
-0.021036
21
0.039147
31
0.0
0
LINE
8
0
6
CONTINUOUS
10
-0.031204
20
0.036544
30
0.0
11
-0.028061
21
0.036672
31
0.0
0
LINE
8
0
6
CONTINUOUS
10
-0.040874
20
0.038343
30
0.0
11
-0.039430
21
0.037617
31
0.0
0
LINE
8
0
6
CONTINUOUS
10
-0.017707
20
0.071033
30
0.0
11
-0.014093
21
0.071001
31
0.0
0
LINE
8
0
6
CONTINUOUS
10
-0.049042
20
0.050424
30
0.0
11
-0.049148
21
0.044899
31
0.0
0
LINE
8
0
6
CONTINUOUS
10
-0.013431
20
0.027315
30
0.0
11
-0.013540
21
0.032471
31
0.0
0
LINE
8
0
6
CONTINUOUS
10
0.001084
20
0.043206
30
0.0
11
0.001084
21
0.047113
31
0.0
0
LINE
8
0
6
CONTINUOUS
10
0.001084
20
0.067878
30
0.0
11
0.001084
21
0.071786
31
0.0
0
LINE
8
0
6
CONTINUOUS
10
0.000084
20
0.039832
30
0.0
11
0.001084
21
0.039832
31
0.0
0
LINE
8
0
6
CONTINUOUS
10
0.001084
20
0.039832
30
0.0
11
0.001084
21
0.040697
31
0.0
0
LINE
8
0
6
CONTINUOUS
10
0.001084
20
0.071786
30
0.0
11
0.001084
21
0.074295
31
0.0
0
LINE
8
0
6
CONTINUOUS
10
0.001084
20
0.047113
30
0.0
11
0.001084
21
0.052037
31
0.0
0
LINE
8
0
6
CONTINUOUS
10
0.001084
20
0.062954
30
0.0
11
0.001084
21
0.067878
31
0.0
0
LINE
8
0
6
CONTINUOUS
10
0.001084
20
0.040697
30
0.0
11
0.001084
21
0.043206
31
0.0
0
LINE
8
0
6
CONTINUOUS
10
0.001084
20
0.075159
30
0.0
11
0.000084
21
0.075159
31
0.0
0
LINE
8
0
6
CONTINUOUS
10
0.001084
20
0.074295
30
0.0
11
0.001084
21
0.075159
31
0.0
0
LINE
8
0
6
CONTINUOUS
10
0.001084
20
0.052037
30
0.0
11
0.001084
21
0.057496
31
0.0
0
LINE
8
0
6
CONTINUOUS
10
0.001084
20
0.057496
30
0.0
11
0.001084
21
0.062954
31
0.0
0
LINE
8
0
6
CONTINUOUS
10
-0.012392
20
0.057496
30
0.0
11
-0.009254
21
0.057496
31
0.0
0
LINE
8
0
6
CONTINUOUS
10
-0.013256
20
0.062954
30
0.0
11
-0.012392
21
0.057496
31
0.0
0
LINE
8
0
6
CONTINUOUS
10
-0.010118
20
0.062954
30
0.0
11
-0.013256
21
0.062954
31
0.0
0
LINE
8
0
6
CONTINUOUS
10
-0.009254
20
0.057496
30
0.0
11
-0.010118
21
0.062954
31
0.0
0
LINE
8
0
6
CONTINUOUS
10
-0.054184
20
-0.109000
30
0.0
11
-0.054204
21
-0.110000
31
0.0
0
LINE
8
0
6
CONTINUOUS
10
-0.053078
20
-0.110000
30
0.0
11
-0.054204
21
-0.110000
31
0.0
0
LINE
8
0
6
CONTINUOUS
10
-0.017685
20
-0.110000
30
0.0
11
-0.024096
21
-0.110000
31
0.0
0
LINE
8
0
6
CONTINUOUS
10
-0.044723
20
-0.110000
30
0.0
11
-0.049811
21
-0.110000
31
0.0
0
LINE
8
0
6
CONTINUOUS
10
-0.009329
20
-0.110000
30
0.0
11
-0.012596
21
-0.110000
31
0.0
0
LINE
8
0
6
CONTINUOUS
10
-0.031204
20
-0.110000
30
0.0
11
-0.038311
21
-0.110000
31
0.0
0
LINE
8
0
6
CONTINUOUS
10
-0.008204
20
-0.110000
30
0.0
11
-0.008225
21
-0.109000
31
0.0
0
LINE
8
0
6
CONTINUOUS
10
-0.008204
20
-0.110000
30
0.0
11
-0.009329
21
-0.110000
31
0.0
0
LINE
8
0
6
CONTINUOUS
10
-0.012596
20
-0.110000
30
0.0
11
-0.017685
21
-0.110000
31
0.0
0
LINE
8
0
6
CONTINUOUS
10
-0.049811
20
-0.110000
30
0.0
11
-0.053078
21
-0.110000
31
0.0
0
LINE
8
0
6
CONTINUOUS
10
-0.038311
20
-0.110000
30
0.0
11
-0.044723
21
-0.110000
31
0.0
0
LINE
8
0
6
CONTINUOUS
10
-0.031204
20
-0.110000
30
0.0
11
-0.024096
21
-0.110000
31
0.0
0
LINE
8
0
6
CONTINUOUS
10
-0.014405
20
0.063269
30
0.0
11
-0.014460
21
0.063403
31
0.0
0
LINE
8
0
6
CONTINUOUS
10
-0.034346
20
0.037237
30
0.0
11
-0.031204
21
0.037109
31
0.0
0
LINE
8
0
6
CONTINUOUS
10
-0.037181
20
0.037606
30
0.0
11
-0.034346
21
0.037237
31
0.0
0
LINE
8
0
6
CONTINUOUS
10
-0.039430
20
0.038182
30
0.0
11
-0.037181
21
0.037606
31
0.0
0
LINE
8
0
6
CONTINUOUS
10
-0.040874
20
0.038908
30
0.0
11
-0.039430
21
0.038182
31
0.0
0
LINE
8
0
6
CONTINUOUS
10
-0.041371
20
0.039712
30
0.0
11
-0.040874
21
0.038908
31
0.0
0
LINE
8
0
6
CONTINUOUS
10
-0.031204
20
0.037109
30
0.0
11
-0.028061
21
0.037236
31
0.0
0
LINE
8
0
6
CONTINUOUS
10
-0.028061
20
0.037236
30
0.0
11
-0.025227
21
0.037606
31
0.0
0
LINE
8
0
6
CONTINUOUS
10
-0.025227
20
0.037606
30
0.0
11
-0.022978
21
0.038182
31
0.0
0
LINE
8
0
6
CONTINUOUS
10
-0.022978
20
0.038182
30
0.0
11
-0.021534
21
0.038908
31
0.0
0
LINE
8
0
6
CONTINUOUS
10
-0.021534
20
0.038908
30
0.0
11
-0.021036
21
0.039712
31
0.0
0
LINE
8
0
6
CONTINUOUS
10
-0.014889
20
0.075159
30
0.0
11
-0.018658
21
0.075163
31
0.0
0
LINE
8
0
6
CONTINUOUS
10
-0.018658
20
0.075163
30
0.0
11
-0.020446
21
0.075160
31
0.0
0
LINE
8
0
6
CONTINUOUS
10
-0.011119
20
0.075159
30
0.0
11
-0.014889
21
0.075159
31
0.0
0
LINE
8
0
6
CONTINUOUS
10
0.000084
20
0.075159
30
0.0
11
-0.011119
21
0.075159
31
0.0
0
LINE
8
0
6
CONTINUOUS
10
0.039754
20
0.060855
30
0.0
11
0.040053
21
0.064672
31
0.0
0
LINE
8
0
6
CONTINUOUS
10
0.033096
20
0.075823
30
0.0
11
0.030548
21
0.074461
31
0.0
0
LINE
8
0
6
CONTINUOUS
10
0.028768
20
0.074999
30
0.0
11
0.026021
21
0.074999
31
0.0
0
LINE
8
0
6
CONTINUOUS
10
0.031514
20
0.074999
30
0.0
11
0.028768
21
0.074999
31
0.0
0
LINE
8
0
6
CONTINUOUS
10
0.040536
20
0.067935
30
0.0
11
0.041287
21
0.070739
31
0.0
0
LINE
8
0
6
CONTINUOUS
10
0.023499
20
0.074999
30
0.0
11
0.005013
21
0.074999
31
0.0
0
LINE
8
0
6
CONTINUOUS
10
0.033437
20
0.077557
30
0.0
11
0.031968
21
0.075133
31
0.0
0
LINE
8
0
6
CONTINUOUS
10
0.025811
20
0.073874
30
0.0
11
0.026971
21
0.073877
31
0.0
0
LINE
8
0
6
CONTINUOUS
10
0.026021
20
0.074999
30
0.0
11
0.023499
21
0.074999
31
0.0
0
LINE
8
0
6
CONTINUOUS
10
0.005013
20
0.040012
30
0.0
11
0.023499
21
0.040010
31
0.0
0
LINE
8
0
6
CONTINUOUS
10
0.030548
20
0.071764
30
0.0
11
0.033096
21
0.072058
31
0.0
0
LINE
8
0
6
CONTINUOUS
10
0.028650
20
0.070376
30
0.0
11
0.026971
21
0.069090
31
0.0
0
LINE
8
0
6
CONTINUOUS
10
0.035252
20
0.080265
30
0.0
11
0.044792
21
0.106720
31
0.0
0
LINE
8
0
6
CONTINUOUS
10
0.044425
20
0.107810
30
0.0
11
0.034884
21
0.081355
31
0.0
0
LINE
8
0
6
CONTINUOUS
10
0.034261
20
0.040004
30
0.0
11
0.037007
21
0.039992
31
0.0
0
LINE
8
0
6
CONTINUOUS
10
0.038579
20
0.070138
30
0.0
11
0.038981
21
0.071124
31
0.0
0
LINE
8
0
6
CONTINUOUS
10
0.031611
20
0.074273
30
0.0
11
0.030505
21
0.073391
31
0.0
0
LINE
8
0
6
CONTINUOUS
10
0.037007
20
0.039992
30
0.0
11
0.038915
21
0.039980
31
0.0
0
LINE
8
0
6
CONTINUOUS
10
0.031968
20
0.073095
30
0.0
11
0.033096
21
0.072058
31
0.0
0
LINE
8
0
6
CONTINUOUS
10
0.031968
20
0.073095
30
0.0
11
0.033437
21
0.075519
31
0.0
0
LINE
8
0
6
CONTINUOUS
10
0.033092
20
0.076668
30
0.0
11
0.031611
21
0.074273
31
0.0
0
LINE
8
0
6
CONTINUOUS
10
0.041287
20
0.070739
30
0.0
11
0.042237
21
0.073445
31
0.0
0
LINE
8
0
6
CONTINUOUS
10
0.042046
20
0.072961
30
0.0
11
0.040957
21
0.070114
31
0.0
0
LINE
8
0
6
CONTINUOUS
10
0.044545
20
0.079481
30
0.0
11
0.054086
21
0.105936
31
0.0
0
LINE
8
0
6
CONTINUOUS
10
0.053718
20
0.104989
30
0.0
11
0.044178
21
0.078534
31
0.0
0
LINE
8
0
6
CONTINUOUS
10
0.042237
20
0.073445
30
0.0
11
0.044545
21
0.079481
31
0.0
0
LINE
8
0
6
CONTINUOUS
10
0.034884
20
0.081355
30
0.0
11
0.033092
21
0.076668
31
0.0
0
LINE
8
0
6
CONTINUOUS
10
0.035252
20
0.080265
30
0.0
11
0.033437
21
0.075519
31
0.0
0
LINE
8
0
6
CONTINUOUS
10
0.042046
20
0.072961
30
0.0
11
0.044178
21
0.078534
31
0.0
0
LINE
8
0
6
CONTINUOUS
10
0.026971
20
0.069090
30
0.0
11
0.025811
21
0.068241
31
0.0
0
LINE
8
0
6
CONTINUOUS
10
0.028650
20
0.074071
30
0.0
11
0.026971
21
0.073877
31
0.0
0
LINE
8
0
6
CONTINUOUS
10
0.030548
20
0.074461
30
0.0
11
0.028650
21
0.074071
31
0.0
0
LINE
8
0
6
CONTINUOUS
10
0.040053
20
0.064672
30
0.0
11
0.040536
21
0.067935
31
0.0
0
LINE
8
0
6
CONTINUOUS
10
0.034463
20
0.070460
30
0.0
11
0.032538
21
0.071046
31
0.0
0
LINE
8
0
6
CONTINUOUS
10
0.030548
20
0.071764
30
0.0
11
0.028650
21
0.070376
31
0.0
0
LINE
8
0
6
CONTINUOUS
10
0.032538
20
0.071046
30
0.0
11
0.030548
21
0.071764
31
0.0
0
LINE
8
0
6
CONTINUOUS
10
0.038579
20
0.070138
30
0.0
11
0.037834
21
0.068605
31
0.0
0
LINE
8
0
6
CONTINUOUS
10
0.054204
20
0.106245
30
0.0
11
0.053836
21
0.107335
31
0.0
0
LINE
8
0
6
CONTINUOUS
10
0.052061
20
0.108811
30
0.0
11
0.051222
21
0.109283
31
0.0
0
LINE
8
0
6
CONTINUOUS
10
0.053836
20
0.107335
30
0.0
11
0.053312
21
0.107869
31
0.0
0
LINE
8
0
6
CONTINUOUS
10
0.051222
20
0.109283
30
0.0
11
0.049373
21
0.109844
31
0.0
0
LINE
8
0
6
CONTINUOUS
10
0.049373
20
0.109844
30
0.0
11
0.047525
21
0.110000
31
0.0
0
LINE
8
0
6
CONTINUOUS
10
0.047525
20
0.110000
30
0.0
11
0.045957
21
0.109727
31
0.0
0
LINE
8
0
6
CONTINUOUS
10
0.045957
20
0.109727
30
0.0
11
0.044910
21
0.109066
31
0.0
0
LINE
8
0
6
CONTINUOUS
10
0.044910
20
0.109066
30
0.0
11
0.044543
21
0.108118
31
0.0
0
LINE
8
0
6
CONTINUOUS
10
0.054204
20
0.106245
30
0.0
11
0.053836
21
0.105297
31
0.0
0
LINE
8
0
6
CONTINUOUS
10
0.051222
20
0.104363
30
0.0
11
0.052061
21
0.104510
31
0.0
0
LINE
8
0
6
CONTINUOUS
10
0.053718
20
0.104989
30
0.0
11
0.053836
21
0.105297
31
0.0
0
LINE
8
0
6
CONTINUOUS
10
0.053836
20
0.105297
30
0.0
11
0.053312
21
0.104967
31
0.0
0
LINE
8
0
6
CONTINUOUS
10
0.051222
20
0.104363
30
0.0
11
0.049373
21
0.104519
31
0.0
0
LINE
8
0
6
CONTINUOUS
10
0.049373
20
0.104519
30
0.0
11
0.047525
21
0.105080
31
0.0
0
LINE
8
0
6
CONTINUOUS
10
0.047525
20
0.105080
30
0.0
11
0.045957
21
0.105961
31
0.0
0
LINE
8
0
6
CONTINUOUS
10
0.045957
20
0.105961
30
0.0
11
0.044910
21
0.107028
31
0.0
0
LINE
8
0
6
CONTINUOUS
10
0.044792
20
0.106720
30
0.0
11
0.044910
21
0.107028
31
0.0
0
LINE
8
0
6
CONTINUOUS
10
0.044543
20
0.108118
30
0.0
11
0.044425
21
0.107810
31
0.0
0
LINE
8
0
6
CONTINUOUS
10
0.044910
20
0.107028
30
0.0
11
0.044543
21
0.108118
31
0.0
0
LINE
8
0
6
CONTINUOUS
10
0.039754
20
0.043686
30
0.0
11
0.039754
21
0.046926
31
0.0
0
LINE
8
0
6
CONTINUOUS
10
0.039754
20
0.046926
30
0.0
11
0.039754
21
0.050926
31
0.0
0
LINE
8
0
6
CONTINUOUS
10
0.038915
20
0.039980
30
0.0
11
0.039754
21
0.039975
31
0.0
0
LINE
8
0
6
CONTINUOUS
10
0.039754
20
0.039998
30
0.0
11
0.039754
21
0.041306
31
0.0
0
LINE
8
0
6
CONTINUOUS
10
0.039754
20
0.055333
30
0.0
11
0.039754
21
0.060021
31
0.0
0
LINE
8
0
6
CONTINUOUS
10
0.039754
20
0.050926
30
0.0
11
0.039754
21
0.055333
31
0.0
0
LINE
8
0
6
CONTINUOUS
10
0.039754
20
0.060021
30
0.0
11
0.039754
21
0.064522
31
0.0
0
LINE
8
0
6
CONTINUOUS
10
0.039754
20
0.041306
30
0.0
11
0.039754
21
0.043686
31
0.0
0
LINE
8
0
6
CONTINUOUS
10
0.039754
20
0.066882
30
0.0
11
0.039754
21
0.067804
31
0.0
0
LINE
8
0
6
CONTINUOUS
10
0.039754
20
0.064522
30
0.0
11
0.039754
21
0.066882
31
0.0
0
LINE
8
0
6
CONTINUOUS
10
0.039944
20
0.069071
30
0.0
11
0.040410
21
0.070585
31
0.0
0
LINE
8
0
6
CONTINUOUS
10
0.039754
20
0.067804
30
0.0
11
0.039944
21
0.069071
31
0.0
0
LINE
8
0
6
CONTINUOUS
10
0.040672
20
0.071659
30
0.0
11
0.039838
21
0.071395
31
0.0
0
LINE
8
0
6
CONTINUOUS
10
0.040672
20
0.071659
30
0.0
11
0.040410
21
0.070585
31
0.0
0
LINE
8
0
6
CONTINUOUS
10
0.052789
20
0.104637
30
0.0
11
0.052061
21
0.104510
31
0.0
0
LINE
8
0
6
CONTINUOUS
10
0.053312
20
0.104967
30
0.0
11
0.052789
21
0.104637
31
0.0
0
LINE
8
0
6
CONTINUOUS
10
0.052789
20
0.108402
30
0.0
11
0.052061
21
0.108811
31
0.0
0
LINE
8
0
6
CONTINUOUS
10
0.053312
20
0.107869
30
0.0
11
0.052789
21
0.108402
31
0.0
0
LINE
8
0
6
CONTINUOUS
10
0.005609
20
0.074105
30
0.0
11
0.001084
21
0.074105
31
0.0
0
LINE
8
0
6
CONTINUOUS
10
0.001084
20
0.040883
30
0.0
11
0.005609
21
0.040883
31
0.0
0
LINE
8
0
6
CONTINUOUS
10
0.005013
20
0.074999
30
0.0
11
0.004593
21
0.074999
31
0.0
0
LINE
8
0
6
CONTINUOUS
10
0.004593
20
0.074999
30
0.0
11
0.004593
21
0.073822
31
0.0
0
LINE
8
0
6
CONTINUOUS
10
0.004593
20
0.073822
30
0.0
11
0.004593
21
0.071627
31
0.0
0
LINE
8
0
6
CONTINUOUS
10
0.004593
20
0.040012
30
0.0
11
0.005013
21
0.040012
31
0.0
0
LINE
8
0
6
CONTINUOUS
10
0.004593
20
0.041327
30
0.0
11
0.004593
21
0.040012
31
0.0
0
LINE
8
0
6
CONTINUOUS
10
0.004593
20
0.060021
30
0.0
11
0.004593
21
0.055333
31
0.0
0
LINE
8
0
6
CONTINUOUS
10
0.004593
20
0.055333
30
0.0
11
0.004593
21
0.050926
31
0.0
0
LINE
8
0
6
CONTINUOUS
10
0.004593
20
0.050926
30
0.0
11
0.004593
21
0.046926
31
0.0
0
LINE
8
0
6
CONTINUOUS
10
0.004593
20
0.046926
30
0.0
11
0.004593
21
0.043704
31
0.0
0
LINE
8
0
6
CONTINUOUS
10
0.004593
20
0.064522
30
0.0
11
0.004593
21
0.060021
31
0.0
0
LINE
8
0
6
CONTINUOUS
10
0.004593
20
0.068414
30
0.0
11
0.004593
21
0.064522
31
0.0
0
LINE
8
0
6
CONTINUOUS
10
0.004593
20
0.071627
30
0.0
11
0.004593
21
0.068414
31
0.0
0
LINE
8
0
6
CONTINUOUS
10
0.004593
20
0.043704
30
0.0
11
0.004593
21
0.041327
31
0.0
0
ENDSEC
0
EOF
