999
Erzeugt mit innoplus bad 
0
SECTION
2
HEADER
9
$ACADVER
1
AC1009
9
$DWGCODEPAGE
3
ISO8859-1
0
ENDSEC
0
SECTION
2
TABLES
0
TABLE
2
LAYER
70
1
0
LAYER
2
0
70
0
62
7
6
CONTINUOUS
0
ENDTAB
0
ENDSEC
0
SECTION
2
ENTITIES
0
LINE
8
0
6
CONTINUOUS
10
-0.007092
20
-0.065836
30
0.0
11
-0.003785
21
-0.067077
31
0.0
0
LINE
8
0
6
CONTINUOUS
10
-0.009717
20
-0.063904
30
0.0
11
-0.007092
21
-0.065836
31
0.0
0
LINE
8
0
6
CONTINUOUS
10
0.006854
20
-0.065836
30
0.0
11
0.009479
21
-0.063904
31
0.0
0
LINE
8
0
6
CONTINUOUS
10
0.003547
20
-0.067077
30
0.0
11
0.006854
21
-0.065836
31
0.0
0
LINE
8
0
6
CONTINUOUS
10
-0.000119
20
-0.067504
30
0.0
11
0.003547
21
-0.067077
31
0.0
0
LINE
8
0
6
CONTINUOUS
10
-0.003785
20
-0.067077
30
0.0
11
-0.000119
21
-0.067504
31
0.0
0
LINE
8
0
6
CONTINUOUS
10
0.018996
20
0.058959
30
0.0
11
0.022135
21
0.062450
31
0.0
0
LINE
8
0
6
CONTINUOUS
10
0.016455
20
0.055858
30
0.0
11
0.016992
21
0.056588
31
0.0
0
LINE
8
0
6
CONTINUOUS
10
0.015953
20
0.055100
30
0.0
11
0.016455
21
0.055858
31
0.0
0
LINE
8
0
6
CONTINUOUS
10
0.015625
20
0.054676
30
0.0
11
0.015953
21
0.055100
31
0.0
0
LINE
8
0
6
CONTINUOUS
10
0.015102
20
0.054001
30
0.0
11
0.015625
21
0.054676
31
0.0
0
LINE
8
0
6
CONTINUOUS
10
0.014760
20
0.053480
30
0.0
11
0.015102
21
0.054001
31
0.0
0
LINE
8
0
6
CONTINUOUS
10
0.016933
20
0.056550
30
0.0
11
0.018996
21
0.058959
31
0.0
0
LINE
8
0
6
CONTINUOUS
10
0.022075
20
0.062494
30
0.0
11
0.018834
21
0.059074
31
0.0
0
LINE
8
0
6
CONTINUOUS
10
0.018968
20
0.058974
30
0.0
11
0.022075
21
0.062494
31
0.0
0
LINE
8
0
6
CONTINUOUS
10
0.016092
20
0.055603
30
0.0
11
0.016907
21
0.056670
31
0.0
0
LINE
8
0
6
CONTINUOUS
10
0.016663
20
0.056938
30
0.0
11
0.015674
21
0.055727
31
0.0
0
LINE
8
0
6
CONTINUOUS
10
0.015346
20
0.054592
30
0.0
11
0.016092
21
0.055603
31
0.0
0
LINE
8
0
6
CONTINUOUS
10
0.015674
20
0.055727
30
0.0
11
0.014915
21
0.054608
31
0.0
0
LINE
8
0
6
CONTINUOUS
10
0.014775
20
0.053830
30
0.0
11
0.015346
21
0.054592
31
0.0
0
LINE
8
0
6
CONTINUOUS
10
0.014915
20
0.054608
30
0.0
11
0.014391
21
0.053755
31
0.0
0
LINE
8
0
6
CONTINUOUS
10
0.014391
20
0.053755
30
0.0
11
0.013848
21
0.053088
31
0.0
0
LINE
8
0
6
CONTINUOUS
10
0.016907
20
0.056670
30
0.0
11
0.018968
21
0.058974
31
0.0
0
LINE
8
0
6
CONTINUOUS
10
0.023119
20
0.064271
30
0.0
11
0.023073
21
0.065117
31
0.0
0
LINE
8
0
6
CONTINUOUS
10
0.023059
20
0.064314
30
0.0
11
0.023013
21
0.065161
31
0.0
0
LINE
8
0
6
CONTINUOUS
10
0.022841
20
0.064466
30
0.0
11
0.022853
21
0.065394
31
0.0
0
LINE
8
0
6
CONTINUOUS
10
0.022700
20
0.065679
30
0.0
11
0.021610
21
0.066661
31
0.0
0
LINE
8
0
6
CONTINUOUS
10
0.021610
20
0.066661
30
0.0
11
0.022853
21
0.065394
31
0.0
0
LINE
8
0
6
CONTINUOUS
10
0.023119
20
0.064271
30
0.0
11
0.023059
21
0.064314
31
0.0
0
LINE
8
0
6
CONTINUOUS
10
0.022135
20
0.062450
30
0.0
11
0.023119
21
0.064271
31
0.0
0
LINE
8
0
6
CONTINUOUS
10
0.022075
20
0.062494
30
0.0
11
0.023059
21
0.064314
31
0.0
0
LINE
8
0
6
CONTINUOUS
10
0.022853
20
0.065394
30
0.0
11
0.023013
21
0.065161
31
0.0
0
LINE
8
0
6
CONTINUOUS
10
0.023073
20
0.065117
30
0.0
11
0.022700
21
0.065679
31
0.0
0
LINE
8
0
6
CONTINUOUS
10
0.023013
20
0.065161
30
0.0
11
0.023073
21
0.065117
31
0.0
0
LINE
8
0
6
CONTINUOUS
10
0.011588
20
0.055697
30
0.0
11
0.010506
21
0.054273
31
0.0
0
LINE
8
0
6
CONTINUOUS
10
0.016663
20
0.056938
30
0.0
11
0.018834
21
0.059074
31
0.0
0
LINE
8
0
6
CONTINUOUS
10
0.013848
20
0.053088
30
0.0
11
0.012618
21
0.053793
31
0.0
0
LINE
8
0
6
CONTINUOUS
10
0.012999
20
0.052055
30
0.0
11
0.013848
21
0.053088
31
0.0
0
LINE
8
0
6
CONTINUOUS
10
0.017475
20
0.065707
30
0.0
11
0.015276
21
0.061559
31
0.0
0
LINE
8
0
6
CONTINUOUS
10
0.013738
20
0.058861
30
0.0
11
0.013238
21
0.058107
31
0.0
0
LINE
8
0
6
CONTINUOUS
10
0.013238
20
0.058107
30
0.0
11
0.012698
21
0.057374
31
0.0
0
LINE
8
0
6
CONTINUOUS
10
0.012413
20
0.056920
30
0.0
11
0.011959
21
0.056197
31
0.0
0
LINE
8
0
6
CONTINUOUS
10
0.012698
20
0.057374
30
0.0
11
0.012413
21
0.056920
31
0.0
0
LINE
8
0
6
CONTINUOUS
10
0.011959
20
0.056197
30
0.0
11
0.011588
21
0.055697
31
0.0
0
LINE
8
0
6
CONTINUOUS
10
0.015276
20
0.061559
30
0.0
11
0.013723
21
0.058793
31
0.0
0
LINE
8
0
6
CONTINUOUS
10
0.017536
20
0.065666
30
0.0
11
0.015300
21
0.061538
31
0.0
0
LINE
8
0
6
CONTINUOUS
10
0.017536
20
0.065666
30
0.0
11
0.015440
21
0.061446
31
0.0
0
LINE
8
0
6
CONTINUOUS
10
0.013383
20
0.057328
30
0.0
11
0.014180
21
0.058673
31
0.0
0
LINE
8
0
6
CONTINUOUS
10
0.013845
20
0.058810
30
0.0
11
0.013123
21
0.057677
31
0.0
0
LINE
8
0
6
CONTINUOUS
10
0.012593
20
0.056231
30
0.0
11
0.013383
21
0.057328
31
0.0
0
LINE
8
0
6
CONTINUOUS
10
0.013123
20
0.057677
30
0.0
11
0.012430
21
0.056629
31
0.0
0
LINE
8
0
6
CONTINUOUS
10
0.011973
20
0.055445
30
0.0
11
0.012593
21
0.056231
31
0.0
0
LINE
8
0
6
CONTINUOUS
10
0.012430
20
0.056629
30
0.0
11
0.011911
21
0.055832
31
0.0
0
LINE
8
0
6
CONTINUOUS
10
0.011532
20
0.054706
30
0.0
11
0.011973
21
0.055445
31
0.0
0
LINE
8
0
6
CONTINUOUS
10
0.015300
20
0.061538
30
0.0
11
0.013845
21
0.058810
31
0.0
0
LINE
8
0
6
CONTINUOUS
10
0.019657
20
0.067504
30
0.0
11
0.018846
21
0.067257
31
0.0
0
LINE
8
0
6
CONTINUOUS
10
0.019718
20
0.067463
30
0.0
11
0.018907
21
0.067215
31
0.0
0
LINE
8
0
6
CONTINUOUS
10
0.019992
20
0.067393
30
0.0
11
0.019125
21
0.067063
31
0.0
0
LINE
8
0
6
CONTINUOUS
10
0.020976
20
0.065754
30
0.0
11
0.021610
21
0.066661
31
0.0
0
LINE
8
0
6
CONTINUOUS
10
0.021610
20
0.066661
30
0.0
11
0.020313
21
0.067348
31
0.0
0
LINE
8
0
6
CONTINUOUS
10
0.019992
20
0.067393
30
0.0
11
0.021610
21
0.066661
31
0.0
0
LINE
8
0
6
CONTINUOUS
10
0.018846
20
0.067257
30
0.0
11
0.017475
21
0.065707
31
0.0
0
LINE
8
0
6
CONTINUOUS
10
0.018907
20
0.067215
30
0.0
11
0.018846
21
0.067257
31
0.0
0
LINE
8
0
6
CONTINUOUS
10
0.018907
20
0.067215
30
0.0
11
0.017536
21
0.065666
31
0.0
0
LINE
8
0
6
CONTINUOUS
10
0.019657
20
0.067504
30
0.0
11
0.019718
21
0.067463
31
0.0
0
LINE
8
0
6
CONTINUOUS
10
0.020313
20
0.067348
30
0.0
11
0.019657
21
0.067504
31
0.0
0
LINE
8
0
6
CONTINUOUS
10
0.019718
20
0.067463
30
0.0
11
0.019992
21
0.067393
31
0.0
0
LINE
8
0
6
CONTINUOUS
10
0.015440
20
0.061446
30
0.0
11
0.014180
21
0.058673
31
0.0
0
LINE
8
0
6
CONTINUOUS
10
0.012618
20
0.053793
30
0.0
11
0.011532
21
0.054706
31
0.0
0
LINE
8
0
6
CONTINUOUS
10
0.011532
20
0.054706
30
0.0
11
0.010810
21
0.053654
31
0.0
0
LINE
8
0
6
CONTINUOUS
10
0.013667
20
0.052032
30
0.0
11
0.014760
21
0.053480
31
0.0
0
LINE
8
0
6
CONTINUOUS
10
-0.009609
20
0.033217
30
0.0
11
-0.013665
21
0.030201
31
0.0
0
LINE
8
0
6
CONTINUOUS
10
-0.000119
20
-0.002667
30
0.0
11
-0.000119
21
-0.006583
31
0.0
0
LINE
8
0
6
CONTINUOUS
10
-0.013665
20
0.030201
30
0.0
11
-0.016726
21
0.026145
31
0.0
0
LINE
8
0
6
CONTINUOUS
10
0.018325
20
0.021569
30
0.0
11
0.016488
21
0.026145
31
0.0
0
LINE
8
0
6
CONTINUOUS
10
-0.004942
20
-0.010014
30
0.0
11
-0.004942
21
-0.011703
31
0.0
0
LINE
8
0
6
CONTINUOUS
10
-0.002185
20
-0.008588
30
0.0
11
-0.002176
21
-0.010298
31
0.0
0
LINE
8
0
6
CONTINUOUS
10
-0.004942
20
-0.013855
30
0.0
11
-0.004942
21
-0.056131
31
0.0
0
LINE
8
0
6
CONTINUOUS
10
-0.000119
20
-0.055525
30
0.0
11
-0.000119
21
-0.010642
31
0.0
0
LINE
8
0
6
CONTINUOUS
10
-0.006089
20
-0.007454
30
0.0
11
-0.005215
21
-0.008395
31
0.0
0
LINE
8
0
6
CONTINUOUS
10
0.004704
20
-0.010014
30
0.0
11
0.004982
21
-0.008963
31
0.0
0
LINE
8
0
6
CONTINUOUS
10
-0.000119
20
0.035792
30
0.0
11
-0.005017
21
0.035089
31
0.0
0
LINE
8
0
6
CONTINUOUS
10
-0.019251
20
0.016706
30
0.0
11
-0.019248
21
0.016557
31
0.0
0
LINE
8
0
6
CONTINUOUS
10
-0.018562
20
0.021569
30
0.0
11
-0.019251
21
0.016706
31
0.0
0
LINE
8
0
6
CONTINUOUS
10
0.019013
20
0.016706
30
0.0
11
0.018325
21
0.021569
31
0.0
0
LINE
8
0
6
CONTINUOUS
10
0.019010
20
0.016557
30
0.0
11
0.019013
21
0.016706
31
0.0
0
LINE
8
0
6
CONTINUOUS
10
0.004779
20
0.035089
30
0.0
11
-0.000119
21
0.035792
31
0.0
0
LINE
8
0
6
CONTINUOUS
10
0.004704
20
-0.011703
30
0.0
11
0.004704
21
-0.010014
31
0.0
0
LINE
8
0
6
CONTINUOUS
10
-0.000119
20
-0.006583
30
0.0
11
-0.000119
21
-0.008367
31
0.0
0
LINE
8
0
6
CONTINUOUS
10
0.001857
20
-0.010274
30
0.0
11
0.001863
21
-0.008562
31
0.0
0
LINE
8
0
6
CONTINUOUS
10
0.004704
20
-0.056131
30
0.0
11
0.004704
21
-0.013855
31
0.0
0
LINE
8
0
6
CONTINUOUS
10
-0.003530
20
-0.055702
30
0.0
11
-0.003583
21
-0.014217
31
0.0
0
LINE
8
0
6
CONTINUOUS
10
-0.000119
20
0.009052
30
0.0
11
-0.000119
21
0.005136
31
0.0
0
LINE
8
0
6
CONTINUOUS
10
-0.005220
20
-0.008963
30
0.0
11
-0.004942
21
-0.010014
31
0.0
0
LINE
8
0
6
CONTINUOUS
10
-0.005903
20
-0.007717
30
0.0
11
-0.005220
21
-0.008963
31
0.0
0
LINE
8
0
6
CONTINUOUS
10
-0.000119
20
0.001238
30
0.0
11
-0.000119
21
-0.002667
31
0.0
0
LINE
8
0
6
CONTINUOUS
10
0.004754
20
-0.009175
30
0.0
11
0.005665
21
-0.007717
31
0.0
0
LINE
8
0
6
CONTINUOUS
10
-0.004942
20
-0.056131
30
0.0
11
-0.004942
21
-0.056714
31
0.0
0
LINE
8
0
6
CONTINUOUS
10
-0.019119
20
0.010464
30
0.0
11
-0.018472
21
0.005674
31
0.0
0
LINE
8
0
6
CONTINUOUS
10
-0.016573
20
0.001207
30
0.0
11
-0.013554
21
-0.002635
31
0.0
0
LINE
8
0
6
CONTINUOUS
10
-0.018472
20
0.005674
30
0.0
11
-0.016573
21
0.001207
31
0.0
0
LINE
8
0
6
CONTINUOUS
10
-0.013554
20
-0.002635
30
0.0
11
-0.009619
21
-0.005588
31
0.0
0
LINE
8
0
6
CONTINUOUS
10
-0.016573
20
0.019732
30
0.0
11
-0.018472
21
0.015258
31
0.0
0
LINE
8
0
6
CONTINUOUS
10
0.004704
20
-0.013855
30
0.0
11
0.004704
21
-0.011703
31
0.0
0
LINE
8
0
6
CONTINUOUS
10
-0.007028
20
-0.006587
30
0.0
11
-0.006089
21
-0.007454
31
0.0
0
LINE
8
0
6
CONTINUOUS
10
-0.009619
20
-0.005588
30
0.0
11
-0.007028
21
-0.006587
31
0.0
0
LINE
8
0
6
CONTINUOUS
10
0.018211
20
0.005681
30
0.0
11
0.018881
21
0.010464
31
0.0
0
LINE
8
0
6
CONTINUOUS
10
0.013316
20
0.023584
30
0.0
11
0.009381
21
0.026547
31
0.0
0
LINE
8
0
6
CONTINUOUS
10
0.016336
20
0.019732
30
0.0
11
0.013316
21
0.023584
31
0.0
0
LINE
8
0
6
CONTINUOUS
10
0.013316
20
-0.002635
30
0.0
11
0.016336
21
0.001207
31
0.0
0
LINE
8
0
6
CONTINUOUS
10
0.016336
20
0.001207
30
0.0
11
0.018211
21
0.005681
31
0.0
0
LINE
8
0
6
CONTINUOUS
10
0.009381
20
-0.005588
30
0.0
11
0.013316
21
-0.002635
31
0.0
0
LINE
8
0
6
CONTINUOUS
10
0.005852
20
-0.007454
30
0.0
11
0.006790
21
-0.006587
31
0.0
0
LINE
8
0
6
CONTINUOUS
10
0.006790
20
-0.006587
30
0.0
11
0.009381
21
-0.005588
31
0.0
0
LINE
8
0
6
CONTINUOUS
10
0.004978
20
-0.008395
30
0.0
11
0.005852
21
-0.007454
31
0.0
0
LINE
8
0
6
CONTINUOUS
10
-0.005215
20
-0.008395
30
0.0
11
-0.004367
21
-0.009386
31
0.0
0
LINE
8
0
6
CONTINUOUS
10
0.004278
20
-0.009303
30
0.0
11
0.004978
21
-0.008395
31
0.0
0
LINE
8
0
6
CONTINUOUS
10
0.004978
20
-0.008395
30
0.0
11
0.004129
21
-0.009386
31
0.0
0
LINE
8
0
6
CONTINUOUS
10
-0.003588
20
-0.010455
30
0.0
11
-0.004516
21
-0.009303
31
0.0
0
LINE
8
0
6
CONTINUOUS
10
-0.004367
20
-0.009386
30
0.0
11
-0.003588
21
-0.010455
31
0.0
0
LINE
8
0
6
CONTINUOUS
10
0.003350
20
-0.010455
30
0.0
11
0.003837
21
-0.010342
31
0.0
0
LINE
8
0
6
CONTINUOUS
10
0.003350
20
-0.010455
30
0.0
11
0.004129
21
-0.009386
31
0.0
0
LINE
8
0
6
CONTINUOUS
10
-0.005017
20
0.035089
30
0.0
11
-0.009609
21
0.033217
31
0.0
0
LINE
8
0
6
CONTINUOUS
10
0.004799
20
0.028414
30
0.0
11
0.009381
21
0.026547
31
0.0
0
LINE
8
0
6
CONTINUOUS
10
-0.000119
20
0.001238
30
0.0
11
-0.000119
21
0.005136
31
0.0
0
LINE
8
0
6
CONTINUOUS
10
-0.004575
20
-0.056482
30
0.0
11
-0.004942
21
-0.056714
31
0.0
0
LINE
8
0
6
CONTINUOUS
10
-0.004942
20
-0.056714
30
0.0
11
-0.004575
21
-0.056943
31
0.0
0
LINE
8
0
6
CONTINUOUS
10
-0.004575
20
-0.056943
30
0.0
11
-0.003530
21
-0.057137
31
0.0
0
LINE
8
0
6
CONTINUOUS
10
-0.003530
20
-0.057137
30
0.0
11
-0.001965
21
-0.057266
31
0.0
0
LINE
8
0
6
CONTINUOUS
10
-0.001965
20
-0.057266
30
0.0
11
-0.000119
21
-0.057312
31
0.0
0
LINE
8
0
6
CONTINUOUS
10
0.001727
20
-0.056154
30
0.0
11
-0.000119
21
-0.056108
31
0.0
0
LINE
8
0
6
CONTINUOUS
10
0.004337
20
-0.056943
30
0.0
11
0.004704
21
-0.056714
31
0.0
0
LINE
8
0
6
CONTINUOUS
10
0.003292
20
-0.057137
30
0.0
11
0.004337
21
-0.056943
31
0.0
0
LINE
8
0
6
CONTINUOUS
10
0.001727
20
-0.057266
30
0.0
11
0.003292
21
-0.057137
31
0.0
0
LINE
8
0
6
CONTINUOUS
10
-0.000119
20
-0.057312
30
0.0
11
0.001727
21
-0.057266
31
0.0
0
LINE
8
0
6
CONTINUOUS
10
-0.002852
20
-0.056229
30
0.0
11
-0.003530
21
-0.056285
31
0.0
0
LINE
8
0
6
CONTINUOUS
10
0.003877
20
-0.056396
30
0.0
11
0.003292
21
-0.056285
31
0.0
0
LINE
8
0
6
CONTINUOUS
10
-0.000119
20
-0.056108
30
0.0
11
-0.000119
21
-0.055525
31
0.0
0
LINE
8
0
6
CONTINUOUS
10
-0.001965
20
-0.056154
30
0.0
11
-0.000119
21
-0.056108
31
0.0
0
LINE
8
0
6
CONTINUOUS
10
-0.004575
20
-0.056482
30
0.0
11
-0.004115
21
-0.056396
31
0.0
0
LINE
8
0
6
CONTINUOUS
10
0.002614
20
-0.056229
30
0.0
11
0.003292
21
-0.056285
31
0.0
0
LINE
8
0
6
CONTINUOUS
10
0.004704
20
-0.056714
30
0.0
11
0.004704
21
-0.056131
31
0.0
0
LINE
8
0
6
CONTINUOUS
10
0.004337
20
-0.056482
30
0.0
11
0.004704
21
-0.056714
31
0.0
0
LINE
8
0
6
CONTINUOUS
10
0.003877
20
-0.056396
30
0.0
11
0.004337
21
-0.056482
31
0.0
0
LINE
8
0
6
CONTINUOUS
10
-0.004115
20
-0.056396
30
0.0
11
-0.003530
21
-0.056285
31
0.0
0
LINE
8
0
6
CONTINUOUS
10
0.001727
20
-0.055571
30
0.0
11
0.001727
21
-0.056154
31
0.0
0
LINE
8
0
6
CONTINUOUS
10
0.001727
20
-0.056154
30
0.0
11
0.002614
21
-0.056229
31
0.0
0
LINE
8
0
6
CONTINUOUS
10
-0.001965
20
-0.056154
30
0.0
11
-0.001965
21
-0.055571
31
0.0
0
LINE
8
0
6
CONTINUOUS
10
-0.002852
20
-0.056229
30
0.0
11
-0.001965
21
-0.056154
31
0.0
0
LINE
8
0
6
CONTINUOUS
10
-0.004942
20
-0.011703
30
0.0
11
-0.004942
21
-0.013855
31
0.0
0
LINE
8
0
6
CONTINUOUS
10
-0.000119
20
-0.010642
30
0.0
11
-0.000119
21
-0.008367
31
0.0
0
LINE
8
0
6
CONTINUOUS
10
-0.009619
20
0.026547
30
0.0
11
-0.005036
21
0.028414
31
0.0
0
LINE
8
0
6
CONTINUOUS
10
-0.000119
20
0.029051
30
0.0
11
0.004799
21
0.028414
31
0.0
0
LINE
8
0
6
CONTINUOUS
10
0.018881
20
0.010464
30
0.0
11
0.018885
21
0.010649
31
0.0
0
LINE
8
0
6
CONTINUOUS
10
0.018234
20
0.015258
30
0.0
11
0.018881
21
0.010464
31
0.0
0
LINE
8
0
6
CONTINUOUS
10
-0.019119
20
0.010464
30
0.0
11
-0.018472
21
0.015258
31
0.0
0
LINE
8
0
6
CONTINUOUS
10
-0.019123
20
0.010649
30
0.0
11
-0.019119
21
0.010464
31
0.0
0
LINE
8
0
6
CONTINUOUS
10
-0.005036
20
0.028414
30
0.0
11
-0.000119
21
0.029051
31
0.0
0
LINE
8
0
6
CONTINUOUS
10
0.016336
20
0.019732
30
0.0
11
0.018234
21
0.015258
31
0.0
0
LINE
8
0
6
CONTINUOUS
10
-0.016573
20
0.019732
30
0.0
11
-0.013554
21
0.023584
31
0.0
0
LINE
8
0
6
CONTINUOUS
10
-0.013554
20
0.023584
30
0.0
11
-0.009619
21
0.026547
31
0.0
0
LINE
8
0
6
CONTINUOUS
10
0.018935
20
0.012987
30
0.0
11
0.018944
21
0.013455
31
0.0
0
LINE
8
0
6
CONTINUOUS
10
-0.019182
20
0.013455
30
0.0
11
-0.019172
21
0.012987
31
0.0
0
LINE
8
0
6
CONTINUOUS
10
-0.019133
20
0.011117
30
0.0
11
-0.019123
21
0.010649
31
0.0
0
LINE
8
0
6
CONTINUOUS
10
-0.019143
20
0.011584
30
0.0
11
-0.019133
21
0.011117
31
0.0
0
LINE
8
0
6
CONTINUOUS
10
-0.019153
20
0.012052
30
0.0
11
-0.019143
21
0.011584
31
0.0
0
LINE
8
0
6
CONTINUOUS
10
-0.019162
20
0.012520
30
0.0
11
-0.019153
21
0.012052
31
0.0
0
LINE
8
0
6
CONTINUOUS
10
-0.019172
20
0.012987
30
0.0
11
-0.019162
21
0.012520
31
0.0
0
LINE
8
0
6
CONTINUOUS
10
0.018885
20
0.010649
30
0.0
11
0.018895
21
0.011117
31
0.0
0
LINE
8
0
6
CONTINUOUS
10
0.018895
20
0.011117
30
0.0
11
0.018905
21
0.011584
31
0.0
0
LINE
8
0
6
CONTINUOUS
10
0.018905
20
0.011584
30
0.0
11
0.018915
21
0.012052
31
0.0
0
LINE
8
0
6
CONTINUOUS
10
0.018915
20
0.012052
30
0.0
11
0.018925
21
0.012520
31
0.0
0
LINE
8
0
6
CONTINUOUS
10
0.018925
20
0.012520
30
0.0
11
0.018935
21
0.012987
31
0.0
0
LINE
8
0
6
CONTINUOUS
10
0.009371
20
0.033217
30
0.0
11
0.004779
21
0.035089
31
0.0
0
LINE
8
0
6
CONTINUOUS
10
0.013427
20
0.030201
30
0.0
11
0.009371
21
0.033217
31
0.0
0
LINE
8
0
6
CONTINUOUS
10
-0.016726
20
0.026145
30
0.0
11
-0.018562
21
0.021569
31
0.0
0
LINE
8
0
6
CONTINUOUS
10
0.016488
20
0.026145
30
0.0
11
0.013427
21
0.030201
31
0.0
0
LINE
8
0
6
CONTINUOUS
10
0.018944
20
0.013455
30
0.0
11
0.019010
21
0.016557
31
0.0
0
LINE
8
0
6
CONTINUOUS
10
-0.019248
20
0.016557
30
0.0
11
-0.019182
21
0.013455
31
0.0
0
LINE
8
0
6
CONTINUOUS
10
-0.022335
20
0.044531
30
0.0
11
-0.023119
21
0.038577
31
0.0
0
LINE
8
0
6
CONTINUOUS
10
-0.020038
20
0.050078
30
0.0
11
-0.022335
21
0.044531
31
0.0
0
LINE
8
0
6
CONTINUOUS
10
-0.000119
20
0.061580
30
0.0
11
-0.006072
21
0.060796
31
0.0
0
LINE
8
0
6
CONTINUOUS
10
-0.016382
20
0.054842
30
0.0
11
-0.020038
21
0.050078
31
0.0
0
LINE
8
0
6
CONTINUOUS
10
-0.006072
20
0.060796
30
0.0
11
-0.011619
21
0.058498
31
0.0
0
LINE
8
0
6
CONTINUOUS
10
-0.022335
20
0.032624
30
0.0
11
-0.022304
21
0.032486
31
0.0
0
LINE
8
0
6
CONTINUOUS
10
-0.023119
20
0.038577
30
0.0
11
-0.022335
21
0.032624
31
0.0
0
LINE
8
0
6
CONTINUOUS
10
-0.011619
20
0.058498
30
0.0
11
-0.016382
21
0.054842
31
0.0
0
LINE
8
0
6
CONTINUOUS
10
0.022881
20
0.038577
30
0.0
11
0.022097
21
0.044531
31
0.0
0
LINE
8
0
6
CONTINUOUS
10
0.022097
20
0.044531
30
0.0
11
0.019800
21
0.050078
31
0.0
0
LINE
8
0
6
CONTINUOUS
10
0.005834
20
0.060796
30
0.0
11
-0.000119
21
0.061580
31
0.0
0
LINE
8
0
6
CONTINUOUS
10
0.019800
20
0.050078
30
0.0
11
0.016145
21
0.054842
31
0.0
0
LINE
8
0
6
CONTINUOUS
10
0.011381
20
0.058498
30
0.0
11
0.005834
21
0.060796
31
0.0
0
LINE
8
0
6
CONTINUOUS
10
0.022097
20
0.032624
30
0.0
11
0.022881
21
0.038577
31
0.0
0
LINE
8
0
6
CONTINUOUS
10
0.022066
20
0.032486
30
0.0
11
0.022097
21
0.032624
31
0.0
0
LINE
8
0
6
CONTINUOUS
10
0.018234
20
0.021920
30
0.0
11
0.016336
21
0.026517
31
0.0
0
LINE
8
0
6
CONTINUOUS
10
0.013316
20
0.030465
30
0.0
11
0.009381
21
0.033493
31
0.0
0
LINE
8
0
6
CONTINUOUS
10
0.009381
20
0.033493
30
0.0
11
0.004799
21
0.035396
31
0.0
0
LINE
8
0
6
CONTINUOUS
10
0.004799
20
0.035396
30
0.0
11
-0.000119
21
0.036045
31
0.0
0
LINE
8
0
6
CONTINUOUS
10
0.016336
20
0.026517
30
0.0
11
0.013316
21
0.030465
31
0.0
0
LINE
8
0
6
CONTINUOUS
10
0.015083
20
-0.054958
30
0.0
11
0.015107
21
-0.053977
31
0.0
0
LINE
8
0
6
CONTINUOUS
10
0.013614
20
-0.059861
30
0.0
11
0.015083
21
-0.054958
31
0.0
0
LINE
8
0
6
CONTINUOUS
10
-0.000119
20
-0.066867
30
0.0
11
0.005501
21
-0.066000
31
0.0
0
LINE
8
0
6
CONTINUOUS
10
0.005501
20
-0.066000
30
0.0
11
0.010292
21
-0.063554
31
0.0
0
LINE
8
0
6
CONTINUOUS
10
0.010292
20
-0.063554
30
0.0
11
0.013614
21
-0.059861
31
0.0
0
LINE
8
0
6
CONTINUOUS
10
0.019085
20
0.016773
30
0.0
11
0.019699
21
0.020007
31
0.0
0
LINE
8
0
6
CONTINUOUS
10
0.015107
20
-0.053977
30
0.0
11
0.016504
21
0.001608
31
0.0
0
LINE
8
0
6
CONTINUOUS
10
-0.019937
20
0.020007
30
0.0
11
-0.019323
21
0.016773
31
0.0
0
LINE
8
0
6
CONTINUOUS
10
-0.016573
20
0.026517
30
0.0
11
-0.018472
21
0.021920
31
0.0
0
LINE
8
0
6
CONTINUOUS
10
-0.009619
20
0.033493
30
0.0
11
-0.013554
21
0.030465
31
0.0
0
LINE
8
0
6
CONTINUOUS
10
-0.005036
20
0.035396
30
0.0
11
-0.009619
21
0.033493
31
0.0
0
LINE
8
0
6
CONTINUOUS
10
-0.000119
20
0.036045
30
0.0
11
-0.005036
21
0.035396
31
0.0
0
LINE
8
0
6
CONTINUOUS
10
-0.013554
20
0.030465
30
0.0
11
-0.016573
21
0.026517
31
0.0
0
LINE
8
0
6
CONTINUOUS
10
-0.015321
20
-0.054958
30
0.0
11
-0.013851
21
-0.059861
31
0.0
0
LINE
8
0
6
CONTINUOUS
10
-0.015344
20
-0.053977
30
0.0
11
-0.015321
21
-0.054958
31
0.0
0
LINE
8
0
6
CONTINUOUS
10
-0.005739
20
-0.066000
30
0.0
11
-0.000119
21
-0.066867
31
0.0
0
LINE
8
0
6
CONTINUOUS
10
-0.010530
20
-0.063554
30
0.0
11
-0.005739
21
-0.066000
31
0.0
0
LINE
8
0
6
CONTINUOUS
10
-0.013851
20
-0.059861
30
0.0
11
-0.010530
21
-0.063554
31
0.0
0
LINE
8
0
6
CONTINUOUS
10
-0.022304
20
0.032486
30
0.0
11
-0.019937
21
0.020007
31
0.0
0
LINE
8
0
6
CONTINUOUS
10
-0.016741
20
0.001602
30
0.0
11
-0.015344
21
-0.053977
31
0.0
0
LINE
8
0
6
CONTINUOUS
10
0.019699
20
0.020007
30
0.0
11
0.022066
21
0.032486
31
0.0
0
LINE
8
0
6
CONTINUOUS
10
0.011885
20
0.052818
30
0.0
11
0.012052
21
0.052711
31
0.0
0
LINE
8
0
6
CONTINUOUS
10
0.013506
20
0.052004
30
0.0
11
0.013420
21
0.051975
31
0.0
0
LINE
8
0
6
CONTINUOUS
10
0.010979
20
0.053549
30
0.0
11
0.011885
21
0.052818
31
0.0
0
LINE
8
0
6
CONTINUOUS
10
0.013420
20
0.051975
30
0.0
11
0.013120
21
0.052024
31
0.0
0
LINE
8
0
6
CONTINUOUS
10
0.012308
20
0.052532
30
0.0
11
0.012999
21
0.052055
31
0.0
0
LINE
8
0
6
CONTINUOUS
10
0.012052
20
0.052711
30
0.0
11
0.012308
21
0.052532
31
0.0
0
LINE
8
0
6
CONTINUOUS
10
0.013120
20
0.052024
30
0.0
11
0.012999
21
0.052055
31
0.0
0
LINE
8
0
6
CONTINUOUS
10
0.013667
20
0.052032
30
0.0
11
0.013506
21
0.052004
31
0.0
0
LINE
8
0
6
CONTINUOUS
10
0.010810
20
0.053654
30
0.0
11
0.010978
21
0.053550
31
0.0
0
LINE
8
0
6
CONTINUOUS
10
0.010557
20
0.054011
30
0.0
11
0.010645
21
0.053903
31
0.0
0
ENDSEC
0
EOF
