999
Erzeugt mit innoplus bad 
0
SECTION
2
HEADER
9
$ACADVER
1
AC1009
9
$DWGCODEPAGE
3
ISO8859-1
0
ENDSEC
0
SECTION
2
TABLES
0
TABLE
2
LAYER
70
1
0
LAYER
2
0
70
0
62
7
6
CONTINUOUS
0
ENDTAB
0
ENDSEC
0
SECTION
2
ENTITIES
0
LINE
8
0
6
CONTINUOUS
10
-0.002789
20
-0.005713
30
0.0
11
-0.000000
21
-0.005415
31
0.0
0
LINE
8
0
6
CONTINUOUS
10
-0.000000
20
-0.005415
30
0.0
11
0.002789
21
-0.005713
31
0.0
0
LINE
8
0
6
CONTINUOUS
10
0.002789
20
-0.005713
30
0.0
11
0.005304
21
-0.006580
31
0.0
0
LINE
8
0
6
CONTINUOUS
10
0.005304
20
-0.006580
30
0.0
11
0.007300
21
-0.007929
31
0.0
0
LINE
8
0
6
CONTINUOUS
10
0.007300
20
-0.007929
30
0.0
11
0.008581
21
-0.009628
31
0.0
0
LINE
8
0
6
CONTINUOUS
10
0.008581
20
-0.009628
30
0.0
11
0.009022
21
-0.011512
31
0.0
0
LINE
8
0
6
CONTINUOUS
10
0.009022
20
-0.011512
30
0.0
11
0.008581
21
-0.013396
31
0.0
0
LINE
8
0
6
CONTINUOUS
10
0.008581
20
-0.013396
30
0.0
11
0.007300
21
-0.015095
31
0.0
0
LINE
8
0
6
CONTINUOUS
10
0.007300
20
-0.015095
30
0.0
11
0.005304
21
-0.016444
31
0.0
0
LINE
8
0
6
CONTINUOUS
10
0.005304
20
-0.016444
30
0.0
11
0.002789
21
-0.017310
31
0.0
0
LINE
8
0
6
CONTINUOUS
10
0.002789
20
-0.017310
30
0.0
11
-0.000000
21
-0.017609
31
0.0
0
LINE
8
0
6
CONTINUOUS
10
-0.000000
20
-0.017609
30
0.0
11
-0.002789
21
-0.017310
31
0.0
0
LINE
8
0
6
CONTINUOUS
10
-0.002789
20
-0.017310
30
0.0
11
-0.005304
21
-0.016444
31
0.0
0
LINE
8
0
6
CONTINUOUS
10
-0.005304
20
-0.016444
30
0.0
11
-0.007300
21
-0.015095
31
0.0
0
LINE
8
0
6
CONTINUOUS
10
-0.007300
20
-0.015095
30
0.0
11
-0.008581
21
-0.013396
31
0.0
0
LINE
8
0
6
CONTINUOUS
10
-0.008581
20
-0.013396
30
0.0
11
-0.009022
21
-0.011512
31
0.0
0
LINE
8
0
6
CONTINUOUS
10
-0.009022
20
-0.011512
30
0.0
11
-0.008581
21
-0.009628
31
0.0
0
LINE
8
0
6
CONTINUOUS
10
-0.008581
20
-0.009628
30
0.0
11
-0.007300
21
-0.007929
31
0.0
0
LINE
8
0
6
CONTINUOUS
10
-0.007300
20
-0.007929
30
0.0
11
-0.005304
21
-0.006580
31
0.0
0
LINE
8
0
6
CONTINUOUS
10
-0.005304
20
-0.006580
30
0.0
11
-0.002789
21
-0.005713
31
0.0
0
LINE
8
0
6
CONTINUOUS
10
-0.011863
20
-0.006947
30
0.0
11
-0.011863
21
-0.010875
31
0.0
0
LINE
8
0
6
CONTINUOUS
10
0.011863
20
-0.010875
30
0.0
11
0.011863
21
-0.006947
31
0.0
0
LINE
8
0
6
CONTINUOUS
10
-0.000000
20
-0.003494
30
0.0
11
-0.003666
21
-0.003886
31
0.0
0
LINE
8
0
6
CONTINUOUS
10
0.003666
20
-0.003886
30
0.0
11
-0.000000
21
-0.003494
31
0.0
0
LINE
8
0
6
CONTINUOUS
10
0.006973
20
-0.005025
30
0.0
11
0.003666
21
-0.003886
31
0.0
0
LINE
8
0
6
CONTINUOUS
10
0.009598
20
-0.006799
30
0.0
11
0.006973
21
-0.005025
31
0.0
0
LINE
8
0
6
CONTINUOUS
10
0.011283
20
-0.009034
30
0.0
11
0.009598
21
-0.006799
31
0.0
0
LINE
8
0
6
CONTINUOUS
10
0.011863
20
-0.011512
30
0.0
11
0.011863
21
-0.010875
31
0.0
0
LINE
8
0
6
CONTINUOUS
10
0.011863
20
-0.011512
30
0.0
11
0.011283
21
-0.009034
31
0.0
0
LINE
8
0
6
CONTINUOUS
10
0.011283
20
-0.013990
30
0.0
11
0.011863
21
-0.011512
31
0.0
0
LINE
8
0
6
CONTINUOUS
10
0.009598
20
-0.016225
30
0.0
11
0.011283
21
-0.013990
31
0.0
0
LINE
8
0
6
CONTINUOUS
10
0.006973
20
-0.017999
30
0.0
11
0.009598
21
-0.016225
31
0.0
0
LINE
8
0
6
CONTINUOUS
10
0.003666
20
-0.019137
30
0.0
11
0.006973
21
-0.017999
31
0.0
0
LINE
8
0
6
CONTINUOUS
10
-0.000000
20
-0.019530
30
0.0
11
0.003666
21
-0.019137
31
0.0
0
LINE
8
0
6
CONTINUOUS
10
-0.003666
20
-0.019137
30
0.0
11
-0.000000
21
-0.019530
31
0.0
0
LINE
8
0
6
CONTINUOUS
10
-0.006973
20
-0.017999
30
0.0
11
-0.003666
21
-0.019137
31
0.0
0
LINE
8
0
6
CONTINUOUS
10
-0.009598
20
-0.016225
30
0.0
11
-0.006973
21
-0.017999
31
0.0
0
LINE
8
0
6
CONTINUOUS
10
-0.011283
20
-0.013990
30
0.0
11
-0.009598
21
-0.016225
31
0.0
0
LINE
8
0
6
CONTINUOUS
10
-0.011863
20
-0.011512
30
0.0
11
-0.011283
21
-0.013990
31
0.0
0
LINE
8
0
6
CONTINUOUS
10
-0.011863
20
-0.010875
30
0.0
11
-0.011863
21
-0.011512
31
0.0
0
LINE
8
0
6
CONTINUOUS
10
-0.011283
20
-0.009034
30
0.0
11
-0.011863
21
-0.011512
31
0.0
0
LINE
8
0
6
CONTINUOUS
10
-0.009598
20
-0.006799
30
0.0
11
-0.011283
21
-0.009034
31
0.0
0
LINE
8
0
6
CONTINUOUS
10
-0.006973
20
-0.005025
30
0.0
11
-0.009598
21
-0.006799
31
0.0
0
LINE
8
0
6
CONTINUOUS
10
-0.003666
20
-0.003886
30
0.0
11
-0.006973
21
-0.005025
31
0.0
0
LINE
8
0
6
CONTINUOUS
10
0.008581
20
-0.013014
30
0.0
11
0.009022
21
-0.011130
31
0.0
0
LINE
8
0
6
CONTINUOUS
10
0.007300
20
-0.014713
30
0.0
11
0.008581
21
-0.013014
31
0.0
0
LINE
8
0
6
CONTINUOUS
10
0.005304
20
-0.016062
30
0.0
11
0.007300
21
-0.014713
31
0.0
0
LINE
8
0
6
CONTINUOUS
10
0.002789
20
-0.016928
30
0.0
11
0.005304
21
-0.016062
31
0.0
0
LINE
8
0
6
CONTINUOUS
10
-0.000000
20
-0.017227
30
0.0
11
0.002789
21
-0.016928
31
0.0
0
LINE
8
0
6
CONTINUOUS
10
-0.002789
20
-0.016928
30
0.0
11
-0.000000
21
-0.017227
31
0.0
0
LINE
8
0
6
CONTINUOUS
10
-0.005304
20
-0.016062
30
0.0
11
-0.002789
21
-0.016928
31
0.0
0
LINE
8
0
6
CONTINUOUS
10
-0.007300
20
-0.014713
30
0.0
11
-0.005304
21
-0.016062
31
0.0
0
LINE
8
0
6
CONTINUOUS
10
-0.008581
20
-0.013014
30
0.0
11
-0.007300
21
-0.014713
31
0.0
0
LINE
8
0
6
CONTINUOUS
10
-0.009022
20
-0.011130
30
0.0
11
-0.008581
21
-0.013014
31
0.0
0
LINE
8
0
6
CONTINUOUS
10
0.020519
20
-0.009721
30
0.0
11
0.020086
21
0.007887
31
0.0
0
LINE
8
0
6
CONTINUOUS
10
-0.020086
20
0.007887
30
0.0
11
-0.020519
21
-0.009721
31
0.0
0
LINE
8
0
6
CONTINUOUS
10
0.016225
20
0.025404
30
0.0
11
0.016252
21
0.026251
31
0.0
0
LINE
8
0
6
CONTINUOUS
10
0.005953
20
-0.110500
30
0.0
11
0.011500
21
-0.110500
31
0.0
0
LINE
8
0
6
CONTINUOUS
10
0.023000
20
-0.110500
30
0.0
11
0.022975
21
-0.109500
31
0.0
0
LINE
8
0
6
CONTINUOUS
10
0.022216
20
-0.110500
30
0.0
11
0.023000
21
-0.110500
31
0.0
0
LINE
8
0
6
CONTINUOUS
10
0.016263
20
-0.110500
30
0.0
11
0.019919
21
-0.110500
31
0.0
0
LINE
8
0
6
CONTINUOUS
10
-0.000000
20
-0.110500
30
0.0
11
0.005953
21
-0.110500
31
0.0
0
LINE
8
0
6
CONTINUOUS
10
0.019919
20
-0.110500
30
0.0
11
0.022216
21
-0.110500
31
0.0
0
LINE
8
0
6
CONTINUOUS
10
0.011500
20
-0.110500
30
0.0
11
0.016263
21
-0.110500
31
0.0
0
LINE
8
0
6
CONTINUOUS
10
-0.011500
20
-0.110500
30
0.0
11
-0.005953
21
-0.110500
31
0.0
0
LINE
8
0
6
CONTINUOUS
10
-0.022975
20
-0.109500
30
0.0
11
-0.023000
21
-0.110500
31
0.0
0
LINE
8
0
6
CONTINUOUS
10
-0.023000
20
-0.110500
30
0.0
11
-0.022216
21
-0.110500
31
0.0
0
LINE
8
0
6
CONTINUOUS
10
-0.019919
20
-0.110500
30
0.0
11
-0.016263
21
-0.110500
31
0.0
0
LINE
8
0
6
CONTINUOUS
10
-0.005953
20
-0.110500
30
0.0
11
-0.000000
21
-0.110500
31
0.0
0
LINE
8
0
6
CONTINUOUS
10
-0.022216
20
-0.110500
30
0.0
11
-0.019919
21
-0.110500
31
0.0
0
LINE
8
0
6
CONTINUOUS
10
-0.016263
20
-0.110500
30
0.0
11
-0.011500
21
-0.110500
31
0.0
0
LINE
8
0
6
CONTINUOUS
10
0.018353
20
0.057901
30
0.0
11
0.016454
21
0.057901
31
0.0
0
LINE
8
0
6
CONTINUOUS
10
0.013435
20
0.057901
30
0.0
11
0.009500
21
0.057901
31
0.0
0
LINE
8
0
6
CONTINUOUS
10
0.009500
20
0.057901
30
0.0
11
0.004918
21
0.057901
31
0.0
0
LINE
8
0
6
CONTINUOUS
10
0.019015
20
0.056901
30
0.0
11
0.019000
21
0.057901
31
0.0
0
LINE
8
0
6
CONTINUOUS
10
0.019000
20
0.057901
30
0.0
11
0.018353
21
0.057901
31
0.0
0
LINE
8
0
6
CONTINUOUS
10
0.016454
20
0.057901
30
0.0
11
0.013435
21
0.057901
31
0.0
0
LINE
8
0
6
CONTINUOUS
10
0.004918
20
0.057901
30
0.0
11
-0.000000
21
0.057901
31
0.0
0
LINE
8
0
6
CONTINUOUS
10
-0.016454
20
0.057901
30
0.0
11
-0.018353
21
0.057901
31
0.0
0
LINE
8
0
6
CONTINUOUS
10
-0.009500
20
0.057901
30
0.0
11
-0.013435
21
0.057901
31
0.0
0
LINE
8
0
6
CONTINUOUS
10
-0.004918
20
0.057901
30
0.0
11
-0.009500
21
0.057901
31
0.0
0
LINE
8
0
6
CONTINUOUS
10
-0.019000
20
0.057901
30
0.0
11
-0.019015
21
0.056901
31
0.0
0
LINE
8
0
6
CONTINUOUS
10
-0.018353
20
0.057901
30
0.0
11
-0.019000
21
0.057901
31
0.0
0
LINE
8
0
6
CONTINUOUS
10
-0.013435
20
0.057901
30
0.0
11
-0.016454
21
0.057901
31
0.0
0
LINE
8
0
6
CONTINUOUS
10
-0.000000
20
0.057901
30
0.0
11
-0.004918
21
0.057901
31
0.0
0
LINE
8
0
6
CONTINUOUS
10
0.010259
20
-0.014995
30
0.0
11
0.013699
21
-0.011082
31
0.0
0
LINE
8
0
6
CONTINUOUS
10
0.013699
20
-0.011082
30
0.0
11
0.015202
21
-0.006397
31
0.0
0
LINE
8
0
6
CONTINUOUS
10
0.015202
20
-0.006397
30
0.0
11
0.015225
21
-0.005973
31
0.0
0
LINE
8
0
6
CONTINUOUS
10
0.015202
20
-0.006397
30
0.0
11
0.013732
21
-0.001784
31
0.0
0
LINE
8
0
6
CONTINUOUS
10
-0.000000
20
0.004809
30
0.0
11
0.005620
21
0.003993
31
0.0
0
LINE
8
0
6
CONTINUOUS
10
0.005620
20
0.003993
30
0.0
11
0.010411
21
0.001691
31
0.0
0
LINE
8
0
6
CONTINUOUS
10
0.010411
20
0.001691
30
0.0
11
0.013732
21
-0.001784
31
0.0
0
LINE
8
0
6
CONTINUOUS
10
-0.013699
20
-0.011082
30
0.0
11
-0.010259
21
-0.014995
31
0.0
0
LINE
8
0
6
CONTINUOUS
10
-0.015202
20
-0.006397
30
0.0
11
-0.013699
21
-0.011082
31
0.0
0
LINE
8
0
6
CONTINUOUS
10
-0.015202
20
-0.006397
30
0.0
11
-0.013732
21
-0.001784
31
0.0
0
LINE
8
0
6
CONTINUOUS
10
-0.015225
20
-0.005973
30
0.0
11
-0.015202
21
-0.006397
31
0.0
0
LINE
8
0
6
CONTINUOUS
10
-0.000000
20
0.004809
30
0.0
11
-0.005620
21
0.003993
31
0.0
0
LINE
8
0
6
CONTINUOUS
10
-0.005620
20
0.003993
30
0.0
11
-0.010411
21
0.001691
31
0.0
0
LINE
8
0
6
CONTINUOUS
10
-0.010411
20
0.001691
30
0.0
11
-0.013732
21
-0.001784
31
0.0
0
LINE
8
0
6
CONTINUOUS
10
0.020086
20
0.007887
30
0.0
11
0.019593
21
0.027901
31
0.0
0
LINE
8
0
6
CONTINUOUS
10
0.019593
20
0.027901
30
0.0
11
0.019224
21
0.042901
31
0.0
0
LINE
8
0
6
CONTINUOUS
10
-0.020519
20
-0.009721
30
0.0
11
-0.022975
21
-0.109500
31
0.0
0
LINE
8
0
6
CONTINUOUS
10
0.022975
20
-0.109500
30
0.0
11
0.020519
21
-0.009721
31
0.0
0
LINE
8
0
6
CONTINUOUS
10
0.013635
20
0.040697
30
0.0
11
0.013532
21
0.046420
31
0.0
0
LINE
8
0
6
CONTINUOUS
10
0.013732
20
0.035676
30
0.0
11
0.013635
21
0.040697
31
0.0
0
LINE
8
0
6
CONTINUOUS
10
-0.016150
20
0.023051
30
0.0
11
-0.015225
21
-0.005973
31
0.0
0
LINE
8
0
6
CONTINUOUS
10
-0.016225
20
0.025404
30
0.0
11
-0.016199
21
0.024578
31
0.0
0
LINE
8
0
6
CONTINUOUS
10
-0.013796
20
0.032703
30
0.0
11
-0.013732
21
0.035676
31
0.0
0
LINE
8
0
6
CONTINUOUS
10
0.016150
20
0.023051
30
0.0
11
0.016199
21
0.024578
31
0.0
0
LINE
8
0
6
CONTINUOUS
10
-0.016923
20
0.027118
30
0.0
11
-0.016043
21
0.019672
31
0.0
0
LINE
8
0
6
CONTINUOUS
10
0.016034
20
0.019402
30
0.0
11
0.016657
21
0.026886
31
0.0
0
LINE
8
0
6
CONTINUOUS
10
-0.019593
20
0.027901
30
0.0
11
-0.020086
21
0.007887
31
0.0
0
LINE
8
0
6
CONTINUOUS
10
-0.019224
20
0.042901
30
0.0
11
-0.019593
21
0.027901
31
0.0
0
LINE
8
0
6
CONTINUOUS
10
-0.019015
20
0.056901
30
0.0
11
-0.019224
21
0.042901
31
0.0
0
LINE
8
0
6
CONTINUOUS
10
0.013732
20
0.035676
30
0.0
11
0.013796
21
0.032703
31
0.0
0
LINE
8
0
6
CONTINUOUS
10
0.016199
20
0.024578
30
0.0
11
0.016225
21
0.025404
31
0.0
0
LINE
8
0
6
CONTINUOUS
10
-0.013532
20
0.046420
30
0.0
11
-0.013635
21
0.040697
31
0.0
0
LINE
8
0
6
CONTINUOUS
10
-0.015950
20
0.016763
30
0.0
11
-0.016923
21
0.027118
31
0.0
0
LINE
8
0
6
CONTINUOUS
10
0.015225
20
-0.005973
30
0.0
11
0.016150
21
0.023051
31
0.0
0
LINE
8
0
6
CONTINUOUS
10
0.019224
20
0.042901
30
0.0
11
0.019015
21
0.056901
31
0.0
0
LINE
8
0
6
CONTINUOUS
10
0.013793
20
0.031001
30
0.0
11
0.013796
21
0.032703
31
0.0
0
LINE
8
0
6
CONTINUOUS
10
-0.016199
20
0.024578
30
0.0
11
-0.016150
21
0.023051
31
0.0
0
LINE
8
0
6
CONTINUOUS
10
-0.013793
20
0.031001
30
0.0
11
-0.013796
21
0.032703
31
0.0
0
LINE
8
0
6
CONTINUOUS
10
-0.016252
20
0.026251
30
0.0
11
-0.016225
21
0.025404
31
0.0
0
LINE
8
0
6
CONTINUOUS
10
-0.013732
20
0.035676
30
0.0
11
-0.013635
21
0.040697
31
0.0
0
LINE
8
0
6
CONTINUOUS
10
-0.000000
20
0.059031
30
0.0
11
0.004830
21
0.059031
31
0.0
0
LINE
8
0
6
CONTINUOUS
10
0.004830
20
0.059031
30
0.0
11
0.009357
21
0.059031
31
0.0
0
LINE
8
0
6
CONTINUOUS
10
0.009357
20
0.059031
30
0.0
11
0.013357
21
0.059031
31
0.0
0
LINE
8
0
6
CONTINUOUS
10
0.018866
20
0.059031
30
0.0
11
0.018866
21
0.059768
31
0.0
0
LINE
8
0
6
CONTINUOUS
10
0.018186
20
0.059031
30
0.0
11
0.018866
21
0.059031
31
0.0
0
LINE
8
0
6
CONTINUOUS
10
0.016375
20
0.059031
30
0.0
11
0.018186
21
0.059031
31
0.0
0
LINE
8
0
6
CONTINUOUS
10
0.013357
20
0.059031
30
0.0
11
0.016375
21
0.059031
31
0.0
0
LINE
8
0
6
CONTINUOUS
10
-0.004830
20
0.059031
30
0.0
11
-0.000000
21
0.059031
31
0.0
0
LINE
8
0
6
CONTINUOUS
10
-0.009357
20
0.059031
30
0.0
11
-0.004830
21
0.059031
31
0.0
0
LINE
8
0
6
CONTINUOUS
10
-0.013357
20
0.059031
30
0.0
11
-0.009357
21
0.059031
31
0.0
0
LINE
8
0
6
CONTINUOUS
10
-0.018866
20
0.059031
30
0.0
11
-0.018186
21
0.059031
31
0.0
0
LINE
8
0
6
CONTINUOUS
10
-0.018866
20
0.059768
30
0.0
11
-0.018866
21
0.059031
31
0.0
0
LINE
8
0
6
CONTINUOUS
10
-0.018186
20
0.059031
30
0.0
11
-0.016375
21
0.059031
31
0.0
0
LINE
8
0
6
CONTINUOUS
10
-0.016375
20
0.059031
30
0.0
11
-0.013357
21
0.059031
31
0.0
0
LINE
8
0
6
CONTINUOUS
10
0.017078
20
0.057373
30
0.0
11
0.017078
21
0.059768
31
0.0
0
LINE
8
0
6
CONTINUOUS
10
-0.017078
20
0.059768
30
0.0
11
-0.017078
21
0.057373
31
0.0
0
LINE
8
0
6
CONTINUOUS
10
-0.004756
20
0.105401
30
0.0
11
-0.004756
21
0.095843
31
0.0
0
LINE
8
0
6
CONTINUOUS
10
-0.001820
20
0.100839
30
0.0
11
-0.001820
21
0.091184
31
0.0
0
LINE
8
0
6
CONTINUOUS
10
0.004756
20
0.095843
30
0.0
11
0.004756
21
0.105401
31
0.0
0
LINE
8
0
6
CONTINUOUS
10
-0.000000
20
0.100463
30
0.0
11
-0.000000
21
0.090830
31
0.0
0
LINE
8
0
6
CONTINUOUS
10
0.001820
20
0.091184
30
0.0
11
0.001820
21
0.100839
31
0.0
0
LINE
8
0
6
CONTINUOUS
10
0.004394
20
0.107453
30
0.0
11
0.003940
21
0.108159
31
0.0
0
LINE
8
0
6
CONTINUOUS
10
0.002695
20
0.109518
30
0.0
11
0.001820
21
0.110124
31
0.0
0
LINE
8
0
6
CONTINUOUS
10
-0.001820
20
0.110124
30
0.0
11
-0.002695
21
0.109518
31
0.0
0
LINE
8
0
6
CONTINUOUS
10
-0.003940
20
0.108159
30
0.0
11
-0.004394
21
0.107453
31
0.0
0
LINE
8
0
6
CONTINUOUS
10
0.003363
20
0.109054
30
0.0
11
0.002695
21
0.109518
31
0.0
0
LINE
8
0
6
CONTINUOUS
10
0.003940
20
0.108159
30
0.0
11
0.003363
21
0.109054
31
0.0
0
LINE
8
0
6
CONTINUOUS
10
-0.002695
20
0.109518
30
0.0
11
-0.003363
21
0.109054
31
0.0
0
LINE
8
0
6
CONTINUOUS
10
-0.003363
20
0.109054
30
0.0
11
-0.003940
21
0.108159
31
0.0
0
LINE
8
0
6
CONTINUOUS
10
0.004756
20
0.105564
30
0.0
11
0.004394
21
0.107453
31
0.0
0
LINE
8
0
6
CONTINUOUS
10
0.001820
20
0.110124
30
0.0
11
-0.000000
21
0.110500
31
0.0
0
LINE
8
0
6
CONTINUOUS
10
-0.004394
20
0.107453
30
0.0
11
-0.004756
21
0.105564
31
0.0
0
LINE
8
0
6
CONTINUOUS
10
-0.000000
20
0.110500
30
0.0
11
-0.001820
21
0.110124
31
0.0
0
LINE
8
0
6
CONTINUOUS
10
-0.018866
20
0.080288
30
0.0
11
-0.018866
21
0.059768
31
0.0
0
LINE
8
0
6
CONTINUOUS
10
-0.018866
20
0.096042
30
0.0
11
-0.018866
21
0.094093
31
0.0
0
LINE
8
0
6
CONTINUOUS
10
0.004558
20
0.091493
30
0.0
11
0.003646
21
0.089526
31
0.0
0
LINE
8
0
6
CONTINUOUS
10
0.013357
20
0.096900
30
0.0
11
0.009357
21
0.096900
31
0.0
0
LINE
8
0
6
CONTINUOUS
10
0.018186
20
0.096900
30
0.0
11
0.016375
21
0.096900
31
0.0
0
LINE
8
0
6
CONTINUOUS
10
0.016375
20
0.096900
30
0.0
11
0.013357
21
0.096900
31
0.0
0
LINE
8
0
6
CONTINUOUS
10
0.018866
20
0.096900
30
0.0
11
0.018186
21
0.096900
31
0.0
0
LINE
8
0
6
CONTINUOUS
10
0.018866
20
0.096042
30
0.0
11
0.018866
21
0.096900
31
0.0
0
LINE
8
0
6
CONTINUOUS
10
-0.009357
20
0.096900
30
0.0
11
-0.013357
21
0.096900
31
0.0
0
LINE
8
0
6
CONTINUOUS
10
-0.016375
20
0.096900
30
0.0
11
-0.018186
21
0.096900
31
0.0
0
LINE
8
0
6
CONTINUOUS
10
-0.013357
20
0.096900
30
0.0
11
-0.016375
21
0.096900
31
0.0
0
LINE
8
0
6
CONTINUOUS
10
-0.018866
20
0.096900
30
0.0
11
-0.018866
21
0.096042
31
0.0
0
LINE
8
0
6
CONTINUOUS
10
-0.018186
20
0.096900
30
0.0
11
-0.018866
21
0.096900
31
0.0
0
LINE
8
0
6
CONTINUOUS
10
-0.003363
20
0.090096
30
0.0
11
-0.002408
21
0.087492
31
0.0
0
LINE
8
0
6
CONTINUOUS
10
-0.003363
20
0.090096
30
0.0
11
-0.001820
21
0.088943
31
0.0
0
LINE
8
0
6
CONTINUOUS
10
0.004805
20
0.095699
30
0.0
11
0.005703
21
0.094938
31
0.0
0
LINE
8
0
6
CONTINUOUS
10
-0.003300
20
0.085552
30
0.0
11
-0.004276
21
0.083836
31
0.0
0
LINE
8
0
6
CONTINUOUS
10
0.002408
20
0.087492
30
0.0
11
0.003300
21
0.085552
31
0.0
0
LINE
8
0
6
CONTINUOUS
10
0.005031
20
0.082651
30
0.0
11
0.004276
21
0.083836
31
0.0
0
LINE
8
0
6
CONTINUOUS
10
0.006813
20
0.096900
30
0.0
11
0.005967
21
0.096900
31
0.0
0
LINE
8
0
6
CONTINUOUS
10
0.003363
20
0.090096
30
0.0
11
0.002408
21
0.087492
31
0.0
0
LINE
8
0
6
CONTINUOUS
10
0.002408
20
0.087492
30
0.0
11
0.003646
21
0.089526
31
0.0
0
LINE
8
0
6
CONTINUOUS
10
0.001820
20
0.090444
30
0.0
11
0.001820
21
0.091184
31
0.0
0
LINE
8
0
6
CONTINUOUS
10
0.004756
20
0.095110
30
0.0
11
0.004756
21
0.095843
31
0.0
0
LINE
8
0
6
CONTINUOUS
10
0.018866
20
0.094093
30
0.0
11
0.018866
21
0.096042
31
0.0
0
LINE
8
0
6
CONTINUOUS
10
0.018866
20
0.080288
30
0.0
11
0.018866
21
0.082865
31
0.0
0
LINE
8
0
6
CONTINUOUS
10
0.018866
20
0.082865
30
0.0
11
0.018866
21
0.085672
31
0.0
0
LINE
8
0
6
CONTINUOUS
10
0.018866
20
0.091286
30
0.0
11
0.018866
21
0.094093
31
0.0
0
LINE
8
0
6
CONTINUOUS
10
0.018866
20
0.085672
30
0.0
11
0.018866
21
0.088479
31
0.0
0
LINE
8
0
6
CONTINUOUS
10
0.018866
20
0.088479
30
0.0
11
0.018866
21
0.091286
31
0.0
0
LINE
8
0
6
CONTINUOUS
10
0.001820
20
0.101003
30
0.0
11
-0.000000
21
0.100627
31
0.0
0
LINE
8
0
6
CONTINUOUS
10
0.001820
20
0.101003
30
0.0
11
0.001820
21
0.100839
31
0.0
0
LINE
8
0
6
CONTINUOUS
10
0.003363
20
0.102073
30
0.0
11
0.001820
21
0.101003
31
0.0
0
LINE
8
0
6
CONTINUOUS
10
-0.003300
20
0.085552
30
0.0
11
-0.002408
21
0.087492
31
0.0
0
LINE
8
0
6
CONTINUOUS
10
0.004394
20
0.103675
30
0.0
11
0.003363
21
0.102073
31
0.0
0
LINE
8
0
6
CONTINUOUS
10
0.004276
20
0.083836
30
0.0
11
0.003300
21
0.085552
31
0.0
0
LINE
8
0
6
CONTINUOUS
10
0.004756
20
0.105564
30
0.0
11
0.004394
21
0.103675
31
0.0
0
LINE
8
0
6
CONTINUOUS
10
0.004756
20
0.105401
30
0.0
11
0.004756
21
0.105564
31
0.0
0
LINE
8
0
6
CONTINUOUS
10
0.004756
20
0.093975
30
0.0
11
0.004756
21
0.095110
31
0.0
0
LINE
8
0
6
CONTINUOUS
10
0.009357
20
0.096900
30
0.0
11
0.006813
21
0.096900
31
0.0
0
LINE
8
0
6
CONTINUOUS
10
-0.000000
20
0.090091
30
0.0
11
-0.000000
21
0.090830
31
0.0
0
LINE
8
0
6
CONTINUOUS
10
-0.001820
20
0.091184
30
0.0
11
-0.001820
21
0.090444
31
0.0
0
LINE
8
0
6
CONTINUOUS
10
-0.004756
20
0.095843
30
0.0
11
-0.004756
21
0.095110
31
0.0
0
LINE
8
0
6
CONTINUOUS
10
-0.005967
20
0.096900
30
0.0
11
-0.006813
21
0.096900
31
0.0
0
LINE
8
0
6
CONTINUOUS
10
-0.006813
20
0.096900
30
0.0
11
-0.009357
21
0.096900
31
0.0
0
LINE
8
0
6
CONTINUOUS
10
-0.004961
20
0.097094
30
0.0
11
-0.005967
21
0.096900
31
0.0
0
LINE
8
0
6
CONTINUOUS
10
0.005967
20
0.096900
30
0.0
11
0.004961
21
0.097094
31
0.0
0
LINE
8
0
6
CONTINUOUS
10
-0.018866
20
0.082865
30
0.0
11
-0.018866
21
0.080288
31
0.0
0
LINE
8
0
6
CONTINUOUS
10
-0.018866
20
0.085672
30
0.0
11
-0.018866
21
0.082865
31
0.0
0
LINE
8
0
6
CONTINUOUS
10
0.001820
20
0.088943
30
0.0
11
0.003363
21
0.090096
31
0.0
0
LINE
8
0
6
CONTINUOUS
10
-0.000000
20
0.088579
30
0.0
11
-0.000000
21
0.090091
31
0.0
0
LINE
8
0
6
CONTINUOUS
10
-0.018866
20
0.094093
30
0.0
11
-0.018866
21
0.091286
31
0.0
0
LINE
8
0
6
CONTINUOUS
10
-0.000000
20
0.088579
30
0.0
11
-0.000000
21
0.087448
31
0.0
0
LINE
8
0
6
CONTINUOUS
10
-0.004756
20
0.095110
30
0.0
11
-0.004756
21
0.093975
31
0.0
0
LINE
8
0
6
CONTINUOUS
10
-0.018866
20
0.088479
30
0.0
11
-0.018866
21
0.085672
31
0.0
0
LINE
8
0
6
CONTINUOUS
10
-0.018866
20
0.091286
30
0.0
11
-0.018866
21
0.088479
31
0.0
0
LINE
8
0
6
CONTINUOUS
10
-0.000000
20
0.100627
30
0.0
11
-0.001820
21
0.101003
31
0.0
0
LINE
8
0
6
CONTINUOUS
10
-0.000000
20
0.100463
30
0.0
11
-0.000000
21
0.100627
31
0.0
0
LINE
8
0
6
CONTINUOUS
10
-0.001820
20
0.101003
30
0.0
11
-0.003363
21
0.102073
31
0.0
0
LINE
8
0
6
CONTINUOUS
10
-0.001820
20
0.100839
30
0.0
11
-0.001820
21
0.101003
31
0.0
0
LINE
8
0
6
CONTINUOUS
10
-0.005031
20
0.082651
30
0.0
11
-0.004276
21
0.083836
31
0.0
0
LINE
8
0
6
CONTINUOUS
10
-0.003363
20
0.102073
30
0.0
11
-0.004394
21
0.103675
31
0.0
0
LINE
8
0
6
CONTINUOUS
10
-0.004756
20
0.105564
30
0.0
11
-0.004756
21
0.105401
31
0.0
0
LINE
8
0
6
CONTINUOUS
10
-0.004394
20
0.103675
30
0.0
11
-0.004756
21
0.105564
31
0.0
0
LINE
8
0
6
CONTINUOUS
10
0.018866
20
0.059768
30
0.0
11
0.018866
21
0.080288
31
0.0
0
LINE
8
0
6
CONTINUOUS
10
0.011283
20
-0.004436
30
0.0
11
0.011731
21
-0.006373
31
0.0
0
LINE
8
0
6
CONTINUOUS
10
0.011731
20
-0.006373
30
0.0
11
0.011863
21
-0.006947
31
0.0
0
LINE
8
0
6
CONTINUOUS
10
-0.006973
20
-0.000373
30
0.0
11
-0.003666
21
0.000781
31
0.0
0
LINE
8
0
6
CONTINUOUS
10
-0.009598
20
-0.002171
30
0.0
11
-0.011283
21
-0.004436
31
0.0
0
LINE
8
0
6
CONTINUOUS
10
0.006973
20
-0.000373
30
0.0
11
0.009134
21
-0.001853
31
0.0
0
LINE
8
0
6
CONTINUOUS
10
0.009134
20
-0.001853
30
0.0
11
0.009598
21
-0.002171
31
0.0
0
LINE
8
0
6
CONTINUOUS
10
-0.009134
20
-0.001854
30
0.0
11
-0.006973
21
-0.000373
31
0.0
0
LINE
8
0
6
CONTINUOUS
10
0.009598
20
-0.002171
30
0.0
11
0.011283
21
-0.004436
31
0.0
0
ENDSEC
0
EOF
