999
Erzeugt mit innoplus bad 
0
SECTION
2
HEADER
9
$ACADVER
1
AC1009
9
$DWGCODEPAGE
3
ISO8859-1
0
ENDSEC
0
SECTION
2
TABLES
0
TABLE
2
LAYER
70
1
0
LAYER
2
0
70
0
62
7
6
CONTINUOUS
0
ENDTAB
0
ENDSEC
0
SECTION
2
ENTITIES
0
LINE
8
0
6
CONTINUOUS
10
-0.003666
20
-0.062044
30
0.0
11
-0.000000
21
-0.062472
31
0.0
0
LINE
8
0
6
CONTINUOUS
10
-0.000000
20
-0.062472
30
0.0
11
0.003666
21
-0.062044
31
0.0
0
LINE
8
0
6
CONTINUOUS
10
0.003666
20
-0.062044
30
0.0
11
0.006973
21
-0.060804
31
0.0
0
LINE
8
0
6
CONTINUOUS
10
-0.006973
20
-0.060804
30
0.0
11
-0.003666
21
-0.062044
31
0.0
0
LINE
8
0
6
CONTINUOUS
10
0.016252
20
0.026738
30
0.0
11
0.016657
21
0.028769
31
0.0
0
LINE
8
0
6
CONTINUOUS
10
0.016657
20
0.028769
30
0.0
11
0.016923
21
0.029501
31
0.0
0
LINE
8
0
6
CONTINUOUS
10
-0.016657
20
0.028769
30
0.0
11
-0.016252
21
0.026738
31
0.0
0
LINE
8
0
6
CONTINUOUS
10
-0.016984
20
0.029667
30
0.0
11
-0.016923
21
0.029501
31
0.0
0
LINE
8
0
6
CONTINUOUS
10
-0.013964
20
0.026448
30
0.0
11
-0.013444
21
0.026030
31
0.0
0
LINE
8
0
6
CONTINUOUS
10
0.016225
20
0.024743
30
0.0
11
0.016252
21
0.026738
31
0.0
0
LINE
8
0
6
CONTINUOUS
10
0.013443
20
0.026030
30
0.0
11
0.013964
21
0.026448
31
0.0
0
LINE
8
0
6
CONTINUOUS
10
0.022216
20
0.045423
30
0.0
11
0.019919
21
0.050970
31
0.0
0
LINE
8
0
6
CONTINUOUS
10
0.016263
20
0.055734
30
0.0
11
0.011500
21
0.059390
31
0.0
0
LINE
8
0
6
CONTINUOUS
10
0.022216
20
0.033516
30
0.0
11
0.023000
21
0.039469
31
0.0
0
LINE
8
0
6
CONTINUOUS
10
0.005953
20
0.061688
30
0.0
11
-0.000000
21
0.062472
31
0.0
0
LINE
8
0
6
CONTINUOUS
10
0.016263
20
0.023204
30
0.0
11
0.019919
21
0.027968
31
0.0
0
LINE
8
0
6
CONTINUOUS
10
0.023000
20
0.039469
30
0.0
11
0.022216
21
0.045423
31
0.0
0
LINE
8
0
6
CONTINUOUS
10
0.019919
20
0.050970
30
0.0
11
0.016263
21
0.055734
31
0.0
0
LINE
8
0
6
CONTINUOUS
10
0.011500
20
0.059390
30
0.0
11
0.005953
21
0.061688
31
0.0
0
LINE
8
0
6
CONTINUOUS
10
0.019919
20
0.027968
30
0.0
11
0.022216
21
0.033516
31
0.0
0
LINE
8
0
6
CONTINUOUS
10
-0.019919
20
0.050970
30
0.0
11
-0.022216
21
0.045423
31
0.0
0
LINE
8
0
6
CONTINUOUS
10
-0.011500
20
0.059390
30
0.0
11
-0.016263
21
0.055734
31
0.0
0
LINE
8
0
6
CONTINUOUS
10
-0.023000
20
0.039469
30
0.0
11
-0.022216
21
0.033516
31
0.0
0
LINE
8
0
6
CONTINUOUS
10
-0.000000
20
0.062472
30
0.0
11
-0.005953
21
0.061688
31
0.0
0
LINE
8
0
6
CONTINUOUS
10
-0.019919
20
0.027968
30
0.0
11
-0.016263
21
0.023204
31
0.0
0
LINE
8
0
6
CONTINUOUS
10
-0.022216
20
0.045423
30
0.0
11
-0.023000
21
0.039469
31
0.0
0
LINE
8
0
6
CONTINUOUS
10
-0.016263
20
0.055734
30
0.0
11
-0.019919
21
0.050970
31
0.0
0
LINE
8
0
6
CONTINUOUS
10
-0.005953
20
0.061688
30
0.0
11
-0.011500
21
0.059390
31
0.0
0
LINE
8
0
6
CONTINUOUS
10
-0.022216
20
0.033516
30
0.0
11
-0.019919
21
0.027968
31
0.0
0
LINE
8
0
6
CONTINUOUS
10
0.018353
20
0.034556
30
0.0
11
0.016454
21
0.029973
31
0.0
0
LINE
8
0
6
CONTINUOUS
10
0.016454
20
0.048973
30
0.0
11
0.018353
21
0.044391
31
0.0
0
LINE
8
0
6
CONTINUOUS
10
0.013435
20
0.026038
30
0.0
11
0.009500
21
0.023019
31
0.0
0
LINE
8
0
6
CONTINUOUS
10
0.009504
20
0.023013
30
0.0
11
0.013443
21
0.026030
31
0.0
0
LINE
8
0
6
CONTINUOUS
10
0.009500
20
0.055928
30
0.0
11
0.013435
21
0.052908
31
0.0
0
LINE
8
0
6
CONTINUOUS
10
0.004918
20
0.057826
30
0.0
11
0.009500
21
0.055928
31
0.0
0
LINE
8
0
6
CONTINUOUS
10
0.018353
20
0.034556
30
0.0
11
0.019000
21
0.039473
31
0.0
0
LINE
8
0
6
CONTINUOUS
10
0.018353
20
0.044391
30
0.0
11
0.019000
21
0.039473
31
0.0
0
LINE
8
0
6
CONTINUOUS
10
0.016454
20
0.029973
30
0.0
11
0.013435
21
0.026038
31
0.0
0
LINE
8
0
6
CONTINUOUS
10
-0.000000
20
0.058473
30
0.0
11
0.004918
21
0.057826
31
0.0
0
LINE
8
0
6
CONTINUOUS
10
0.013435
20
0.052908
30
0.0
11
0.016454
21
0.048973
31
0.0
0
LINE
8
0
6
CONTINUOUS
10
-0.018353
20
0.034556
30
0.0
11
-0.016454
21
0.029973
31
0.0
0
LINE
8
0
6
CONTINUOUS
10
-0.016454
20
0.048973
30
0.0
11
-0.018353
21
0.044391
31
0.0
0
LINE
8
0
6
CONTINUOUS
10
-0.013435
20
0.026038
30
0.0
11
-0.009500
21
0.023019
31
0.0
0
LINE
8
0
6
CONTINUOUS
10
-0.009500
20
0.055928
30
0.0
11
-0.013435
21
0.052908
31
0.0
0
LINE
8
0
6
CONTINUOUS
10
-0.004918
20
0.057826
30
0.0
11
-0.009500
21
0.055928
31
0.0
0
LINE
8
0
6
CONTINUOUS
10
-0.018353
20
0.034556
30
0.0
11
-0.019000
21
0.039473
31
0.0
0
LINE
8
0
6
CONTINUOUS
10
-0.018353
20
0.044391
30
0.0
11
-0.019000
21
0.039473
31
0.0
0
LINE
8
0
6
CONTINUOUS
10
-0.016454
20
0.029973
30
0.0
11
-0.013435
21
0.026038
31
0.0
0
LINE
8
0
6
CONTINUOUS
10
-0.000000
20
0.058473
30
0.0
11
-0.004918
21
0.057826
31
0.0
0
LINE
8
0
6
CONTINUOUS
10
-0.013435
20
0.052908
30
0.0
11
-0.016454
21
0.048973
31
0.0
0
LINE
8
0
6
CONTINUOUS
10
0.015202
20
-0.050158
30
0.0
11
0.015225
21
-0.049176
31
0.0
0
LINE
8
0
6
CONTINUOUS
10
0.013732
20
-0.055060
30
0.0
11
0.015202
21
-0.050158
31
0.0
0
LINE
8
0
6
CONTINUOUS
10
-0.000000
20
-0.062067
30
0.0
11
0.005620
21
-0.061200
31
0.0
0
LINE
8
0
6
CONTINUOUS
10
0.005620
20
-0.061200
30
0.0
11
0.010411
21
-0.058753
31
0.0
0
LINE
8
0
6
CONTINUOUS
10
0.010411
20
-0.058753
30
0.0
11
0.013732
21
-0.055060
31
0.0
0
LINE
8
0
6
CONTINUOUS
10
-0.015202
20
-0.050158
30
0.0
11
-0.013732
21
-0.055060
31
0.0
0
LINE
8
0
6
CONTINUOUS
10
-0.015225
20
-0.049176
30
0.0
11
-0.015202
21
-0.050158
31
0.0
0
LINE
8
0
6
CONTINUOUS
10
-0.005620
20
-0.061200
30
0.0
11
-0.000000
21
-0.062067
31
0.0
0
LINE
8
0
6
CONTINUOUS
10
-0.010411
20
-0.058753
30
0.0
11
-0.005620
21
-0.061200
31
0.0
0
LINE
8
0
6
CONTINUOUS
10
-0.013732
20
-0.055060
30
0.0
11
-0.010411
21
-0.058753
31
0.0
0
LINE
8
0
6
CONTINUOUS
10
0.013635
20
0.024931
30
0.0
11
0.013532
21
0.025941
31
0.0
0
LINE
8
0
6
CONTINUOUS
10
0.013732
20
0.022335
30
0.0
11
0.013635
21
0.024931
31
0.0
0
LINE
8
0
6
CONTINUOUS
10
-0.016150
20
0.019199
30
0.0
11
-0.015225
21
-0.049176
31
0.0
0
LINE
8
0
6
CONTINUOUS
10
-0.016225
20
0.024743
30
0.0
11
-0.016199
21
0.022798
31
0.0
0
LINE
8
0
6
CONTINUOUS
10
-0.013796
20
0.018840
30
0.0
11
-0.013732
21
0.022335
31
0.0
0
LINE
8
0
6
CONTINUOUS
10
0.016150
20
0.019199
30
0.0
11
0.016199
21
0.022798
31
0.0
0
LINE
8
0
6
CONTINUOUS
10
0.016923
20
0.029501
30
0.0
11
0.016984
21
0.029667
31
0.0
0
LINE
8
0
6
CONTINUOUS
10
0.013732
20
0.022335
30
0.0
11
0.013796
21
0.018840
31
0.0
0
LINE
8
0
6
CONTINUOUS
10
0.016199
20
0.022798
30
0.0
11
0.016225
21
0.024743
31
0.0
0
LINE
8
0
6
CONTINUOUS
10
-0.016923
20
0.029501
30
0.0
11
-0.016657
21
0.028769
31
0.0
0
LINE
8
0
6
CONTINUOUS
10
-0.013532
20
0.025941
30
0.0
11
-0.013635
21
0.024931
31
0.0
0
LINE
8
0
6
CONTINUOUS
10
0.015225
20
-0.049176
30
0.0
11
0.016150
21
0.019199
31
0.0
0
LINE
8
0
6
CONTINUOUS
10
0.013793
20
0.015193
30
0.0
11
0.013796
21
0.018840
31
0.0
0
LINE
8
0
6
CONTINUOUS
10
-0.013444
20
0.026030
30
0.0
11
-0.009527
21
0.022972
31
0.0
0
LINE
8
0
6
CONTINUOUS
10
-0.016199
20
0.022798
30
0.0
11
-0.016150
21
0.019199
31
0.0
0
LINE
8
0
6
CONTINUOUS
10
-0.013793
20
0.015193
30
0.0
11
-0.013796
21
0.018840
31
0.0
0
LINE
8
0
6
CONTINUOUS
10
-0.016252
20
0.026738
30
0.0
11
-0.016225
21
0.024743
31
0.0
0
LINE
8
0
6
CONTINUOUS
10
-0.013732
20
0.022335
30
0.0
11
-0.013635
21
0.024931
31
0.0
0
LINE
8
0
6
CONTINUOUS
10
0.004756
20
-0.027848
30
0.0
11
0.004756
21
-0.027290
31
0.0
0
LINE
8
0
6
CONTINUOUS
10
-0.004756
20
0.012009
30
0.0
11
-0.004756
21
-0.027290
31
0.0
0
LINE
8
0
6
CONTINUOUS
10
-0.001820
20
-0.026132
30
0.0
11
-0.001820
21
-0.026690
31
0.0
0
LINE
8
0
6
CONTINUOUS
10
0.004394
20
-0.027369
30
0.0
11
0.003940
21
-0.027190
31
0.0
0
LINE
8
0
6
CONTINUOUS
10
0.002695
20
-0.026844
30
0.0
11
0.001820
21
-0.026690
31
0.0
0
LINE
8
0
6
CONTINUOUS
10
-0.001820
20
-0.026690
30
0.0
11
-0.002695
21
-0.026844
31
0.0
0
LINE
8
0
6
CONTINUOUS
10
-0.003940
20
-0.027190
30
0.0
11
-0.004394
21
-0.027369
31
0.0
0
LINE
8
0
6
CONTINUOUS
10
0.003363
20
-0.026962
30
0.0
11
0.002695
21
-0.026844
31
0.0
0
LINE
8
0
6
CONTINUOUS
10
-0.003363
20
-0.026962
30
0.0
11
-0.003940
21
-0.027190
31
0.0
0
LINE
8
0
6
CONTINUOUS
10
-0.000000
20
-0.029094
30
0.0
11
0.001820
21
-0.028999
31
0.0
0
LINE
8
0
6
CONTINUOUS
10
0.001820
20
-0.028999
30
0.0
11
0.003363
21
-0.028729
31
0.0
0
LINE
8
0
6
CONTINUOUS
10
0.003363
20
-0.028729
30
0.0
11
0.004394
21
-0.028325
31
0.0
0
LINE
8
0
6
CONTINUOUS
10
0.004394
20
-0.028325
30
0.0
11
0.004756
21
-0.027848
31
0.0
0
LINE
8
0
6
CONTINUOUS
10
0.004756
20
-0.027848
30
0.0
11
0.004394
21
-0.027369
31
0.0
0
LINE
8
0
6
CONTINUOUS
10
-0.001820
20
-0.028999
30
0.0
11
-0.000000
21
-0.029094
31
0.0
0
LINE
8
0
6
CONTINUOUS
10
-0.003363
20
-0.028729
30
0.0
11
-0.001820
21
-0.028999
31
0.0
0
LINE
8
0
6
CONTINUOUS
10
-0.004394
20
-0.028325
30
0.0
11
-0.003363
21
-0.028729
31
0.0
0
LINE
8
0
6
CONTINUOUS
10
-0.004756
20
-0.027848
30
0.0
11
-0.004394
21
-0.028325
31
0.0
0
LINE
8
0
6
CONTINUOUS
10
-0.000000
20
-0.026595
30
0.0
11
-0.001820
21
-0.026690
31
0.0
0
LINE
8
0
6
CONTINUOUS
10
-0.005030
20
0.018913
30
0.0
11
-0.004756
21
0.017902
31
0.0
0
LINE
8
0
6
CONTINUOUS
10
0.003363
20
-0.026962
30
0.0
11
0.003940
21
-0.027190
31
0.0
0
LINE
8
0
6
CONTINUOUS
10
-0.003363
20
-0.026962
30
0.0
11
-0.002695
21
-0.026844
31
0.0
0
LINE
8
0
6
CONTINUOUS
10
0.003959
20
0.019039
30
0.0
11
0.004961
21
0.020311
31
0.0
0
LINE
8
0
6
CONTINUOUS
10
0.006525
20
0.021340
30
0.0
11
0.007216
21
0.021897
31
0.0
0
LINE
8
0
6
CONTINUOUS
10
0.005030
20
0.018913
30
0.0
11
0.005776
21
0.020344
31
0.0
0
LINE
8
0
6
CONTINUOUS
10
0.003399
20
0.012410
30
0.0
11
0.003401
21
0.015220
31
0.0
0
LINE
8
0
6
CONTINUOUS
10
0.018186
20
0.044301
30
0.0
11
0.016375
21
0.048829
31
0.0
0
LINE
8
0
6
CONTINUOUS
10
0.009357
20
0.023096
30
0.0
11
0.013357
21
0.026115
31
0.0
0
LINE
8
0
6
CONTINUOUS
10
0.016375
20
0.030114
30
0.0
11
0.018186
21
0.034642
31
0.0
0
LINE
8
0
6
CONTINUOUS
10
0.013357
20
0.026115
30
0.0
11
0.016375
21
0.030114
31
0.0
0
LINE
8
0
6
CONTINUOUS
10
0.016375
20
0.048829
30
0.0
11
0.013357
21
0.052829
31
0.0
0
LINE
8
0
6
CONTINUOUS
10
0.004830
20
0.057658
30
0.0
11
-0.000000
21
0.058337
31
0.0
0
LINE
8
0
6
CONTINUOUS
10
0.009357
20
0.055847
30
0.0
11
0.004830
21
0.057658
31
0.0
0
LINE
8
0
6
CONTINUOUS
10
0.013357
20
0.052829
30
0.0
11
0.009357
21
0.055847
31
0.0
0
LINE
8
0
6
CONTINUOUS
10
0.018186
20
0.034642
30
0.0
11
0.018866
21
0.039472
31
0.0
0
LINE
8
0
6
CONTINUOUS
10
0.018866
20
0.039472
30
0.0
11
0.018186
21
0.044301
31
0.0
0
LINE
8
0
6
CONTINUOUS
10
0.003363
20
-0.026404
30
0.0
11
0.003399
21
0.012410
31
0.0
0
LINE
8
0
6
CONTINUOUS
10
-0.009357
20
0.023096
30
0.0
11
-0.006813
21
0.021848
31
0.0
0
LINE
8
0
6
CONTINUOUS
10
-0.003399
20
0.012410
30
0.0
11
-0.003401
21
0.015220
31
0.0
0
LINE
8
0
6
CONTINUOUS
10
-0.016375
20
0.048829
30
0.0
11
-0.018186
21
0.044301
31
0.0
0
LINE
8
0
6
CONTINUOUS
10
-0.013357
20
0.026115
30
0.0
11
-0.009357
21
0.023096
31
0.0
0
LINE
8
0
6
CONTINUOUS
10
-0.018186
20
0.034642
30
0.0
11
-0.016375
21
0.030114
31
0.0
0
LINE
8
0
6
CONTINUOUS
10
-0.016375
20
0.030114
30
0.0
11
-0.013357
21
0.026115
31
0.0
0
LINE
8
0
6
CONTINUOUS
10
-0.013357
20
0.052829
30
0.0
11
-0.016375
21
0.048829
31
0.0
0
LINE
8
0
6
CONTINUOUS
10
-0.000000
20
0.058337
30
0.0
11
-0.004830
21
0.057658
31
0.0
0
LINE
8
0
6
CONTINUOUS
10
-0.004830
20
0.057658
30
0.0
11
-0.009357
21
0.055847
31
0.0
0
LINE
8
0
6
CONTINUOUS
10
-0.009357
20
0.055847
30
0.0
11
-0.013357
21
0.052829
31
0.0
0
LINE
8
0
6
CONTINUOUS
10
-0.018866
20
0.039472
30
0.0
11
-0.018186
21
0.034642
31
0.0
0
LINE
8
0
6
CONTINUOUS
10
-0.018186
20
0.044301
30
0.0
11
-0.018866
21
0.039472
31
0.0
0
LINE
8
0
6
CONTINUOUS
10
-0.004756
20
-0.027848
30
0.0
11
-0.004394
21
-0.027369
31
0.0
0
LINE
8
0
6
CONTINUOUS
10
-0.004756
20
-0.027290
30
0.0
11
-0.004756
21
-0.027848
31
0.0
0
LINE
8
0
6
CONTINUOUS
10
-0.004756
20
0.017902
30
0.0
11
-0.004756
21
0.014851
31
0.0
0
LINE
8
0
6
CONTINUOUS
10
-0.005776
20
0.020344
30
0.0
11
-0.005030
21
0.018913
31
0.0
0
LINE
8
0
6
CONTINUOUS
10
0.005776
20
0.020344
30
0.0
11
0.006482
21
0.021324
31
0.0
0
LINE
8
0
6
CONTINUOUS
10
0.004756
20
0.017902
30
0.0
11
0.005030
21
0.018913
31
0.0
0
LINE
8
0
6
CONTINUOUS
10
0.004805
20
0.019005
30
0.0
11
0.005703
21
0.020379
31
0.0
0
LINE
8
0
6
CONTINUOUS
10
0.005703
20
0.020379
30
0.0
11
0.006525
21
0.021340
31
0.0
0
LINE
8
0
6
CONTINUOUS
10
-0.001820
20
0.014532
30
0.0
11
-0.001820
21
-0.026132
31
0.0
0
LINE
8
0
6
CONTINUOUS
10
-0.007216
20
0.021897
30
0.0
11
-0.006525
21
0.021340
31
0.0
0
LINE
8
0
6
CONTINUOUS
10
0.006813
20
0.021848
30
0.0
11
0.005967
21
0.021250
31
0.0
0
LINE
8
0
6
CONTINUOUS
10
0.004394
20
0.017995
30
0.0
11
0.004805
21
0.019005
31
0.0
0
LINE
8
0
6
CONTINUOUS
10
0.004756
20
0.012009
30
0.0
11
0.004756
21
0.014851
31
0.0
0
LINE
8
0
6
CONTINUOUS
10
0.001820
20
0.014532
30
0.0
11
0.001820
21
0.017467
31
0.0
0
LINE
8
0
6
CONTINUOUS
10
0.004756
20
-0.027290
30
0.0
11
0.004756
21
0.012009
31
0.0
0
LINE
8
0
6
CONTINUOUS
10
-0.000000
20
0.025983
30
0.0
11
-0.000000
21
0.022073
31
0.0
0
LINE
8
0
6
CONTINUOUS
10
-0.004805
20
0.019005
30
0.0
11
-0.004394
21
0.017995
31
0.0
0
LINE
8
0
6
CONTINUOUS
10
0.004756
20
0.014851
30
0.0
11
0.004756
21
0.017902
31
0.0
0
LINE
8
0
6
CONTINUOUS
10
-0.000000
20
0.015206
30
0.0
11
-0.000000
21
-0.026036
31
0.0
0
LINE
8
0
6
CONTINUOUS
10
-0.000000
20
0.018180
30
0.0
11
-0.000000
21
0.022073
31
0.0
0
LINE
8
0
6
CONTINUOUS
10
-0.003363
20
-0.026404
30
0.0
11
-0.003399
21
0.012410
31
0.0
0
LINE
8
0
6
CONTINUOUS
10
-0.003959
20
0.019039
30
0.0
11
-0.004961
21
0.020311
31
0.0
0
LINE
8
0
6
CONTINUOUS
10
-0.006482
20
0.021324
30
0.0
11
-0.005776
21
0.020344
31
0.0
0
LINE
8
0
6
CONTINUOUS
10
-0.009357
20
0.023096
30
0.0
11
-0.007216
21
0.021897
31
0.0
0
LINE
8
0
6
CONTINUOUS
10
-0.006525
20
0.021340
30
0.0
11
-0.005703
21
0.020379
31
0.0
0
LINE
8
0
6
CONTINUOUS
10
0.006935
20
0.021863
30
0.0
11
0.009357
21
0.023096
31
0.0
0
LINE
8
0
6
CONTINUOUS
10
0.009357
20
0.023096
30
0.0
11
0.006813
21
0.021848
31
0.0
0
LINE
8
0
6
CONTINUOUS
10
-0.000000
20
0.029907
30
0.0
11
-0.000000
21
0.025983
31
0.0
0
LINE
8
0
6
CONTINUOUS
10
-0.004756
20
0.014851
30
0.0
11
-0.004756
21
0.012009
31
0.0
0
LINE
8
0
6
CONTINUOUS
10
-0.000000
20
0.015206
30
0.0
11
-0.000000
21
0.018180
31
0.0
0
LINE
8
0
6
CONTINUOUS
10
0.001954
20
0.020033
30
0.0
11
0.001820
21
0.017467
31
0.0
0
LINE
8
0
6
CONTINUOUS
10
-0.005967
20
0.021250
30
0.0
11
-0.006813
21
0.021848
31
0.0
0
LINE
8
0
6
CONTINUOUS
10
-0.009357
20
0.023096
30
0.0
11
-0.006935
21
0.021863
31
0.0
0
LINE
8
0
6
CONTINUOUS
10
-0.004961
20
0.020311
30
0.0
11
-0.005967
21
0.021250
31
0.0
0
LINE
8
0
6
CONTINUOUS
10
0.005967
20
0.021250
30
0.0
11
0.004961
21
0.020311
31
0.0
0
LINE
8
0
6
CONTINUOUS
10
0.007216
20
0.021897
30
0.0
11
0.009357
21
0.023096
31
0.0
0
LINE
8
0
6
CONTINUOUS
10
-0.001820
20
0.014532
30
0.0
11
-0.001820
21
0.017467
31
0.0
0
LINE
8
0
6
CONTINUOUS
10
0.003421
20
0.018008
30
0.0
11
0.003901
21
0.018002
31
0.0
0
LINE
8
0
6
CONTINUOUS
10
0.003959
20
0.019039
30
0.0
11
0.003421
21
0.018008
31
0.0
0
LINE
8
0
6
CONTINUOUS
10
-0.000000
20
0.033850
30
0.0
11
-0.000000
21
0.029907
31
0.0
0
LINE
8
0
6
CONTINUOUS
10
-0.003421
20
0.018008
30
0.0
11
-0.003401
21
0.015220
31
0.0
0
LINE
8
0
6
CONTINUOUS
10
0.001820
20
-0.026690
30
0.0
11
0.001820
21
-0.026132
31
0.0
0
LINE
8
0
6
CONTINUOUS
10
-0.000000
20
-0.026595
30
0.0
11
0.001820
21
-0.026690
31
0.0
0
LINE
8
0
6
CONTINUOUS
10
-0.000000
20
-0.026036
30
0.0
11
-0.000000
21
-0.026595
31
0.0
0
LINE
8
0
6
CONTINUOUS
10
-0.003421
20
0.018008
30
0.0
11
-0.003959
21
0.019039
31
0.0
0
LINE
8
0
6
CONTINUOUS
10
0.001820
20
0.014532
30
0.0
11
0.001820
21
-0.026132
31
0.0
0
ENDSEC
0
EOF
