999
Erzeugt mit innoplus bad 
0
SECTION
2
HEADER
9
$ACADVER
1
AC1009
9
$DWGCODEPAGE
3
ISO8859-1
0
ENDSEC
0
SECTION
2
TABLES
0
TABLE
2
LAYER
70
1
0
LAYER
2
0
70
0
62
7
6
CONTINUOUS
0
ENDTAB
0
ENDSEC
0
SECTION
2
ENTITIES
0
LINE
8
0
6
CONTINUOUS
10
0.057716
20
-0.056326
30
0.0
11
0.058129
21
-0.055634
31
0.0
0
LINE
8
0
6
CONTINUOUS
10
0.063195
20
-0.054081
30
0.0
11
0.060015
21
-0.054302
31
0.0
0
LINE
8
0
6
CONTINUOUS
10
0.060750
20
-0.054482
30
0.0
11
0.064585
21
-0.054341
31
0.0
0
LINE
8
0
6
CONTINUOUS
10
0.067145
20
-0.054003
30
0.0
11
0.065057
21
-0.054090
31
0.0
0
LINE
8
0
6
CONTINUOUS
10
0.059590
20
-0.053716
30
0.0
11
0.063008
21
-0.054003
31
0.0
0
LINE
8
0
6
CONTINUOUS
10
0.057983
20
-0.055584
30
0.0
11
0.058543
21
-0.055303
31
0.0
0
LINE
8
0
6
CONTINUOUS
10
0.057340
20
-0.054795
30
0.0
11
0.056754
21
-0.055171
31
0.0
0
LINE
8
0
6
CONTINUOUS
10
0.064592
20
-0.052060
30
0.0
11
0.061022
21
-0.051612
31
0.0
0
LINE
8
0
6
CONTINUOUS
10
0.055938
20
-0.056326
30
0.0
11
0.056207
21
-0.055634
31
0.0
0
LINE
8
0
6
CONTINUOUS
10
0.055696
20
-0.057026
30
0.0
11
0.055938
21
-0.056326
31
0.0
0
LINE
8
0
6
CONTINUOUS
10
0.056754
20
-0.055171
30
0.0
11
0.056207
21
-0.055634
31
0.0
0
LINE
8
0
6
CONTINUOUS
10
0.057111
20
-0.053878
30
0.0
11
0.059590
21
-0.053716
31
0.0
0
LINE
8
0
6
CONTINUOUS
10
0.057462
20
-0.052316
30
0.0
11
0.056251
21
-0.052999
31
0.0
0
LINE
8
0
6
CONTINUOUS
10
0.056251
20
-0.052999
30
0.0
11
0.055132
21
-0.053903
31
0.0
0
LINE
8
0
6
CONTINUOUS
10
0.055132
20
-0.053903
30
0.0
11
0.054279
21
-0.055012
31
0.0
0
LINE
8
0
6
CONTINUOUS
10
0.054279
20
-0.055012
30
0.0
11
0.053611
21
-0.055882
31
0.0
0
LINE
8
0
6
CONTINUOUS
10
0.057194
20
-0.052613
30
0.0
11
0.059498
21
-0.052111
31
0.0
0
LINE
8
0
6
CONTINUOUS
10
0.066278
20
-0.052060
30
0.0
11
0.064592
21
-0.052060
31
0.0
0
LINE
8
0
6
CONTINUOUS
10
0.066139
20
-0.054003
30
0.0
11
0.067145
21
-0.054003
31
0.0
0
LINE
8
0
6
CONTINUOUS
10
0.064817
20
-0.054003
30
0.0
11
0.065553
21
-0.054003
31
0.0
0
LINE
8
0
6
CONTINUOUS
10
0.064838
20
-0.052551
30
0.0
11
0.065684
21
-0.052551
31
0.0
0
LINE
8
0
6
CONTINUOUS
10
0.066830
20
-0.054355
30
0.0
11
0.065057
21
-0.054090
31
0.0
0
LINE
8
0
6
CONTINUOUS
10
0.064585
20
-0.054341
30
0.0
11
0.066830
21
-0.054355
31
0.0
0
LINE
8
0
6
CONTINUOUS
10
0.067185
20
-0.052060
30
0.0
11
0.066278
21
-0.052060
31
0.0
0
LINE
8
0
6
CONTINUOUS
10
0.067185
20
-0.052060
30
0.0
11
0.065918
21
-0.052423
31
0.0
0
LINE
8
0
6
CONTINUOUS
10
0.063018
20
-0.052551
30
0.0
11
0.064838
21
-0.052551
31
0.0
0
LINE
8
0
6
CONTINUOUS
10
0.064817
20
-0.054003
30
0.0
11
0.063008
21
-0.054003
31
0.0
0
LINE
8
0
6
CONTINUOUS
10
0.065553
20
-0.054003
30
0.0
11
0.066139
21
-0.054003
31
0.0
0
LINE
8
0
6
CONTINUOUS
10
0.060015
20
-0.054302
30
0.0
11
0.057340
21
-0.054795
31
0.0
0
LINE
8
0
6
CONTINUOUS
10
0.065918
20
-0.052423
30
0.0
11
0.065684
21
-0.052551
31
0.0
0
LINE
8
0
6
CONTINUOUS
10
0.058631
20
-0.052040
30
0.0
11
0.057462
21
-0.052316
31
0.0
0
LINE
8
0
6
CONTINUOUS
10
0.061022
20
-0.051612
30
0.0
11
0.058631
21
-0.052040
31
0.0
0
LINE
8
0
6
CONTINUOUS
10
0.057462
20
-0.052316
30
0.0
11
0.059598
21
-0.051901
31
0.0
0
LINE
8
0
6
CONTINUOUS
10
0.055001
20
-0.056745
30
0.0
11
0.049599
21
-0.082208
31
0.0
0
LINE
8
0
6
CONTINUOUS
10
0.055696
20
-0.057026
30
0.0
11
0.050053
21
-0.084546
31
0.0
0
LINE
8
0
6
CONTINUOUS
10
0.053611
20
-0.055882
30
0.0
11
0.049707
21
-0.073665
31
0.0
0
LINE
8
0
6
CONTINUOUS
10
0.066830
20
-0.054355
30
0.0
11
0.067506
21
-0.054090
31
0.0
0
LINE
8
0
6
CONTINUOUS
10
0.067145
20
-0.054003
30
0.0
11
0.067506
21
-0.054090
31
0.0
0
LINE
8
0
6
CONTINUOUS
10
0.067506
20
-0.054090
30
0.0
11
0.067827
21
-0.054003
31
0.0
0
LINE
8
0
6
CONTINUOUS
10
0.057350
20
-0.057026
30
0.0
11
0.057716
21
-0.056326
31
0.0
0
LINE
8
0
6
CONTINUOUS
10
0.057983
20
-0.055584
30
0.0
11
0.057510
21
-0.056054
31
0.0
0
LINE
8
0
6
CONTINUOUS
10
0.058129
20
-0.055634
30
0.0
11
0.058621
21
-0.055171
31
0.0
0
LINE
8
0
6
CONTINUOUS
10
0.067145
20
-0.054003
30
0.0
11
0.067827
21
-0.054003
31
0.0
0
LINE
8
0
6
CONTINUOUS
10
0.067917
20
-0.052423
30
0.0
11
0.067185
21
-0.052060
31
0.0
0
LINE
8
0
6
CONTINUOUS
10
0.067877
20
-0.054003
30
0.0
11
0.068028
21
-0.052987
31
0.0
0
LINE
8
0
6
CONTINUOUS
10
0.067827
20
-0.054003
30
0.0
11
0.067877
21
-0.054003
31
0.0
0
LINE
8
0
6
CONTINUOUS
10
0.058543
20
-0.055303
30
0.0
11
0.061728
21
-0.054302
31
0.0
0
LINE
8
0
6
CONTINUOUS
10
0.068028
20
-0.052987
30
0.0
11
0.067987
21
-0.052551
31
0.0
0
LINE
8
0
6
CONTINUOUS
10
0.067987
20
-0.052551
30
0.0
11
0.067917
21
-0.052423
31
0.0
0
LINE
8
0
6
CONTINUOUS
10
0.051367
20
-0.084214
30
0.0
11
0.057350
21
-0.057026
31
0.0
0
LINE
8
0
6
CONTINUOUS
10
0.049367
20
-0.078469
30
0.0
11
0.054004
21
-0.056205
31
0.0
0
LINE
8
0
6
CONTINUOUS
10
-0.063870
20
0.001065
30
0.0
11
-0.067470
21
-0.002857
31
0.0
0
LINE
8
0
6
CONTINUOUS
10
-0.050001
20
-0.018893
30
0.0
11
-0.046599
21
-0.015187
31
0.0
0
LINE
8
0
6
CONTINUOUS
10
-0.067470
20
-0.002857
30
0.0
11
-0.068028
21
-0.003494
31
0.0
0
LINE
8
0
6
CONTINUOUS
10
-0.067601
20
-0.003886
30
0.0
11
-0.068028
21
-0.003494
31
0.0
0
LINE
8
0
6
CONTINUOUS
10
-0.067601
20
-0.003886
30
0.0
11
-0.066360
21
-0.005025
31
0.0
0
LINE
8
0
6
CONTINUOUS
10
-0.066360
20
-0.005025
30
0.0
11
-0.064428
21
-0.006799
31
0.0
0
LINE
8
0
6
CONTINUOUS
10
-0.064428
20
-0.006799
30
0.0
11
-0.061993
21
-0.009034
31
0.0
0
LINE
8
0
6
CONTINUOUS
10
-0.061993
20
-0.009034
30
0.0
11
-0.059294
21
-0.011512
31
0.0
0
LINE
8
0
6
CONTINUOUS
10
-0.056595
20
-0.013990
30
0.0
11
-0.059294
21
-0.011512
31
0.0
0
LINE
8
0
6
CONTINUOUS
10
-0.056595
20
-0.013990
30
0.0
11
-0.054160
21
-0.016225
31
0.0
0
LINE
8
0
6
CONTINUOUS
10
-0.054160
20
-0.016225
30
0.0
11
-0.052227
21
-0.017999
31
0.0
0
LINE
8
0
6
CONTINUOUS
10
-0.050987
20
-0.019137
30
0.0
11
-0.052227
21
-0.017999
31
0.0
0
LINE
8
0
6
CONTINUOUS
10
-0.050559
20
-0.019530
30
0.0
11
-0.050001
21
-0.018893
31
0.0
0
LINE
8
0
6
CONTINUOUS
10
-0.050559
20
-0.019530
30
0.0
11
-0.050987
21
-0.019137
31
0.0
0
LINE
8
0
6
CONTINUOUS
10
0.054210
20
-0.009721
30
0.0
11
0.053776
21
0.007887
31
0.0
0
LINE
8
0
6
CONTINUOUS
10
0.013225
20
-0.007443
30
0.0
11
0.012848
21
-0.022752
31
0.0
0
LINE
8
0
6
CONTINUOUS
10
0.014691
20
0.052819
30
0.0
11
0.014691
21
0.052006
31
0.0
0
LINE
8
0
6
CONTINUOUS
10
0.013245
20
-0.006630
30
0.0
11
0.013225
21
-0.007443
31
0.0
0
LINE
8
0
6
CONTINUOUS
10
0.003995
20
0.001831
30
0.0
11
0.006463
21
0.002838
31
0.0
0
LINE
8
0
6
CONTINUOUS
10
0.007480
20
0.038397
30
0.0
11
0.003762
21
0.036739
31
0.0
0
LINE
8
0
6
CONTINUOUS
10
0.039640
20
-0.110500
30
0.0
11
0.045188
21
-0.110500
31
0.0
0
LINE
8
0
6
CONTINUOUS
10
0.049952
20
-0.110500
30
0.0
11
0.053607
21
-0.110500
31
0.0
0
LINE
8
0
6
CONTINUOUS
10
0.011468
20
-0.110500
30
0.0
11
0.013766
21
-0.110500
31
0.0
0
LINE
8
0
6
CONTINUOUS
10
0.027733
20
-0.110500
30
0.0
11
0.033687
21
-0.110500
31
0.0
0
LINE
8
0
6
CONTINUOUS
10
0.056689
20
-0.110500
30
0.0
11
0.056665
21
-0.109500
31
0.0
0
LINE
8
0
6
CONTINUOUS
10
0.055905
20
-0.110500
30
0.0
11
0.056689
21
-0.110500
31
0.0
0
LINE
8
0
6
CONTINUOUS
10
0.017421
20
-0.110500
30
0.0
11
0.022185
21
-0.110500
31
0.0
0
LINE
8
0
6
CONTINUOUS
10
0.033687
20
-0.110500
30
0.0
11
0.039640
21
-0.110500
31
0.0
0
LINE
8
0
6
CONTINUOUS
10
0.045188
20
-0.110500
30
0.0
11
0.049952
21
-0.110500
31
0.0
0
LINE
8
0
6
CONTINUOUS
10
0.010709
20
-0.109500
30
0.0
11
0.010684
21
-0.110500
31
0.0
0
LINE
8
0
6
CONTINUOUS
10
0.010684
20
-0.110500
30
0.0
11
0.011468
21
-0.110500
31
0.0
0
LINE
8
0
6
CONTINUOUS
10
0.053607
20
-0.110500
30
0.0
11
0.055905
21
-0.110500
31
0.0
0
LINE
8
0
6
CONTINUOUS
10
0.022185
20
-0.110500
30
0.0
11
0.027733
21
-0.110500
31
0.0
0
LINE
8
0
6
CONTINUOUS
10
0.013766
20
-0.110500
30
0.0
11
0.017421
21
-0.110500
31
0.0
0
LINE
8
0
6
CONTINUOUS
10
0.028773
20
0.057901
30
0.0
11
0.024191
21
0.057901
31
0.0
0
LINE
8
0
6
CONTINUOUS
10
0.043191
20
0.057901
30
0.0
11
0.038608
21
0.057901
31
0.0
0
LINE
8
0
6
CONTINUOUS
10
0.020256
20
0.057901
30
0.0
11
0.017236
21
0.057901
31
0.0
0
LINE
8
0
6
CONTINUOUS
10
0.050145
20
0.057901
30
0.0
11
0.047126
21
0.057901
31
0.0
0
LINE
8
0
6
CONTINUOUS
10
0.052043
20
0.057901
30
0.0
11
0.050145
21
0.057901
31
0.0
0
LINE
8
0
6
CONTINUOUS
10
0.017236
20
0.057901
30
0.0
11
0.015338
21
0.057901
31
0.0
0
LINE
8
0
6
CONTINUOUS
10
0.033691
20
0.057901
30
0.0
11
0.028773
21
0.057901
31
0.0
0
LINE
8
0
6
CONTINUOUS
10
0.038608
20
0.057901
30
0.0
11
0.033691
21
0.057901
31
0.0
0
LINE
8
0
6
CONTINUOUS
10
0.024191
20
0.057901
30
0.0
11
0.020256
21
0.057901
31
0.0
0
LINE
8
0
6
CONTINUOUS
10
0.052691
20
0.057901
30
0.0
11
0.052043
21
0.057901
31
0.0
0
LINE
8
0
6
CONTINUOUS
10
0.052706
20
0.056901
30
0.0
11
0.052691
21
0.057901
31
0.0
0
LINE
8
0
6
CONTINUOUS
10
0.047126
20
0.057901
30
0.0
11
0.043191
21
0.057901
31
0.0
0
LINE
8
0
6
CONTINUOUS
10
0.014691
20
0.057901
30
0.0
11
0.014691
21
0.056901
31
0.0
0
LINE
8
0
6
CONTINUOUS
10
0.015338
20
0.057901
30
0.0
11
0.014691
21
0.057901
31
0.0
0
LINE
8
0
6
CONTINUOUS
10
-0.046803
20
-0.014995
30
0.0
11
-0.045779
21
-0.014611
31
0.0
0
LINE
8
0
6
CONTINUOUS
10
-0.050962
20
-0.011082
30
0.0
11
-0.046803
21
-0.014995
31
0.0
0
LINE
8
0
6
CONTINUOUS
10
-0.055941
20
-0.006397
30
0.0
11
-0.050962
21
-0.011082
31
0.0
0
LINE
8
0
6
CONTINUOUS
10
-0.044648
20
-0.017023
30
0.0
11
-0.046803
21
-0.014995
31
0.0
0
LINE
8
0
6
CONTINUOUS
10
-0.043913
20
-0.017715
30
0.0
11
-0.042903
21
-0.017303
31
0.0
0
LINE
8
0
6
CONTINUOUS
10
-0.044648
20
-0.017023
30
0.0
11
-0.043913
21
-0.017715
31
0.0
0
LINE
8
0
6
CONTINUOUS
10
-0.055941
20
-0.006397
30
0.0
11
-0.054959
21
-0.005973
31
0.0
0
LINE
8
0
6
CONTINUOUS
10
-0.060843
20
-0.001784
30
0.0
11
-0.055941
21
-0.006397
31
0.0
0
LINE
8
0
6
CONTINUOUS
10
-0.067849
20
0.004809
30
0.0
11
-0.066982
21
0.003993
31
0.0
0
LINE
8
0
6
CONTINUOUS
10
-0.066884
20
0.005240
30
0.0
11
-0.067849
21
0.004809
31
0.0
0
LINE
8
0
6
CONTINUOUS
10
-0.066982
20
0.003993
30
0.0
11
-0.064536
21
0.001691
31
0.0
0
LINE
8
0
6
CONTINUOUS
10
-0.064536
20
0.001691
30
0.0
11
-0.060843
21
-0.001784
31
0.0
0
LINE
8
0
6
CONTINUOUS
10
-0.043913
20
-0.017715
30
0.0
11
-0.044653
21
-0.017018
31
0.0
0
LINE
8
0
6
CONTINUOUS
10
-0.044648
20
-0.017023
30
0.0
11
-0.043913
21
-0.017715
31
0.0
0
LINE
8
0
6
CONTINUOUS
10
0.053284
20
0.027901
30
0.0
11
0.052915
21
0.042901
31
0.0
0
LINE
8
0
6
CONTINUOUS
10
0.012848
20
-0.022752
30
0.0
11
0.010709
21
-0.109500
31
0.0
0
LINE
8
0
6
CONTINUOUS
10
0.056665
20
-0.109500
30
0.0
11
0.055572
21
-0.065105
31
0.0
0
LINE
8
0
6
CONTINUOUS
10
0.055293
20
-0.053773
30
0.0
11
0.054210
21
-0.009721
31
0.0
0
LINE
8
0
6
CONTINUOUS
10
0.019148
20
0.040697
30
0.0
11
0.020158
21
0.046420
31
0.0
0
LINE
8
0
6
CONTINUOUS
10
0.016553
20
0.035676
30
0.0
11
0.019148
21
0.040697
31
0.0
0
LINE
8
0
6
CONTINUOUS
10
0.011002
20
0.041316
30
0.0
11
0.007480
21
0.038397
31
0.0
0
LINE
8
0
6
CONTINUOUS
10
0.013638
20
0.046297
30
0.0
11
0.011002
21
0.041316
31
0.0
0
LINE
8
0
6
CONTINUOUS
10
0.014691
20
0.052006
30
0.0
11
0.013638
21
0.046297
31
0.0
0
LINE
8
0
6
CONTINUOUS
10
-0.045779
20
-0.014611
30
0.0
11
0.006489
21
0.004997
31
0.0
0
LINE
8
0
6
CONTINUOUS
10
0.012441
20
-0.000942
30
0.0
11
0.013245
21
-0.006630
31
0.0
0
LINE
8
0
6
CONTINUOUS
10
0.012441
20
-0.000942
30
0.0
11
0.013151
21
-0.000171
31
0.0
0
LINE
8
0
6
CONTINUOUS
10
0.009962
20
0.002523
30
0.0
11
0.012441
21
-0.000942
31
0.0
0
LINE
8
0
6
CONTINUOUS
10
0.007171
20
0.003652
30
0.0
11
0.006463
21
0.002838
31
0.0
0
LINE
8
0
6
CONTINUOUS
10
0.009962
20
0.002523
30
0.0
11
0.010669
21
0.003313
31
0.0
0
LINE
8
0
6
CONTINUOUS
10
0.006463
20
0.002838
30
0.0
11
0.009962
21
0.002523
31
0.0
0
LINE
8
0
6
CONTINUOUS
10
0.020956
20
0.026251
30
0.0
11
0.018960
21
0.025404
31
0.0
0
LINE
8
0
6
CONTINUOUS
10
0.004631
20
0.002639
30
0.0
11
-0.043635
21
-0.016618
31
0.0
0
LINE
8
0
6
CONTINUOUS
10
-0.042903
20
-0.017303
30
0.0
11
0.003995
21
0.001831
31
0.0
0
LINE
8
0
6
CONTINUOUS
10
0.009240
20
0.006029
30
0.0
11
0.006489
21
0.004997
31
0.0
0
LINE
8
0
6
CONTINUOUS
10
0.052915
20
0.042901
30
0.0
11
0.052706
21
0.056901
31
0.0
0
LINE
8
0
6
CONTINUOUS
10
0.019976
20
0.004293
30
0.0
11
0.022986
21
0.026886
31
0.0
0
LINE
8
0
6
CONTINUOUS
10
0.053776
20
0.007887
30
0.0
11
0.053284
21
0.027901
31
0.0
0
LINE
8
0
6
CONTINUOUS
10
0.017015
20
0.024578
30
0.0
11
0.013417
21
0.023051
31
0.0
0
LINE
8
0
6
CONTINUOUS
10
0.014691
20
0.056901
30
0.0
11
0.014691
21
0.052819
31
0.0
0
LINE
8
0
6
CONTINUOUS
10
0.016553
20
0.035676
30
0.0
11
0.013057
21
0.032703
31
0.0
0
LINE
8
0
6
CONTINUOUS
10
0.017015
20
0.024578
30
0.0
11
0.018960
21
0.025404
31
0.0
0
LINE
8
0
6
CONTINUOUS
10
0.009240
20
0.006029
30
0.0
11
0.007171
21
0.003652
31
0.0
0
LINE
8
0
6
CONTINUOUS
10
0.012737
20
0.005623
30
0.0
11
0.009240
21
0.006029
31
0.0
0
LINE
8
0
6
CONTINUOUS
10
-0.054959
20
-0.005973
30
0.0
11
0.013417
21
0.023051
31
0.0
0
LINE
8
0
6
CONTINUOUS
10
0.003762
20
0.036739
30
0.0
11
-0.066884
21
0.005240
31
0.0
0
LINE
8
0
6
CONTINUOUS
10
0.009410
20
0.031001
30
0.0
11
0.013057
21
0.032703
31
0.0
0
LINE
8
0
6
CONTINUOUS
10
0.013151
20
-0.000171
30
0.0
11
0.015226
21
0.002091
31
0.0
0
LINE
8
0
6
CONTINUOUS
10
0.012737
20
0.005623
30
0.0
11
0.010669
21
0.003313
31
0.0
0
LINE
8
0
6
CONTINUOUS
10
0.015226
20
0.002091
30
0.0
11
0.012737
21
0.005623
31
0.0
0
LINE
8
0
6
CONTINUOUS
10
0.038495
20
0.059031
30
0.0
11
0.043019
21
0.059031
31
0.0
0
LINE
8
0
6
CONTINUOUS
10
0.014824
20
0.059031
30
0.0
11
0.015503
21
0.059031
31
0.0
0
LINE
8
0
6
CONTINUOUS
10
0.014824
20
0.059768
30
0.0
11
0.014824
21
0.059031
31
0.0
0
LINE
8
0
6
CONTINUOUS
10
0.015503
20
0.059031
30
0.0
11
0.017314
21
0.059031
31
0.0
0
LINE
8
0
6
CONTINUOUS
10
0.017314
20
0.059031
30
0.0
11
0.020332
21
0.059031
31
0.0
0
LINE
8
0
6
CONTINUOUS
10
0.050009
20
0.059031
30
0.0
11
0.051859
21
0.059031
31
0.0
0
LINE
8
0
6
CONTINUOUS
10
0.033689
20
0.059031
30
0.0
11
0.038495
21
0.059031
31
0.0
0
LINE
8
0
6
CONTINUOUS
10
0.028860
20
0.059031
30
0.0
11
0.033689
21
0.059031
31
0.0
0
LINE
8
0
6
CONTINUOUS
10
0.052555
20
0.059031
30
0.0
11
0.052555
21
0.059768
31
0.0
0
LINE
8
0
6
CONTINUOUS
10
0.051859
20
0.059031
30
0.0
11
0.052555
21
0.059031
31
0.0
0
LINE
8
0
6
CONTINUOUS
10
0.024332
20
0.059031
30
0.0
11
0.028860
21
0.059031
31
0.0
0
LINE
8
0
6
CONTINUOUS
10
0.047028
20
0.059031
30
0.0
11
0.050009
21
0.059031
31
0.0
0
LINE
8
0
6
CONTINUOUS
10
0.020332
20
0.059031
30
0.0
11
0.024332
21
0.059031
31
0.0
0
LINE
8
0
6
CONTINUOUS
10
0.043019
20
0.059031
30
0.0
11
0.047028
21
0.059031
31
0.0
0
LINE
8
0
6
CONTINUOUS
10
0.016611
20
0.059768
30
0.0
11
0.016611
21
0.057373
31
0.0
0
LINE
8
0
6
CONTINUOUS
10
0.050767
20
0.057373
30
0.0
11
0.050767
21
0.059768
31
0.0
0
LINE
8
0
6
CONTINUOUS
10
-0.032472
20
0.110124
30
0.0
11
-0.032627
21
0.109518
31
0.0
0
LINE
8
0
6
CONTINUOUS
10
-0.034319
20
0.100463
30
0.0
11
0.005238
21
0.090830
31
0.0
0
LINE
8
0
6
CONTINUOUS
10
0.005406
20
0.091184
30
0.0
11
-0.034223
21
0.100839
31
0.0
0
LINE
8
0
6
CONTINUOUS
10
-0.033151
20
0.107453
30
0.0
11
-0.033631
21
0.105564
31
0.0
0
LINE
8
0
6
CONTINUOUS
10
-0.032627
20
0.109518
30
0.0
11
-0.032744
21
0.109054
31
0.0
0
LINE
8
0
6
CONTINUOUS
10
-0.033151
20
0.107453
30
0.0
11
-0.032973
21
0.108159
31
0.0
0
LINE
8
0
6
CONTINUOUS
10
0.012470
20
0.087448
30
0.0
11
0.013561
21
0.085511
31
0.0
0
LINE
8
0
6
CONTINUOUS
10
0.014824
20
0.080288
30
0.0
11
0.014824
21
0.059768
31
0.0
0
LINE
8
0
6
CONTINUOUS
10
0.052555
20
0.059768
30
0.0
11
0.052555
21
0.080288
31
0.0
0
LINE
8
0
6
CONTINUOUS
10
-0.032744
20
0.109054
30
0.0
11
-0.032973
21
0.108159
31
0.0
0
LINE
8
0
6
CONTINUOUS
10
0.013256
20
0.097571
30
0.0
11
0.014529
21
0.097094
31
0.0
0
LINE
8
0
6
CONTINUOUS
10
0.012977
20
0.091493
30
0.0
11
0.012876
21
0.089526
31
0.0
0
LINE
8
0
6
CONTINUOUS
10
0.006628
20
0.099416
30
0.0
11
0.009437
21
0.098688
31
0.0
0
LINE
8
0
6
CONTINUOUS
10
0.043047
20
0.096900
30
0.0
11
0.038519
21
0.096900
31
0.0
0
LINE
8
0
6
CONTINUOUS
10
0.020332
20
0.096900
30
0.0
11
0.017314
21
0.096900
31
0.0
0
LINE
8
0
6
CONTINUOUS
10
0.028860
20
0.096900
30
0.0
11
0.024332
21
0.096900
31
0.0
0
LINE
8
0
6
CONTINUOUS
10
0.024332
20
0.096900
30
0.0
11
0.020332
21
0.096900
31
0.0
0
LINE
8
0
6
CONTINUOUS
10
0.047046
20
0.096900
30
0.0
11
0.043047
21
0.096900
31
0.0
0
LINE
8
0
6
CONTINUOUS
10
0.052555
20
0.096900
30
0.0
11
0.051876
21
0.096900
31
0.0
0
LINE
8
0
6
CONTINUOUS
10
0.052555
20
0.096042
30
0.0
11
0.052555
21
0.096900
31
0.0
0
LINE
8
0
6
CONTINUOUS
10
0.051876
20
0.096900
30
0.0
11
0.050065
21
0.096900
31
0.0
0
LINE
8
0
6
CONTINUOUS
10
0.050065
20
0.096900
30
0.0
11
0.047046
21
0.096900
31
0.0
0
LINE
8
0
6
CONTINUOUS
10
0.033689
20
0.096900
30
0.0
11
0.028860
21
0.096900
31
0.0
0
LINE
8
0
6
CONTINUOUS
10
0.038519
20
0.096900
30
0.0
11
0.033689
21
0.096900
31
0.0
0
LINE
8
0
6
CONTINUOUS
10
-0.032186
20
0.108891
30
0.0
11
0.006628
21
0.099416
31
0.0
0
LINE
8
0
6
CONTINUOUS
10
0.016290
20
0.098658
30
0.0
11
0.012398
21
0.099437
31
0.0
0
LINE
8
0
6
CONTINUOUS
10
0.013222
20
0.095699
30
0.0
11
0.014596
21
0.094938
31
0.0
0
LINE
8
0
6
CONTINUOUS
10
0.012842
20
0.087492
30
0.0
11
0.014028
21
0.085552
31
0.0
0
LINE
8
0
6
CONTINUOUS
10
0.015583
20
0.082651
30
0.0
11
0.015015
21
0.083836
31
0.0
0
LINE
8
0
6
CONTINUOUS
10
0.014410
20
0.083756
30
0.0
11
0.014824
21
0.082437
31
0.0
0
LINE
8
0
6
CONTINUOUS
10
0.016065
20
0.096900
30
0.0
11
0.015467
21
0.096900
31
0.0
0
LINE
8
0
6
CONTINUOUS
10
0.032024
20
0.096900
30
0.0
11
0.028067
21
0.097136
31
0.0
0
LINE
8
0
6
CONTINUOUS
10
0.012213
20
0.096110
30
0.0
11
0.013222
21
0.095699
31
0.0
0
LINE
8
0
6
CONTINUOUS
10
0.011737
20
0.090096
30
0.0
11
0.012842
21
0.087492
31
0.0
0
LINE
8
0
6
CONTINUOUS
10
0.012842
20
0.087492
30
0.0
11
0.012876
21
0.089526
31
0.0
0
LINE
8
0
6
CONTINUOUS
10
0.008271
20
0.090444
30
0.0
11
0.005406
21
0.091184
31
0.0
0
LINE
8
0
6
CONTINUOUS
10
0.005238
20
0.090830
30
0.0
11
0.008098
21
0.090091
31
0.0
0
LINE
8
0
6
CONTINUOUS
10
0.012398
20
0.099437
30
0.0
11
0.009423
21
0.100209
31
0.0
0
LINE
8
0
6
CONTINUOUS
10
0.008749
20
0.100003
30
0.0
11
0.011685
21
0.099243
31
0.0
0
LINE
8
0
6
CONTINUOUS
10
0.020200
20
0.098009
30
0.0
11
0.016290
21
0.098658
31
0.0
0
LINE
8
0
6
CONTINUOUS
10
0.009423
20
0.100209
30
0.0
11
-0.031819
21
0.110336
31
0.0
0
LINE
8
0
6
CONTINUOUS
10
0.052555
20
0.082865
30
0.0
11
0.052555
21
0.085672
31
0.0
0
LINE
8
0
6
CONTINUOUS
10
0.052555
20
0.080288
30
0.0
11
0.052555
21
0.082865
31
0.0
0
LINE
8
0
6
CONTINUOUS
10
0.052555
20
0.085672
30
0.0
11
0.052555
21
0.088479
31
0.0
0
LINE
8
0
6
CONTINUOUS
10
0.052555
20
0.094093
30
0.0
11
0.052555
21
0.096042
31
0.0
0
LINE
8
0
6
CONTINUOUS
10
0.052555
20
0.088479
30
0.0
11
0.052555
21
0.091286
31
0.0
0
LINE
8
0
6
CONTINUOUS
10
0.008098
20
0.090091
30
0.0
11
0.011293
21
0.088579
31
0.0
0
LINE
8
0
6
CONTINUOUS
10
0.052555
20
0.091286
30
0.0
11
0.052555
21
0.094093
31
0.0
0
LINE
8
0
6
CONTINUOUS
10
-0.034877
20
0.100627
30
0.0
11
-0.034319
21
0.100463
31
0.0
0
LINE
8
0
6
CONTINUOUS
10
-0.034782
20
0.101003
30
0.0
11
-0.034877
21
0.100627
31
0.0
0
LINE
8
0
6
CONTINUOUS
10
-0.034782
20
0.101003
30
0.0
11
-0.034223
21
0.100839
31
0.0
0
LINE
8
0
6
CONTINUOUS
10
-0.034512
20
0.102073
30
0.0
11
-0.034782
21
0.101003
31
0.0
0
LINE
8
0
6
CONTINUOUS
10
-0.034108
20
0.103675
30
0.0
11
-0.034512
21
0.102073
31
0.0
0
LINE
8
0
6
CONTINUOUS
10
0.015015
20
0.083836
30
0.0
11
0.014028
21
0.085552
31
0.0
0
LINE
8
0
6
CONTINUOUS
10
0.013561
20
0.085511
30
0.0
11
0.014410
21
0.083756
31
0.0
0
LINE
8
0
6
CONTINUOUS
10
-0.033631
20
0.105564
30
0.0
11
-0.034108
21
0.103675
31
0.0
0
LINE
8
0
6
CONTINUOUS
10
0.017314
20
0.096900
30
0.0
11
0.016065
21
0.096900
31
0.0
0
LINE
8
0
6
CONTINUOUS
10
0.024125
20
0.097501
30
0.0
11
0.020200
21
0.098009
31
0.0
0
LINE
8
0
6
CONTINUOUS
10
0.014251
20
0.098519
30
0.0
11
0.011685
21
0.099243
31
0.0
0
LINE
8
0
6
CONTINUOUS
10
0.014824
20
0.082437
30
0.0
11
0.014824
21
0.080288
31
0.0
0
LINE
8
0
6
CONTINUOUS
10
0.015467
20
0.096900
30
0.0
11
0.014529
21
0.097094
31
0.0
0
LINE
8
0
6
CONTINUOUS
10
0.011505
20
0.088943
30
0.0
11
0.011737
21
0.090096
31
0.0
0
LINE
8
0
6
CONTINUOUS
10
0.011293
20
0.088579
30
0.0
11
0.012470
21
0.087448
31
0.0
0
LINE
8
0
6
CONTINUOUS
10
0.012226
20
0.097839
30
0.0
11
0.012219
21
0.096986
31
0.0
0
LINE
8
0
6
CONTINUOUS
10
0.013256
20
0.097571
30
0.0
11
0.012226
21
0.097839
31
0.0
0
LINE
8
0
6
CONTINUOUS
10
0.028067
20
0.097136
30
0.0
11
0.024125
21
0.097501
31
0.0
0
LINE
8
0
6
CONTINUOUS
10
-0.032472
20
0.110124
30
0.0
11
-0.031914
21
0.109961
31
0.0
0
LINE
8
0
6
CONTINUOUS
10
-0.032377
20
0.110500
30
0.0
11
-0.032472
21
0.110124
31
0.0
0
LINE
8
0
6
CONTINUOUS
10
-0.031819
20
0.110336
30
0.0
11
-0.032377
21
0.110500
31
0.0
0
LINE
8
0
6
CONTINUOUS
10
0.008749
20
0.100003
30
0.0
11
-0.031914
21
0.109961
31
0.0
0
LINE
8
0
6
CONTINUOUS
10
0.049599
20
-0.082208
30
0.0
11
0.049540
21
-0.080780
31
0.0
0
LINE
8
0
6
CONTINUOUS
10
0.049398
20
-0.077818
30
0.0
11
0.049439
21
-0.075786
31
0.0
0
ENDSEC
0
EOF
