999
Erzeugt mit innoplus bad 
0
SECTION
2
HEADER
9
$ACADVER
1
AC1009
9
$DWGCODEPAGE
3
ISO8859-1
0
ENDSEC
0
SECTION
2
TABLES
0
TABLE
2
LAYER
70
1
0
LAYER
2
0
70
0
62
7
6
CONTINUOUS
0
ENDTAB
0
ENDSEC
0
SECTION
2
ENTITIES
0
LINE
8
0
6
CONTINUOUS
10
-0.058208
20
0.001179
30
0.0
11
-0.061913
21
-0.002857
31
0.0
0
LINE
8
0
6
CONTINUOUS
10
-0.044444
20
-0.018893
30
0.0
11
-0.040938
21
-0.015073
31
0.0
0
LINE
8
0
6
CONTINUOUS
10
-0.061913
20
-0.002857
30
0.0
11
-0.062472
21
-0.003494
31
0.0
0
LINE
8
0
6
CONTINUOUS
10
-0.062044
20
-0.003886
30
0.0
11
-0.062472
21
-0.003494
31
0.0
0
LINE
8
0
6
CONTINUOUS
10
-0.062044
20
-0.003886
30
0.0
11
-0.060804
21
-0.005025
31
0.0
0
LINE
8
0
6
CONTINUOUS
10
-0.060804
20
-0.005025
30
0.0
11
-0.058871
21
-0.006799
31
0.0
0
LINE
8
0
6
CONTINUOUS
10
-0.058871
20
-0.006799
30
0.0
11
-0.056436
21
-0.009034
31
0.0
0
LINE
8
0
6
CONTINUOUS
10
-0.056436
20
-0.009034
30
0.0
11
-0.053737
21
-0.011512
31
0.0
0
LINE
8
0
6
CONTINUOUS
10
-0.051038
20
-0.013990
30
0.0
11
-0.053737
21
-0.011512
31
0.0
0
LINE
8
0
6
CONTINUOUS
10
-0.051038
20
-0.013990
30
0.0
11
-0.048603
21
-0.016225
31
0.0
0
LINE
8
0
6
CONTINUOUS
10
-0.048603
20
-0.016225
30
0.0
11
-0.046671
21
-0.017999
31
0.0
0
LINE
8
0
6
CONTINUOUS
10
-0.045430
20
-0.019137
30
0.0
11
-0.046671
21
-0.017999
31
0.0
0
LINE
8
0
6
CONTINUOUS
10
-0.045003
20
-0.019530
30
0.0
11
-0.044444
21
-0.018893
31
0.0
0
LINE
8
0
6
CONTINUOUS
10
-0.045003
20
-0.019530
30
0.0
11
-0.045430
21
-0.019137
31
0.0
0
LINE
8
0
6
CONTINUOUS
10
0.059992
20
-0.009721
30
0.0
11
0.059559
21
0.007887
31
0.0
0
LINE
8
0
6
CONTINUOUS
10
0.019008
20
-0.007443
30
0.0
11
0.018630
21
-0.022752
31
0.0
0
LINE
8
0
6
CONTINUOUS
10
0.020473
20
0.052819
30
0.0
11
0.020473
21
0.052006
31
0.0
0
LINE
8
0
6
CONTINUOUS
10
0.019028
20
-0.006630
30
0.0
11
0.019008
21
-0.007443
31
0.0
0
LINE
8
0
6
CONTINUOUS
10
0.009778
20
0.001831
30
0.0
11
0.012246
21
0.002838
31
0.0
0
LINE
8
0
6
CONTINUOUS
10
0.013263
20
0.038397
30
0.0
11
0.009544
21
0.036739
31
0.0
0
LINE
8
0
6
CONTINUOUS
10
0.045423
20
-0.110500
30
0.0
11
0.050970
21
-0.110500
31
0.0
0
LINE
8
0
6
CONTINUOUS
10
0.055734
20
-0.110500
30
0.0
11
0.059390
21
-0.110500
31
0.0
0
LINE
8
0
6
CONTINUOUS
10
0.017250
20
-0.110500
30
0.0
11
0.019548
21
-0.110500
31
0.0
0
LINE
8
0
6
CONTINUOUS
10
0.033516
20
-0.110500
30
0.0
11
0.039469
21
-0.110500
31
0.0
0
LINE
8
0
6
CONTINUOUS
10
0.062472
20
-0.110500
30
0.0
11
0.062447
21
-0.109500
31
0.0
0
LINE
8
0
6
CONTINUOUS
10
0.061688
20
-0.110500
30
0.0
11
0.062472
21
-0.110500
31
0.0
0
LINE
8
0
6
CONTINUOUS
10
0.023204
20
-0.110500
30
0.0
11
0.027968
21
-0.110500
31
0.0
0
LINE
8
0
6
CONTINUOUS
10
0.039469
20
-0.110500
30
0.0
11
0.045423
21
-0.110500
31
0.0
0
LINE
8
0
6
CONTINUOUS
10
0.050970
20
-0.110500
30
0.0
11
0.055734
21
-0.110500
31
0.0
0
LINE
8
0
6
CONTINUOUS
10
0.016491
20
-0.109500
30
0.0
11
0.016467
21
-0.110500
31
0.0
0
LINE
8
0
6
CONTINUOUS
10
0.016467
20
-0.110500
30
0.0
11
0.017250
21
-0.110500
31
0.0
0
LINE
8
0
6
CONTINUOUS
10
0.059390
20
-0.110500
30
0.0
11
0.061688
21
-0.110500
31
0.0
0
LINE
8
0
6
CONTINUOUS
10
0.027968
20
-0.110500
30
0.0
11
0.033516
21
-0.110500
31
0.0
0
LINE
8
0
6
CONTINUOUS
10
0.019548
20
-0.110500
30
0.0
11
0.023204
21
-0.110500
31
0.0
0
LINE
8
0
6
CONTINUOUS
10
0.034556
20
0.057901
30
0.0
11
0.029973
21
0.057901
31
0.0
0
LINE
8
0
6
CONTINUOUS
10
0.048973
20
0.057901
30
0.0
11
0.044391
21
0.057901
31
0.0
0
LINE
8
0
6
CONTINUOUS
10
0.026038
20
0.057901
30
0.0
11
0.023019
21
0.057901
31
0.0
0
LINE
8
0
6
CONTINUOUS
10
0.055928
20
0.057901
30
0.0
11
0.052908
21
0.057901
31
0.0
0
LINE
8
0
6
CONTINUOUS
10
0.057826
20
0.057901
30
0.0
11
0.055928
21
0.057901
31
0.0
0
LINE
8
0
6
CONTINUOUS
10
0.023019
20
0.057901
30
0.0
11
0.021121
21
0.057901
31
0.0
0
LINE
8
0
6
CONTINUOUS
10
0.039473
20
0.057901
30
0.0
11
0.034556
21
0.057901
31
0.0
0
LINE
8
0
6
CONTINUOUS
10
0.044391
20
0.057901
30
0.0
11
0.039473
21
0.057901
31
0.0
0
LINE
8
0
6
CONTINUOUS
10
0.029973
20
0.057901
30
0.0
11
0.026038
21
0.057901
31
0.0
0
LINE
8
0
6
CONTINUOUS
10
0.058473
20
0.057901
30
0.0
11
0.057826
21
0.057901
31
0.0
0
LINE
8
0
6
CONTINUOUS
10
0.058488
20
0.056901
30
0.0
11
0.058473
21
0.057901
31
0.0
0
LINE
8
0
6
CONTINUOUS
10
0.052908
20
0.057901
30
0.0
11
0.048973
21
0.057901
31
0.0
0
LINE
8
0
6
CONTINUOUS
10
0.020473
20
0.057901
30
0.0
11
0.020473
21
0.056901
31
0.0
0
LINE
8
0
6
CONTINUOUS
10
0.021121
20
0.057901
30
0.0
11
0.020473
21
0.057901
31
0.0
0
LINE
8
0
6
CONTINUOUS
10
-0.041020
20
-0.014995
30
0.0
11
-0.039997
21
-0.014611
31
0.0
0
LINE
8
0
6
CONTINUOUS
10
-0.045179
20
-0.011082
30
0.0
11
-0.041020
21
-0.014995
31
0.0
0
LINE
8
0
6
CONTINUOUS
10
-0.050158
20
-0.006397
30
0.0
11
-0.045179
21
-0.011082
31
0.0
0
LINE
8
0
6
CONTINUOUS
10
-0.038866
20
-0.017023
30
0.0
11
-0.041020
21
-0.014995
31
0.0
0
LINE
8
0
6
CONTINUOUS
10
-0.038130
20
-0.017715
30
0.0
11
-0.037120
21
-0.017303
31
0.0
0
LINE
8
0
6
CONTINUOUS
10
-0.038866
20
-0.017023
30
0.0
11
-0.038130
21
-0.017715
31
0.0
0
LINE
8
0
6
CONTINUOUS
10
-0.050158
20
-0.006397
30
0.0
11
-0.049176
21
-0.005973
31
0.0
0
LINE
8
0
6
CONTINUOUS
10
-0.055060
20
-0.001784
30
0.0
11
-0.050158
21
-0.006397
31
0.0
0
LINE
8
0
6
CONTINUOUS
10
-0.062067
20
0.004809
30
0.0
11
-0.061200
21
0.003993
31
0.0
0
LINE
8
0
6
CONTINUOUS
10
-0.061101
20
0.005240
30
0.0
11
-0.062067
21
0.004809
31
0.0
0
LINE
8
0
6
CONTINUOUS
10
-0.061200
20
0.003993
30
0.0
11
-0.058753
21
0.001691
31
0.0
0
LINE
8
0
6
CONTINUOUS
10
-0.058753
20
0.001691
30
0.0
11
-0.055060
21
-0.001784
31
0.0
0
LINE
8
0
6
CONTINUOUS
10
-0.038130
20
-0.017715
30
0.0
11
-0.038871
21
-0.017018
31
0.0
0
LINE
8
0
6
CONTINUOUS
10
-0.038866
20
-0.017023
30
0.0
11
-0.038130
21
-0.017715
31
0.0
0
LINE
8
0
6
CONTINUOUS
10
0.059066
20
0.027901
30
0.0
11
0.058697
21
0.042901
31
0.0
0
LINE
8
0
6
CONTINUOUS
10
0.018630
20
-0.022752
30
0.0
11
0.016491
21
-0.109500
31
0.0
0
LINE
8
0
6
CONTINUOUS
10
0.062447
20
-0.109500
30
0.0
11
0.059992
21
-0.009721
31
0.0
0
LINE
8
0
6
CONTINUOUS
10
0.024931
20
0.040697
30
0.0
11
0.025941
21
0.046420
31
0.0
0
LINE
8
0
6
CONTINUOUS
10
0.022335
20
0.035676
30
0.0
11
0.024931
21
0.040697
31
0.0
0
LINE
8
0
6
CONTINUOUS
10
0.016785
20
0.041316
30
0.0
11
0.013263
21
0.038397
31
0.0
0
LINE
8
0
6
CONTINUOUS
10
0.019421
20
0.046297
30
0.0
11
0.016785
21
0.041316
31
0.0
0
LINE
8
0
6
CONTINUOUS
10
0.020473
20
0.052006
30
0.0
11
0.019421
21
0.046297
31
0.0
0
LINE
8
0
6
CONTINUOUS
10
-0.039997
20
-0.014611
30
0.0
11
0.012271
21
0.004997
31
0.0
0
LINE
8
0
6
CONTINUOUS
10
0.018224
20
-0.000942
30
0.0
11
0.019028
21
-0.006630
31
0.0
0
LINE
8
0
6
CONTINUOUS
10
0.018224
20
-0.000942
30
0.0
11
0.018934
21
-0.000171
31
0.0
0
LINE
8
0
6
CONTINUOUS
10
0.015744
20
0.002523
30
0.0
11
0.018224
21
-0.000942
31
0.0
0
LINE
8
0
6
CONTINUOUS
10
0.012954
20
0.003652
30
0.0
11
0.012246
21
0.002838
31
0.0
0
LINE
8
0
6
CONTINUOUS
10
0.015744
20
0.002523
30
0.0
11
0.016452
21
0.003313
31
0.0
0
LINE
8
0
6
CONTINUOUS
10
0.012246
20
0.002838
30
0.0
11
0.015744
21
0.002523
31
0.0
0
LINE
8
0
6
CONTINUOUS
10
0.026738
20
0.026251
30
0.0
11
0.024743
21
0.025404
31
0.0
0
LINE
8
0
6
CONTINUOUS
10
0.010414
20
0.002639
30
0.0
11
-0.037852
21
-0.016618
31
0.0
0
LINE
8
0
6
CONTINUOUS
10
-0.037120
20
-0.017303
30
0.0
11
0.009778
21
0.001831
31
0.0
0
LINE
8
0
6
CONTINUOUS
10
0.015022
20
0.006029
30
0.0
11
0.012271
21
0.004997
31
0.0
0
LINE
8
0
6
CONTINUOUS
10
0.058697
20
0.042901
30
0.0
11
0.058488
21
0.056901
31
0.0
0
LINE
8
0
6
CONTINUOUS
10
0.025759
20
0.004293
30
0.0
11
0.028769
21
0.026886
31
0.0
0
LINE
8
0
6
CONTINUOUS
10
0.059559
20
0.007887
30
0.0
11
0.059066
21
0.027901
31
0.0
0
LINE
8
0
6
CONTINUOUS
10
0.022798
20
0.024578
30
0.0
11
0.019199
21
0.023051
31
0.0
0
LINE
8
0
6
CONTINUOUS
10
0.020473
20
0.056901
30
0.0
11
0.020473
21
0.052819
31
0.0
0
LINE
8
0
6
CONTINUOUS
10
0.022335
20
0.035676
30
0.0
11
0.018840
21
0.032703
31
0.0
0
LINE
8
0
6
CONTINUOUS
10
0.022798
20
0.024578
30
0.0
11
0.024743
21
0.025404
31
0.0
0
LINE
8
0
6
CONTINUOUS
10
0.015022
20
0.006029
30
0.0
11
0.012954
21
0.003652
31
0.0
0
LINE
8
0
6
CONTINUOUS
10
0.018519
20
0.005623
30
0.0
11
0.015022
21
0.006029
31
0.0
0
LINE
8
0
6
CONTINUOUS
10
-0.049176
20
-0.005973
30
0.0
11
0.019199
21
0.023051
31
0.0
0
LINE
8
0
6
CONTINUOUS
10
0.009544
20
0.036739
30
0.0
11
-0.061101
21
0.005240
31
0.0
0
LINE
8
0
6
CONTINUOUS
10
0.015193
20
0.031001
30
0.0
11
0.018840
21
0.032703
31
0.0
0
LINE
8
0
6
CONTINUOUS
10
0.018934
20
-0.000171
30
0.0
11
0.021009
21
0.002091
31
0.0
0
LINE
8
0
6
CONTINUOUS
10
0.018519
20
0.005623
30
0.0
11
0.016452
21
0.003313
31
0.0
0
LINE
8
0
6
CONTINUOUS
10
0.021009
20
0.002091
30
0.0
11
0.018519
21
0.005623
31
0.0
0
LINE
8
0
6
CONTINUOUS
10
0.044278
20
0.059031
30
0.0
11
0.048801
21
0.059031
31
0.0
0
LINE
8
0
6
CONTINUOUS
10
0.020606
20
0.059031
30
0.0
11
0.021285
21
0.059031
31
0.0
0
LINE
8
0
6
CONTINUOUS
10
0.020606
20
0.059768
30
0.0
11
0.020606
21
0.059031
31
0.0
0
LINE
8
0
6
CONTINUOUS
10
0.021285
20
0.059031
30
0.0
11
0.023096
21
0.059031
31
0.0
0
LINE
8
0
6
CONTINUOUS
10
0.023096
20
0.059031
30
0.0
11
0.026115
21
0.059031
31
0.0
0
LINE
8
0
6
CONTINUOUS
10
0.055792
20
0.059031
30
0.0
11
0.057642
21
0.059031
31
0.0
0
LINE
8
0
6
CONTINUOUS
10
0.039472
20
0.059031
30
0.0
11
0.044278
21
0.059031
31
0.0
0
LINE
8
0
6
CONTINUOUS
10
0.034642
20
0.059031
30
0.0
11
0.039472
21
0.059031
31
0.0
0
LINE
8
0
6
CONTINUOUS
10
0.058337
20
0.059031
30
0.0
11
0.058337
21
0.059768
31
0.0
0
LINE
8
0
6
CONTINUOUS
10
0.057642
20
0.059031
30
0.0
11
0.058337
21
0.059031
31
0.0
0
LINE
8
0
6
CONTINUOUS
10
0.030114
20
0.059031
30
0.0
11
0.034642
21
0.059031
31
0.0
0
LINE
8
0
6
CONTINUOUS
10
0.052811
20
0.059031
30
0.0
11
0.055792
21
0.059031
31
0.0
0
LINE
8
0
6
CONTINUOUS
10
0.026115
20
0.059031
30
0.0
11
0.030114
21
0.059031
31
0.0
0
LINE
8
0
6
CONTINUOUS
10
0.048801
20
0.059031
30
0.0
11
0.052811
21
0.059031
31
0.0
0
LINE
8
0
6
CONTINUOUS
10
0.022394
20
0.059768
30
0.0
11
0.022394
21
0.057373
31
0.0
0
LINE
8
0
6
CONTINUOUS
10
0.056550
20
0.057373
30
0.0
11
0.056550
21
0.059768
31
0.0
0
LINE
8
0
6
CONTINUOUS
10
-0.026690
20
0.110124
30
0.0
11
-0.026844
21
0.109518
31
0.0
0
LINE
8
0
6
CONTINUOUS
10
-0.028536
20
0.100463
30
0.0
11
0.011021
21
0.090830
31
0.0
0
LINE
8
0
6
CONTINUOUS
10
0.011189
20
0.091184
30
0.0
11
-0.028441
21
0.100839
31
0.0
0
LINE
8
0
6
CONTINUOUS
10
-0.027369
20
0.107453
30
0.0
11
-0.027848
21
0.105564
31
0.0
0
LINE
8
0
6
CONTINUOUS
10
-0.026844
20
0.109518
30
0.0
11
-0.026962
21
0.109054
31
0.0
0
LINE
8
0
6
CONTINUOUS
10
-0.027369
20
0.107453
30
0.0
11
-0.027190
21
0.108159
31
0.0
0
LINE
8
0
6
CONTINUOUS
10
0.018252
20
0.087448
30
0.0
11
0.019343
21
0.085511
31
0.0
0
LINE
8
0
6
CONTINUOUS
10
0.020606
20
0.080288
30
0.0
11
0.020606
21
0.059768
31
0.0
0
LINE
8
0
6
CONTINUOUS
10
0.058337
20
0.059768
30
0.0
11
0.058337
21
0.080288
31
0.0
0
LINE
8
0
6
CONTINUOUS
10
-0.026962
20
0.109054
30
0.0
11
-0.027190
21
0.108159
31
0.0
0
LINE
8
0
6
CONTINUOUS
10
0.019039
20
0.097571
30
0.0
11
0.020311
21
0.097094
31
0.0
0
LINE
8
0
6
CONTINUOUS
10
0.018759
20
0.091493
30
0.0
11
0.018658
21
0.089526
31
0.0
0
LINE
8
0
6
CONTINUOUS
10
0.012410
20
0.099416
30
0.0
11
0.015220
21
0.098688
31
0.0
0
LINE
8
0
6
CONTINUOUS
10
0.048829
20
0.096900
30
0.0
11
0.044301
21
0.096900
31
0.0
0
LINE
8
0
6
CONTINUOUS
10
0.026115
20
0.096900
30
0.0
11
0.023096
21
0.096900
31
0.0
0
LINE
8
0
6
CONTINUOUS
10
0.034642
20
0.096900
30
0.0
11
0.030114
21
0.096900
31
0.0
0
LINE
8
0
6
CONTINUOUS
10
0.030114
20
0.096900
30
0.0
11
0.026115
21
0.096900
31
0.0
0
LINE
8
0
6
CONTINUOUS
10
0.052829
20
0.096900
30
0.0
11
0.048829
21
0.096900
31
0.0
0
LINE
8
0
6
CONTINUOUS
10
0.058337
20
0.096900
30
0.0
11
0.057658
21
0.096900
31
0.0
0
LINE
8
0
6
CONTINUOUS
10
0.058337
20
0.096042
30
0.0
11
0.058337
21
0.096900
31
0.0
0
LINE
8
0
6
CONTINUOUS
10
0.057658
20
0.096900
30
0.0
11
0.055847
21
0.096900
31
0.0
0
LINE
8
0
6
CONTINUOUS
10
0.055847
20
0.096900
30
0.0
11
0.052829
21
0.096900
31
0.0
0
LINE
8
0
6
CONTINUOUS
10
0.039472
20
0.096900
30
0.0
11
0.034642
21
0.096900
31
0.0
0
LINE
8
0
6
CONTINUOUS
10
0.044301
20
0.096900
30
0.0
11
0.039472
21
0.096900
31
0.0
0
LINE
8
0
6
CONTINUOUS
10
-0.026404
20
0.108891
30
0.0
11
0.012410
21
0.099416
31
0.0
0
LINE
8
0
6
CONTINUOUS
10
0.022073
20
0.098658
30
0.0
11
0.018180
21
0.099437
31
0.0
0
LINE
8
0
6
CONTINUOUS
10
0.019005
20
0.095699
30
0.0
11
0.020379
21
0.094938
31
0.0
0
LINE
8
0
6
CONTINUOUS
10
0.018624
20
0.087492
30
0.0
11
0.019811
21
0.085552
31
0.0
0
LINE
8
0
6
CONTINUOUS
10
0.021366
20
0.082651
30
0.0
11
0.020798
21
0.083836
31
0.0
0
LINE
8
0
6
CONTINUOUS
10
0.020193
20
0.083756
30
0.0
11
0.020606
21
0.082437
31
0.0
0
LINE
8
0
6
CONTINUOUS
10
0.021848
20
0.096900
30
0.0
11
0.021250
21
0.096900
31
0.0
0
LINE
8
0
6
CONTINUOUS
10
0.037806
20
0.096900
30
0.0
11
0.033850
21
0.097136
31
0.0
0
LINE
8
0
6
CONTINUOUS
10
0.017995
20
0.096110
30
0.0
11
0.019005
21
0.095699
31
0.0
0
LINE
8
0
6
CONTINUOUS
10
0.017519
20
0.090096
30
0.0
11
0.018624
21
0.087492
31
0.0
0
LINE
8
0
6
CONTINUOUS
10
0.018624
20
0.087492
30
0.0
11
0.018658
21
0.089526
31
0.0
0
LINE
8
0
6
CONTINUOUS
10
0.014054
20
0.090444
30
0.0
11
0.011189
21
0.091184
31
0.0
0
LINE
8
0
6
CONTINUOUS
10
0.011021
20
0.090830
30
0.0
11
0.013881
21
0.090091
31
0.0
0
LINE
8
0
6
CONTINUOUS
10
0.018180
20
0.099437
30
0.0
11
0.015206
21
0.100209
31
0.0
0
LINE
8
0
6
CONTINUOUS
10
0.014532
20
0.100003
30
0.0
11
0.017467
21
0.099243
31
0.0
0
LINE
8
0
6
CONTINUOUS
10
0.025983
20
0.098009
30
0.0
11
0.022073
21
0.098658
31
0.0
0
LINE
8
0
6
CONTINUOUS
10
0.015206
20
0.100209
30
0.0
11
-0.026036
21
0.110336
31
0.0
0
LINE
8
0
6
CONTINUOUS
10
0.058337
20
0.082865
30
0.0
11
0.058337
21
0.085672
31
0.0
0
LINE
8
0
6
CONTINUOUS
10
0.058337
20
0.080288
30
0.0
11
0.058337
21
0.082865
31
0.0
0
LINE
8
0
6
CONTINUOUS
10
0.058337
20
0.085672
30
0.0
11
0.058337
21
0.088479
31
0.0
0
LINE
8
0
6
CONTINUOUS
10
0.058337
20
0.094093
30
0.0
11
0.058337
21
0.096042
31
0.0
0
LINE
8
0
6
CONTINUOUS
10
0.058337
20
0.088479
30
0.0
11
0.058337
21
0.091286
31
0.0
0
LINE
8
0
6
CONTINUOUS
10
0.013881
20
0.090091
30
0.0
11
0.017076
21
0.088579
31
0.0
0
LINE
8
0
6
CONTINUOUS
10
0.058337
20
0.091286
30
0.0
11
0.058337
21
0.094093
31
0.0
0
LINE
8
0
6
CONTINUOUS
10
-0.029094
20
0.100627
30
0.0
11
-0.028536
21
0.100463
31
0.0
0
LINE
8
0
6
CONTINUOUS
10
-0.028999
20
0.101003
30
0.0
11
-0.029094
21
0.100627
31
0.0
0
LINE
8
0
6
CONTINUOUS
10
-0.028999
20
0.101003
30
0.0
11
-0.028441
21
0.100839
31
0.0
0
LINE
8
0
6
CONTINUOUS
10
-0.028729
20
0.102073
30
0.0
11
-0.028999
21
0.101003
31
0.0
0
LINE
8
0
6
CONTINUOUS
10
-0.028325
20
0.103675
30
0.0
11
-0.028729
21
0.102073
31
0.0
0
LINE
8
0
6
CONTINUOUS
10
0.020798
20
0.083836
30
0.0
11
0.019811
21
0.085552
31
0.0
0
LINE
8
0
6
CONTINUOUS
10
0.019343
20
0.085511
30
0.0
11
0.020193
21
0.083756
31
0.0
0
LINE
8
0
6
CONTINUOUS
10
-0.027848
20
0.105564
30
0.0
11
-0.028325
21
0.103675
31
0.0
0
LINE
8
0
6
CONTINUOUS
10
0.023096
20
0.096900
30
0.0
11
0.021848
21
0.096900
31
0.0
0
LINE
8
0
6
CONTINUOUS
10
0.029907
20
0.097501
30
0.0
11
0.025983
21
0.098009
31
0.0
0
LINE
8
0
6
CONTINUOUS
10
0.020033
20
0.098519
30
0.0
11
0.017467
21
0.099243
31
0.0
0
LINE
8
0
6
CONTINUOUS
10
0.020606
20
0.082437
30
0.0
11
0.020606
21
0.080288
31
0.0
0
LINE
8
0
6
CONTINUOUS
10
0.021250
20
0.096900
30
0.0
11
0.020311
21
0.097094
31
0.0
0
LINE
8
0
6
CONTINUOUS
10
0.017288
20
0.088943
30
0.0
11
0.017519
21
0.090096
31
0.0
0
LINE
8
0
6
CONTINUOUS
10
0.017076
20
0.088579
30
0.0
11
0.018252
21
0.087448
31
0.0
0
LINE
8
0
6
CONTINUOUS
10
0.018008
20
0.097839
30
0.0
11
0.018002
21
0.096986
31
0.0
0
LINE
8
0
6
CONTINUOUS
10
0.019039
20
0.097571
30
0.0
11
0.018008
21
0.097839
31
0.0
0
LINE
8
0
6
CONTINUOUS
10
0.033850
20
0.097136
30
0.0
11
0.029907
21
0.097501
31
0.0
0
LINE
8
0
6
CONTINUOUS
10
-0.026690
20
0.110124
30
0.0
11
-0.026132
21
0.109961
31
0.0
0
LINE
8
0
6
CONTINUOUS
10
-0.026595
20
0.110500
30
0.0
11
-0.026690
21
0.110124
31
0.0
0
LINE
8
0
6
CONTINUOUS
10
-0.026036
20
0.110336
30
0.0
11
-0.026595
21
0.110500
31
0.0
0
LINE
8
0
6
CONTINUOUS
10
0.014532
20
0.100003
30
0.0
11
-0.026132
21
0.109961
31
0.0
0
ENDSEC
0
EOF
