999
Erzeugt mit innoplus bad 
0
SECTION
2
HEADER
9
$ACADVER
1
AC1009
9
$DWGCODEPAGE
3
ISO8859-1
0
ENDSEC
0
SECTION
2
TABLES
0
TABLE
2
LAYER
70
1
0
LAYER
2
0
70
0
62
7
6
CONTINUOUS
0
ENDTAB
0
ENDSEC
0
SECTION
2
ENTITIES
0
LINE
8
0
6
CONTINUOUS
10
0.018225
20
-0.009721
30
0.0
11
0.017792
21
0.007887
31
0.0
0
LINE
8
0
6
CONTINUOUS
10
-0.022380
20
0.007887
30
0.0
11
-0.022813
21
-0.009721
31
0.0
0
LINE
8
0
6
CONTINUOUS
10
0.013932
20
0.025404
30
0.0
11
0.013959
21
0.026251
31
0.0
0
LINE
8
0
6
CONTINUOUS
10
0.003659
20
-0.110500
30
0.0
11
0.009206
21
-0.110500
31
0.0
0
LINE
8
0
6
CONTINUOUS
10
0.020706
20
-0.110500
30
0.0
11
0.020681
21
-0.109500
31
0.0
0
LINE
8
0
6
CONTINUOUS
10
0.019922
20
-0.110500
30
0.0
11
0.020706
21
-0.110500
31
0.0
0
LINE
8
0
6
CONTINUOUS
10
0.013970
20
-0.110500
30
0.0
11
0.017625
21
-0.110500
31
0.0
0
LINE
8
0
6
CONTINUOUS
10
-0.002294
20
-0.110500
30
0.0
11
0.003659
21
-0.110500
31
0.0
0
LINE
8
0
6
CONTINUOUS
10
0.017625
20
-0.110500
30
0.0
11
0.019922
21
-0.110500
31
0.0
0
LINE
8
0
6
CONTINUOUS
10
0.009206
20
-0.110500
30
0.0
11
0.013970
21
-0.110500
31
0.0
0
LINE
8
0
6
CONTINUOUS
10
-0.013794
20
-0.110500
30
0.0
11
-0.008247
21
-0.110500
31
0.0
0
LINE
8
0
6
CONTINUOUS
10
-0.025269
20
-0.109500
30
0.0
11
-0.025294
21
-0.110500
31
0.0
0
LINE
8
0
6
CONTINUOUS
10
-0.025294
20
-0.110500
30
0.0
11
-0.024510
21
-0.110500
31
0.0
0
LINE
8
0
6
CONTINUOUS
10
-0.022212
20
-0.110500
30
0.0
11
-0.018557
21
-0.110500
31
0.0
0
LINE
8
0
6
CONTINUOUS
10
-0.008247
20
-0.110500
30
0.0
11
-0.002294
21
-0.110500
31
0.0
0
LINE
8
0
6
CONTINUOUS
10
-0.024510
20
-0.110500
30
0.0
11
-0.022212
21
-0.110500
31
0.0
0
LINE
8
0
6
CONTINUOUS
10
-0.018557
20
-0.110500
30
0.0
11
-0.013794
21
-0.110500
31
0.0
0
LINE
8
0
6
CONTINUOUS
10
0.016059
20
0.057901
30
0.0
11
0.014161
21
0.057901
31
0.0
0
LINE
8
0
6
CONTINUOUS
10
0.011141
20
0.057901
30
0.0
11
0.007206
21
0.057901
31
0.0
0
LINE
8
0
6
CONTINUOUS
10
0.007206
20
0.057901
30
0.0
11
0.002624
21
0.057901
31
0.0
0
LINE
8
0
6
CONTINUOUS
10
0.016721
20
0.056901
30
0.0
11
0.016706
21
0.057901
31
0.0
0
LINE
8
0
6
CONTINUOUS
10
0.016706
20
0.057901
30
0.0
11
0.016059
21
0.057901
31
0.0
0
LINE
8
0
6
CONTINUOUS
10
0.014161
20
0.057901
30
0.0
11
0.011141
21
0.057901
31
0.0
0
LINE
8
0
6
CONTINUOUS
10
0.002624
20
0.057901
30
0.0
11
-0.002294
21
0.057901
31
0.0
0
LINE
8
0
6
CONTINUOUS
10
-0.018748
20
0.057901
30
0.0
11
-0.020646
21
0.057901
31
0.0
0
LINE
8
0
6
CONTINUOUS
10
-0.011794
20
0.057901
30
0.0
11
-0.015729
21
0.057901
31
0.0
0
LINE
8
0
6
CONTINUOUS
10
-0.007211
20
0.057901
30
0.0
11
-0.011794
21
0.057901
31
0.0
0
LINE
8
0
6
CONTINUOUS
10
-0.021294
20
0.057901
30
0.0
11
-0.021309
21
0.056901
31
0.0
0
LINE
8
0
6
CONTINUOUS
10
-0.020646
20
0.057901
30
0.0
11
-0.021294
21
0.057901
31
0.0
0
LINE
8
0
6
CONTINUOUS
10
-0.015729
20
0.057901
30
0.0
11
-0.018748
21
0.057901
31
0.0
0
LINE
8
0
6
CONTINUOUS
10
-0.002294
20
0.057901
30
0.0
11
-0.007211
21
0.057901
31
0.0
0
LINE
8
0
6
CONTINUOUS
10
0.007965
20
-0.014995
30
0.0
11
0.011405
21
-0.011082
31
0.0
0
LINE
8
0
6
CONTINUOUS
10
0.011405
20
-0.011082
30
0.0
11
0.012908
21
-0.006397
31
0.0
0
LINE
8
0
6
CONTINUOUS
10
0.012908
20
-0.006397
30
0.0
11
0.012932
21
-0.005973
31
0.0
0
LINE
8
0
6
CONTINUOUS
10
0.012908
20
-0.006397
30
0.0
11
0.011439
21
-0.001784
31
0.0
0
LINE
8
0
6
CONTINUOUS
10
-0.002294
20
0.004809
30
0.0
11
0.003326
21
0.003993
31
0.0
0
LINE
8
0
6
CONTINUOUS
10
0.003326
20
0.003993
30
0.0
11
0.008117
21
0.001691
31
0.0
0
LINE
8
0
6
CONTINUOUS
10
0.008117
20
0.001691
30
0.0
11
0.011439
21
-0.001784
31
0.0
0
LINE
8
0
6
CONTINUOUS
10
-0.015993
20
-0.011082
30
0.0
11
-0.012553
21
-0.014995
31
0.0
0
LINE
8
0
6
CONTINUOUS
10
-0.017496
20
-0.006397
30
0.0
11
-0.015993
21
-0.011082
31
0.0
0
LINE
8
0
6
CONTINUOUS
10
-0.017496
20
-0.006397
30
0.0
11
-0.016026
21
-0.001784
31
0.0
0
LINE
8
0
6
CONTINUOUS
10
-0.017519
20
-0.005973
30
0.0
11
-0.017496
21
-0.006397
31
0.0
0
LINE
8
0
6
CONTINUOUS
10
-0.002294
20
0.004809
30
0.0
11
-0.007914
21
0.003993
31
0.0
0
LINE
8
0
6
CONTINUOUS
10
-0.007914
20
0.003993
30
0.0
11
-0.012705
21
0.001691
31
0.0
0
LINE
8
0
6
CONTINUOUS
10
-0.012705
20
0.001691
30
0.0
11
-0.016026
21
-0.001784
31
0.0
0
LINE
8
0
6
CONTINUOUS
10
0.017792
20
0.007887
30
0.0
11
0.017299
21
0.027901
31
0.0
0
LINE
8
0
6
CONTINUOUS
10
0.017299
20
0.027901
30
0.0
11
0.016930
21
0.042901
31
0.0
0
LINE
8
0
6
CONTINUOUS
10
-0.022813
20
-0.009721
30
0.0
11
-0.025269
21
-0.109500
31
0.0
0
LINE
8
0
6
CONTINUOUS
10
0.020681
20
-0.109500
30
0.0
11
0.018225
21
-0.009721
31
0.0
0
LINE
8
0
6
CONTINUOUS
10
0.011341
20
0.040697
30
0.0
11
0.011238
21
0.046420
31
0.0
0
LINE
8
0
6
CONTINUOUS
10
0.011438
20
0.035676
30
0.0
11
0.011341
21
0.040697
31
0.0
0
LINE
8
0
6
CONTINUOUS
10
-0.018444
20
0.023051
30
0.0
11
-0.017519
21
-0.005973
31
0.0
0
LINE
8
0
6
CONTINUOUS
10
-0.018519
20
0.025404
30
0.0
11
-0.018493
21
0.024578
31
0.0
0
LINE
8
0
6
CONTINUOUS
10
-0.016090
20
0.032703
30
0.0
11
-0.016026
21
0.035676
31
0.0
0
LINE
8
0
6
CONTINUOUS
10
0.013857
20
0.023051
30
0.0
11
0.013905
21
0.024578
31
0.0
0
LINE
8
0
6
CONTINUOUS
10
-0.019217
20
0.027118
30
0.0
11
-0.018337
21
0.019672
31
0.0
0
LINE
8
0
6
CONTINUOUS
10
0.013740
20
0.019402
30
0.0
11
0.014363
21
0.026886
31
0.0
0
LINE
8
0
6
CONTINUOUS
10
-0.021887
20
0.027901
30
0.0
11
-0.022380
21
0.007887
31
0.0
0
LINE
8
0
6
CONTINUOUS
10
-0.021518
20
0.042901
30
0.0
11
-0.021887
21
0.027901
31
0.0
0
LINE
8
0
6
CONTINUOUS
10
-0.021309
20
0.056901
30
0.0
11
-0.021518
21
0.042901
31
0.0
0
LINE
8
0
6
CONTINUOUS
10
0.011438
20
0.035676
30
0.0
11
0.011502
21
0.032703
31
0.0
0
LINE
8
0
6
CONTINUOUS
10
0.013905
20
0.024578
30
0.0
11
0.013932
21
0.025404
31
0.0
0
LINE
8
0
6
CONTINUOUS
10
-0.015826
20
0.046420
30
0.0
11
-0.015929
21
0.040697
31
0.0
0
LINE
8
0
6
CONTINUOUS
10
-0.018244
20
0.016763
30
0.0
11
-0.019217
21
0.027118
31
0.0
0
LINE
8
0
6
CONTINUOUS
10
0.012932
20
-0.005973
30
0.0
11
0.013857
21
0.023051
31
0.0
0
LINE
8
0
6
CONTINUOUS
10
0.016930
20
0.042901
30
0.0
11
0.016721
21
0.056901
31
0.0
0
LINE
8
0
6
CONTINUOUS
10
0.011499
20
0.031001
30
0.0
11
0.011502
21
0.032703
31
0.0
0
LINE
8
0
6
CONTINUOUS
10
-0.018493
20
0.024578
30
0.0
11
-0.018444
21
0.023051
31
0.0
0
LINE
8
0
6
CONTINUOUS
10
-0.016087
20
0.031001
30
0.0
11
-0.016090
21
0.032703
31
0.0
0
LINE
8
0
6
CONTINUOUS
10
-0.018546
20
0.026251
30
0.0
11
-0.018519
21
0.025404
31
0.0
0
LINE
8
0
6
CONTINUOUS
10
-0.016026
20
0.035676
30
0.0
11
-0.015929
21
0.040697
31
0.0
0
LINE
8
0
6
CONTINUOUS
10
0.023937
20
-0.054081
30
0.0
11
0.020599
21
-0.054302
31
0.0
0
LINE
8
0
6
CONTINUOUS
10
0.019288
20
-0.054482
30
0.0
11
0.021968
21
-0.054341
31
0.0
0
LINE
8
0
6
CONTINUOUS
10
0.020911
20
-0.053716
30
0.0
11
0.024159
21
-0.054003
31
0.0
0
LINE
8
0
6
CONTINUOUS
10
0.021973
20
-0.052060
30
0.0
11
0.019478
21
-0.051612
31
0.0
0
LINE
8
0
6
CONTINUOUS
10
0.019312
20
-0.053865
30
0.0
11
0.020911
21
-0.053716
31
0.0
0
LINE
8
0
6
CONTINUOUS
10
0.019280
20
-0.052565
30
0.0
11
0.021143
21
-0.052111
31
0.0
0
LINE
8
0
6
CONTINUOUS
10
0.023151
20
-0.052060
30
0.0
11
0.021973
21
-0.052060
31
0.0
0
LINE
8
0
6
CONTINUOUS
10
0.023537
20
-0.054355
30
0.0
11
0.024906
21
-0.054090
31
0.0
0
LINE
8
0
6
CONTINUOUS
10
0.021968
20
-0.054341
30
0.0
11
0.023537
21
-0.054355
31
0.0
0
LINE
8
0
6
CONTINUOUS
10
0.023785
20
-0.052060
30
0.0
11
0.023151
21
-0.052060
31
0.0
0
LINE
8
0
6
CONTINUOUS
10
0.025028
20
-0.052423
30
0.0
11
0.023785
21
-0.052060
31
0.0
0
LINE
8
0
6
CONTINUOUS
10
0.025139
20
-0.054003
30
0.0
11
0.025294
21
-0.052987
31
0.0
0
LINE
8
0
6
CONTINUOUS
10
0.025294
20
-0.052987
30
0.0
11
0.025234
21
-0.052551
31
0.0
0
LINE
8
0
6
CONTINUOUS
10
0.025234
20
-0.052551
30
0.0
11
0.025016
21
-0.052423
31
0.0
0
LINE
8
0
6
CONTINUOUS
10
0.024250
20
-0.052551
30
0.0
11
0.025234
21
-0.052551
31
0.0
0
LINE
8
0
6
CONTINUOUS
10
0.025139
20
-0.054003
30
0.0
11
0.024159
21
-0.054003
31
0.0
0
LINE
8
0
6
CONTINUOUS
10
0.024906
20
-0.054090
30
0.0
11
0.025139
21
-0.054003
31
0.0
0
LINE
8
0
6
CONTINUOUS
10
0.019334
20
-0.054746
30
0.0
11
0.020599
21
-0.054302
31
0.0
0
LINE
8
0
6
CONTINUOUS
10
0.020599
20
-0.054302
30
0.0
11
0.019332
21
-0.054668
31
0.0
0
LINE
8
0
6
CONTINUOUS
10
0.019272
20
-0.052233
30
0.0
11
0.021009
21
-0.051901
31
0.0
0
LINE
8
0
6
CONTINUOUS
10
0.019478
20
-0.051612
30
0.0
11
0.019257
21
-0.051646
31
0.0
0
LINE
8
0
6
CONTINUOUS
10
-0.005082
20
-0.005713
30
0.0
11
-0.002294
21
-0.005415
31
0.0
0
LINE
8
0
6
CONTINUOUS
10
-0.002294
20
-0.005415
30
0.0
11
0.000495
21
-0.005713
31
0.0
0
LINE
8
0
6
CONTINUOUS
10
0.000495
20
-0.005713
30
0.0
11
0.003010
21
-0.006580
31
0.0
0
LINE
8
0
6
CONTINUOUS
10
0.003010
20
-0.006580
30
0.0
11
0.005006
21
-0.007929
31
0.0
0
LINE
8
0
6
CONTINUOUS
10
0.005006
20
-0.007929
30
0.0
11
0.006287
21
-0.009628
31
0.0
0
LINE
8
0
6
CONTINUOUS
10
0.006287
20
-0.009628
30
0.0
11
0.006728
21
-0.011512
31
0.0
0
LINE
8
0
6
CONTINUOUS
10
0.006728
20
-0.011512
30
0.0
11
0.006287
21
-0.013396
31
0.0
0
LINE
8
0
6
CONTINUOUS
10
0.006287
20
-0.013396
30
0.0
11
0.005006
21
-0.015095
31
0.0
0
LINE
8
0
6
CONTINUOUS
10
0.005006
20
-0.015095
30
0.0
11
0.003010
21
-0.016444
31
0.0
0
LINE
8
0
6
CONTINUOUS
10
0.003010
20
-0.016444
30
0.0
11
0.000495
21
-0.017310
31
0.0
0
LINE
8
0
6
CONTINUOUS
10
0.000495
20
-0.017310
30
0.0
11
-0.002294
21
-0.017609
31
0.0
0
LINE
8
0
6
CONTINUOUS
10
-0.002294
20
-0.017609
30
0.0
11
-0.005082
21
-0.017310
31
0.0
0
LINE
8
0
6
CONTINUOUS
10
-0.005082
20
-0.017310
30
0.0
11
-0.007598
21
-0.016444
31
0.0
0
LINE
8
0
6
CONTINUOUS
10
-0.007598
20
-0.016444
30
0.0
11
-0.009594
21
-0.015095
31
0.0
0
LINE
8
0
6
CONTINUOUS
10
-0.009594
20
-0.015095
30
0.0
11
-0.010875
21
-0.013396
31
0.0
0
LINE
8
0
6
CONTINUOUS
10
-0.010875
20
-0.013396
30
0.0
11
-0.011316
21
-0.011512
31
0.0
0
LINE
8
0
6
CONTINUOUS
10
-0.011316
20
-0.011512
30
0.0
11
-0.010875
21
-0.009628
31
0.0
0
LINE
8
0
6
CONTINUOUS
10
-0.010875
20
-0.009628
30
0.0
11
-0.009594
21
-0.007929
31
0.0
0
LINE
8
0
6
CONTINUOUS
10
-0.009594
20
-0.007929
30
0.0
11
-0.007598
21
-0.006580
31
0.0
0
LINE
8
0
6
CONTINUOUS
10
-0.007598
20
-0.006580
30
0.0
11
-0.005082
21
-0.005713
31
0.0
0
LINE
8
0
6
CONTINUOUS
10
-0.014157
20
-0.007061
30
0.0
11
-0.014157
21
-0.010875
31
0.0
0
LINE
8
0
6
CONTINUOUS
10
0.009569
20
-0.010875
30
0.0
11
0.009569
21
-0.007061
31
0.0
0
LINE
8
0
6
CONTINUOUS
10
-0.002294
20
-0.003494
30
0.0
11
-0.005960
21
-0.003886
31
0.0
0
LINE
8
0
6
CONTINUOUS
10
0.001372
20
-0.003886
30
0.0
11
-0.002294
21
-0.003494
31
0.0
0
LINE
8
0
6
CONTINUOUS
10
0.004679
20
-0.005025
30
0.0
11
0.001372
21
-0.003886
31
0.0
0
LINE
8
0
6
CONTINUOUS
10
0.007304
20
-0.006799
30
0.0
11
0.004679
21
-0.005025
31
0.0
0
LINE
8
0
6
CONTINUOUS
10
0.008989
20
-0.009034
30
0.0
11
0.007304
21
-0.006799
31
0.0
0
LINE
8
0
6
CONTINUOUS
10
0.009569
20
-0.011512
30
0.0
11
0.009569
21
-0.010875
31
0.0
0
LINE
8
0
6
CONTINUOUS
10
0.009569
20
-0.011512
30
0.0
11
0.008989
21
-0.009034
31
0.0
0
LINE
8
0
6
CONTINUOUS
10
0.008989
20
-0.013990
30
0.0
11
0.009569
21
-0.011512
31
0.0
0
LINE
8
0
6
CONTINUOUS
10
0.007304
20
-0.016225
30
0.0
11
0.008989
21
-0.013990
31
0.0
0
LINE
8
0
6
CONTINUOUS
10
0.004679
20
-0.017999
30
0.0
11
0.007304
21
-0.016225
31
0.0
0
LINE
8
0
6
CONTINUOUS
10
0.001372
20
-0.019137
30
0.0
11
0.004679
21
-0.017999
31
0.0
0
LINE
8
0
6
CONTINUOUS
10
-0.002294
20
-0.019530
30
0.0
11
0.001372
21
-0.019137
31
0.0
0
LINE
8
0
6
CONTINUOUS
10
-0.005960
20
-0.019137
30
0.0
11
-0.002294
21
-0.019530
31
0.0
0
LINE
8
0
6
CONTINUOUS
10
-0.009267
20
-0.017999
30
0.0
11
-0.005960
21
-0.019137
31
0.0
0
LINE
8
0
6
CONTINUOUS
10
-0.011891
20
-0.016225
30
0.0
11
-0.009267
21
-0.017999
31
0.0
0
LINE
8
0
6
CONTINUOUS
10
-0.013577
20
-0.013990
30
0.0
11
-0.011891
21
-0.016225
31
0.0
0
LINE
8
0
6
CONTINUOUS
10
-0.014157
20
-0.011512
30
0.0
11
-0.013577
21
-0.013990
31
0.0
0
LINE
8
0
6
CONTINUOUS
10
-0.014157
20
-0.010875
30
0.0
11
-0.014157
21
-0.011512
31
0.0
0
LINE
8
0
6
CONTINUOUS
10
-0.013577
20
-0.009034
30
0.0
11
-0.014157
21
-0.011512
31
0.0
0
LINE
8
0
6
CONTINUOUS
10
-0.011891
20
-0.006799
30
0.0
11
-0.013577
21
-0.009034
31
0.0
0
LINE
8
0
6
CONTINUOUS
10
-0.009267
20
-0.005025
30
0.0
11
-0.011891
21
-0.006799
31
0.0
0
LINE
8
0
6
CONTINUOUS
10
-0.005960
20
-0.003886
30
0.0
11
-0.009267
21
-0.005025
31
0.0
0
LINE
8
0
6
CONTINUOUS
10
0.006287
20
-0.013014
30
0.0
11
0.006728
21
-0.011130
31
0.0
0
LINE
8
0
6
CONTINUOUS
10
0.005006
20
-0.014713
30
0.0
11
0.006287
21
-0.013014
31
0.0
0
LINE
8
0
6
CONTINUOUS
10
0.003010
20
-0.016062
30
0.0
11
0.005006
21
-0.014713
31
0.0
0
LINE
8
0
6
CONTINUOUS
10
0.000495
20
-0.016928
30
0.0
11
0.003010
21
-0.016062
31
0.0
0
LINE
8
0
6
CONTINUOUS
10
-0.002294
20
-0.017227
30
0.0
11
0.000495
21
-0.016928
31
0.0
0
LINE
8
0
6
CONTINUOUS
10
-0.005082
20
-0.016928
30
0.0
11
-0.002294
21
-0.017227
31
0.0
0
LINE
8
0
6
CONTINUOUS
10
-0.007598
20
-0.016062
30
0.0
11
-0.005082
21
-0.016928
31
0.0
0
LINE
8
0
6
CONTINUOUS
10
-0.009594
20
-0.014713
30
0.0
11
-0.007598
21
-0.016062
31
0.0
0
LINE
8
0
6
CONTINUOUS
10
-0.010875
20
-0.013014
30
0.0
11
-0.009594
21
-0.014713
31
0.0
0
LINE
8
0
6
CONTINUOUS
10
-0.011316
20
-0.011130
30
0.0
11
-0.010875
21
-0.013014
31
0.0
0
LINE
8
0
6
CONTINUOUS
10
-0.002294
20
0.059031
30
0.0
11
0.002536
21
0.059031
31
0.0
0
LINE
8
0
6
CONTINUOUS
10
0.002536
20
0.059031
30
0.0
11
0.007063
21
0.059031
31
0.0
0
LINE
8
0
6
CONTINUOUS
10
0.007063
20
0.059031
30
0.0
11
0.011063
21
0.059031
31
0.0
0
LINE
8
0
6
CONTINUOUS
10
0.016572
20
0.059031
30
0.0
11
0.016572
21
0.059768
31
0.0
0
LINE
8
0
6
CONTINUOUS
10
0.015893
20
0.059031
30
0.0
11
0.016572
21
0.059031
31
0.0
0
LINE
8
0
6
CONTINUOUS
10
0.014081
20
0.059031
30
0.0
11
0.015893
21
0.059031
31
0.0
0
LINE
8
0
6
CONTINUOUS
10
0.011063
20
0.059031
30
0.0
11
0.014081
21
0.059031
31
0.0
0
LINE
8
0
6
CONTINUOUS
10
-0.007123
20
0.059031
30
0.0
11
-0.002294
21
0.059031
31
0.0
0
LINE
8
0
6
CONTINUOUS
10
-0.011651
20
0.059031
30
0.0
11
-0.007123
21
0.059031
31
0.0
0
LINE
8
0
6
CONTINUOUS
10
-0.015651
20
0.059031
30
0.0
11
-0.011651
21
0.059031
31
0.0
0
LINE
8
0
6
CONTINUOUS
10
-0.021160
20
0.059031
30
0.0
11
-0.020480
21
0.059031
31
0.0
0
LINE
8
0
6
CONTINUOUS
10
-0.021160
20
0.059768
30
0.0
11
-0.021160
21
0.059031
31
0.0
0
LINE
8
0
6
CONTINUOUS
10
-0.020480
20
0.059031
30
0.0
11
-0.018669
21
0.059031
31
0.0
0
LINE
8
0
6
CONTINUOUS
10
-0.018669
20
0.059031
30
0.0
11
-0.015651
21
0.059031
31
0.0
0
LINE
8
0
6
CONTINUOUS
10
0.014784
20
0.057373
30
0.0
11
0.014784
21
0.059768
31
0.0
0
LINE
8
0
6
CONTINUOUS
10
-0.019372
20
0.059768
30
0.0
11
-0.019372
21
0.057373
31
0.0
0
LINE
8
0
6
CONTINUOUS
10
-0.007050
20
0.105401
30
0.0
11
-0.007050
21
0.095843
31
0.0
0
LINE
8
0
6
CONTINUOUS
10
-0.004114
20
0.100839
30
0.0
11
-0.004114
21
0.091184
31
0.0
0
LINE
8
0
6
CONTINUOUS
10
0.002462
20
0.095843
30
0.0
11
0.002462
21
0.105401
31
0.0
0
LINE
8
0
6
CONTINUOUS
10
-0.002294
20
0.100463
30
0.0
11
-0.002294
21
0.090830
31
0.0
0
LINE
8
0
6
CONTINUOUS
10
-0.000474
20
0.091184
30
0.0
11
-0.000474
21
0.100839
31
0.0
0
LINE
8
0
6
CONTINUOUS
10
0.002100
20
0.107453
30
0.0
11
0.001646
21
0.108159
31
0.0
0
LINE
8
0
6
CONTINUOUS
10
0.000401
20
0.109518
30
0.0
11
-0.000474
21
0.110124
31
0.0
0
LINE
8
0
6
CONTINUOUS
10
-0.004114
20
0.110124
30
0.0
11
-0.004989
21
0.109518
31
0.0
0
LINE
8
0
6
CONTINUOUS
10
-0.006234
20
0.108159
30
0.0
11
-0.006688
21
0.107453
31
0.0
0
LINE
8
0
6
CONTINUOUS
10
0.001069
20
0.109054
30
0.0
11
0.000401
21
0.109518
31
0.0
0
LINE
8
0
6
CONTINUOUS
10
0.001646
20
0.108159
30
0.0
11
0.001069
21
0.109054
31
0.0
0
LINE
8
0
6
CONTINUOUS
10
-0.004989
20
0.109518
30
0.0
11
-0.005657
21
0.109054
31
0.0
0
LINE
8
0
6
CONTINUOUS
10
-0.005657
20
0.109054
30
0.0
11
-0.006234
21
0.108159
31
0.0
0
LINE
8
0
6
CONTINUOUS
10
0.002462
20
0.105564
30
0.0
11
0.002100
21
0.107453
31
0.0
0
LINE
8
0
6
CONTINUOUS
10
-0.000474
20
0.110124
30
0.0
11
-0.002294
21
0.110500
31
0.0
0
LINE
8
0
6
CONTINUOUS
10
-0.006688
20
0.107453
30
0.0
11
-0.007050
21
0.105564
31
0.0
0
LINE
8
0
6
CONTINUOUS
10
-0.002294
20
0.110500
30
0.0
11
-0.004114
21
0.110124
31
0.0
0
LINE
8
0
6
CONTINUOUS
10
-0.021160
20
0.080288
30
0.0
11
-0.021160
21
0.059768
31
0.0
0
LINE
8
0
6
CONTINUOUS
10
-0.021160
20
0.096042
30
0.0
11
-0.021160
21
0.094093
31
0.0
0
LINE
8
0
6
CONTINUOUS
10
0.002264
20
0.091493
30
0.0
11
0.001352
21
0.089526
31
0.0
0
LINE
8
0
6
CONTINUOUS
10
0.011063
20
0.096900
30
0.0
11
0.007063
21
0.096900
31
0.0
0
LINE
8
0
6
CONTINUOUS
10
0.015893
20
0.096900
30
0.0
11
0.014081
21
0.096900
31
0.0
0
LINE
8
0
6
CONTINUOUS
10
0.014081
20
0.096900
30
0.0
11
0.011063
21
0.096900
31
0.0
0
LINE
8
0
6
CONTINUOUS
10
0.016572
20
0.096900
30
0.0
11
0.015893
21
0.096900
31
0.0
0
LINE
8
0
6
CONTINUOUS
10
0.016572
20
0.096042
30
0.0
11
0.016572
21
0.096900
31
0.0
0
LINE
8
0
6
CONTINUOUS
10
-0.011651
20
0.096900
30
0.0
11
-0.015651
21
0.096900
31
0.0
0
LINE
8
0
6
CONTINUOUS
10
-0.018669
20
0.096900
30
0.0
11
-0.020480
21
0.096900
31
0.0
0
LINE
8
0
6
CONTINUOUS
10
-0.015651
20
0.096900
30
0.0
11
-0.018669
21
0.096900
31
0.0
0
LINE
8
0
6
CONTINUOUS
10
-0.021160
20
0.096900
30
0.0
11
-0.021160
21
0.096042
31
0.0
0
LINE
8
0
6
CONTINUOUS
10
-0.020480
20
0.096900
30
0.0
11
-0.021160
21
0.096900
31
0.0
0
LINE
8
0
6
CONTINUOUS
10
-0.005657
20
0.090096
30
0.0
11
-0.004702
21
0.087492
31
0.0
0
LINE
8
0
6
CONTINUOUS
10
-0.005657
20
0.090096
30
0.0
11
-0.004114
21
0.088943
31
0.0
0
LINE
8
0
6
CONTINUOUS
10
0.002511
20
0.095699
30
0.0
11
0.003409
21
0.094938
31
0.0
0
LINE
8
0
6
CONTINUOUS
10
-0.005594
20
0.085552
30
0.0
11
-0.006570
21
0.083836
31
0.0
0
LINE
8
0
6
CONTINUOUS
10
0.000115
20
0.087492
30
0.0
11
0.001006
21
0.085552
31
0.0
0
LINE
8
0
6
CONTINUOUS
10
0.002737
20
0.082651
30
0.0
11
0.001982
21
0.083836
31
0.0
0
LINE
8
0
6
CONTINUOUS
10
0.004519
20
0.096900
30
0.0
11
0.003673
21
0.096900
31
0.0
0
LINE
8
0
6
CONTINUOUS
10
0.001069
20
0.090096
30
0.0
11
0.000115
21
0.087492
31
0.0
0
LINE
8
0
6
CONTINUOUS
10
0.000115
20
0.087492
30
0.0
11
0.001352
21
0.089526
31
0.0
0
LINE
8
0
6
CONTINUOUS
10
-0.000474
20
0.090444
30
0.0
11
-0.000474
21
0.091184
31
0.0
0
LINE
8
0
6
CONTINUOUS
10
0.002462
20
0.095110
30
0.0
11
0.002462
21
0.095843
31
0.0
0
LINE
8
0
6
CONTINUOUS
10
0.016572
20
0.094093
30
0.0
11
0.016572
21
0.096042
31
0.0
0
LINE
8
0
6
CONTINUOUS
10
0.016572
20
0.080288
30
0.0
11
0.016572
21
0.082865
31
0.0
0
LINE
8
0
6
CONTINUOUS
10
0.016572
20
0.082865
30
0.0
11
0.016572
21
0.085672
31
0.0
0
LINE
8
0
6
CONTINUOUS
10
0.016572
20
0.091286
30
0.0
11
0.016572
21
0.094093
31
0.0
0
LINE
8
0
6
CONTINUOUS
10
0.016572
20
0.085672
30
0.0
11
0.016572
21
0.088479
31
0.0
0
LINE
8
0
6
CONTINUOUS
10
0.016572
20
0.088479
30
0.0
11
0.016572
21
0.091286
31
0.0
0
LINE
8
0
6
CONTINUOUS
10
-0.000474
20
0.101003
30
0.0
11
-0.002294
21
0.100627
31
0.0
0
LINE
8
0
6
CONTINUOUS
10
-0.000474
20
0.101003
30
0.0
11
-0.000474
21
0.100839
31
0.0
0
LINE
8
0
6
CONTINUOUS
10
0.001069
20
0.102073
30
0.0
11
-0.000474
21
0.101003
31
0.0
0
LINE
8
0
6
CONTINUOUS
10
-0.005594
20
0.085552
30
0.0
11
-0.004702
21
0.087492
31
0.0
0
LINE
8
0
6
CONTINUOUS
10
0.002100
20
0.103675
30
0.0
11
0.001069
21
0.102073
31
0.0
0
LINE
8
0
6
CONTINUOUS
10
0.001982
20
0.083836
30
0.0
11
0.001006
21
0.085552
31
0.0
0
LINE
8
0
6
CONTINUOUS
10
0.002462
20
0.105564
30
0.0
11
0.002100
21
0.103675
31
0.0
0
LINE
8
0
6
CONTINUOUS
10
0.002462
20
0.105401
30
0.0
11
0.002462
21
0.105564
31
0.0
0
LINE
8
0
6
CONTINUOUS
10
0.002462
20
0.093975
30
0.0
11
0.002462
21
0.095110
31
0.0
0
LINE
8
0
6
CONTINUOUS
10
0.007063
20
0.096900
30
0.0
11
0.004519
21
0.096900
31
0.0
0
LINE
8
0
6
CONTINUOUS
10
-0.002294
20
0.090091
30
0.0
11
-0.002294
21
0.090830
31
0.0
0
LINE
8
0
6
CONTINUOUS
10
-0.004114
20
0.091184
30
0.0
11
-0.004114
21
0.090444
31
0.0
0
LINE
8
0
6
CONTINUOUS
10
-0.007050
20
0.095843
30
0.0
11
-0.007050
21
0.095110
31
0.0
0
LINE
8
0
6
CONTINUOUS
10
-0.008261
20
0.096900
30
0.0
11
-0.009107
21
0.096900
31
0.0
0
LINE
8
0
6
CONTINUOUS
10
-0.009107
20
0.096900
30
0.0
11
-0.011651
21
0.096900
31
0.0
0
LINE
8
0
6
CONTINUOUS
10
-0.007255
20
0.097094
30
0.0
11
-0.008261
21
0.096900
31
0.0
0
LINE
8
0
6
CONTINUOUS
10
0.003673
20
0.096900
30
0.0
11
0.002667
21
0.097094
31
0.0
0
LINE
8
0
6
CONTINUOUS
10
-0.021160
20
0.082865
30
0.0
11
-0.021160
21
0.080288
31
0.0
0
LINE
8
0
6
CONTINUOUS
10
-0.021160
20
0.085672
30
0.0
11
-0.021160
21
0.082865
31
0.0
0
LINE
8
0
6
CONTINUOUS
10
-0.000474
20
0.088943
30
0.0
11
0.001069
21
0.090096
31
0.0
0
LINE
8
0
6
CONTINUOUS
10
-0.002294
20
0.088579
30
0.0
11
-0.002294
21
0.090091
31
0.0
0
LINE
8
0
6
CONTINUOUS
10
-0.021160
20
0.094093
30
0.0
11
-0.021160
21
0.091286
31
0.0
0
LINE
8
0
6
CONTINUOUS
10
-0.002294
20
0.088579
30
0.0
11
-0.002294
21
0.087448
31
0.0
0
LINE
8
0
6
CONTINUOUS
10
-0.007050
20
0.095110
30
0.0
11
-0.007050
21
0.093975
31
0.0
0
LINE
8
0
6
CONTINUOUS
10
-0.021160
20
0.088479
30
0.0
11
-0.021160
21
0.085672
31
0.0
0
LINE
8
0
6
CONTINUOUS
10
-0.021160
20
0.091286
30
0.0
11
-0.021160
21
0.088479
31
0.0
0
LINE
8
0
6
CONTINUOUS
10
-0.002294
20
0.100627
30
0.0
11
-0.004114
21
0.101003
31
0.0
0
LINE
8
0
6
CONTINUOUS
10
-0.002294
20
0.100463
30
0.0
11
-0.002294
21
0.100627
31
0.0
0
LINE
8
0
6
CONTINUOUS
10
-0.004114
20
0.101003
30
0.0
11
-0.005657
21
0.102073
31
0.0
0
LINE
8
0
6
CONTINUOUS
10
-0.004114
20
0.100839
30
0.0
11
-0.004114
21
0.101003
31
0.0
0
LINE
8
0
6
CONTINUOUS
10
-0.007325
20
0.082651
30
0.0
11
-0.006570
21
0.083836
31
0.0
0
LINE
8
0
6
CONTINUOUS
10
-0.005657
20
0.102073
30
0.0
11
-0.006688
21
0.103675
31
0.0
0
LINE
8
0
6
CONTINUOUS
10
-0.007050
20
0.105564
30
0.0
11
-0.007050
21
0.105401
31
0.0
0
LINE
8
0
6
CONTINUOUS
10
-0.006688
20
0.103675
30
0.0
11
-0.007050
21
0.105564
31
0.0
0
LINE
8
0
6
CONTINUOUS
10
0.016572
20
0.059768
30
0.0
11
0.016572
21
0.080288
31
0.0
0
LINE
8
0
6
CONTINUOUS
10
0.004679
20
-0.000487
30
0.0
11
0.006659
21
-0.001844
31
0.0
0
LINE
8
0
6
CONTINUOUS
10
0.006659
20
-0.001844
30
0.0
11
0.007304
21
-0.002285
31
0.0
0
LINE
8
0
6
CONTINUOUS
10
-0.009267
20
-0.000487
30
0.0
11
-0.005960
21
0.000667
31
0.0
0
LINE
8
0
6
CONTINUOUS
10
-0.013577
20
-0.004550
30
0.0
11
-0.013998
21
-0.006373
31
0.0
0
LINE
8
0
6
CONTINUOUS
10
-0.011891
20
-0.002285
30
0.0
11
-0.013577
21
-0.004550
31
0.0
0
LINE
8
0
6
CONTINUOUS
10
-0.011247
20
-0.001844
30
0.0
11
-0.009267
21
-0.000487
31
0.0
0
LINE
8
0
6
CONTINUOUS
10
0.009410
20
-0.006373
30
0.0
11
0.009569
21
-0.007061
31
0.0
0
LINE
8
0
6
CONTINUOUS
10
0.008989
20
-0.004550
30
0.0
11
0.009410
21
-0.006373
31
0.0
0
LINE
8
0
6
CONTINUOUS
10
-0.013998
20
-0.006373
30
0.0
11
-0.014157
21
-0.007061
31
0.0
0
LINE
8
0
6
CONTINUOUS
10
0.007304
20
-0.002285
30
0.0
11
0.008989
21
-0.004550
31
0.0
0
ENDSEC
0
EOF
