999
Erzeugt mit innoplus bad 
0
SECTION
2
HEADER
9
$ACADVER
1
AC1009
9
$DWGCODEPAGE
3
ISO8859-1
0
ENDSEC
0
SECTION
2
TABLES
0
TABLE
2
LAYER
70
1
0
LAYER
2
0
70
0
62
7
6
CONTINUOUS
0
ENDTAB
0
ENDSEC
0
SECTION
2
ENTITIES
0
LINE
8
0
6
CONTINUOUS
10
0.032397
20
0.093500
30
0.0
11
0.027832
21
0.093500
31
0.0
0
LINE
8
0
6
CONTINUOUS
10
0.046829
20
0.093500
30
0.0
11
0.042242
21
0.093500
31
0.0
0
LINE
8
0
6
CONTINUOUS
10
0.023897
20
0.093500
30
0.0
11
0.020878
21
0.093500
31
0.0
0
LINE
8
0
6
CONTINUOUS
10
0.042242
20
0.093500
30
0.0
11
0.037340
21
0.093500
31
0.0
0
LINE
8
0
6
CONTINUOUS
10
0.055686
20
0.093500
30
0.0
11
0.053788
21
0.093500
31
0.0
0
LINE
8
0
6
CONTINUOUS
10
0.037340
20
0.093500
30
0.0
11
0.032397
21
0.093500
31
0.0
0
LINE
8
0
6
CONTINUOUS
10
0.056332
20
0.093500
30
0.0
11
0.055686
21
0.093500
31
0.0
0
LINE
8
0
6
CONTINUOUS
10
0.056332
20
0.093110
30
0.0
11
0.056332
21
0.093500
31
0.0
0
LINE
8
0
6
CONTINUOUS
10
0.050767
20
0.093500
30
0.0
11
0.046829
21
0.093500
31
0.0
0
LINE
8
0
6
CONTINUOUS
10
0.027832
20
0.093500
30
0.0
11
0.023897
21
0.093500
31
0.0
0
LINE
8
0
6
CONTINUOUS
10
0.020878
20
0.093500
30
0.0
11
0.018979
21
0.093500
31
0.0
0
LINE
8
0
6
CONTINUOUS
10
0.053788
20
0.093500
30
0.0
11
0.050767
21
0.093500
31
0.0
0
LINE
8
0
6
CONTINUOUS
10
0.056332
20
0.068911
30
0.0
11
0.056332
21
0.093110
31
0.0
0
LINE
8
0
6
CONTINUOUS
10
0.018332
20
0.093500
30
0.0
11
0.018332
21
0.093011
31
0.0
0
LINE
8
0
6
CONTINUOUS
10
0.018979
20
0.093500
30
0.0
11
0.018332
21
0.093500
31
0.0
0
LINE
8
0
6
CONTINUOUS
10
0.013354
20
0.085615
30
0.0
11
0.012523
21
0.084960
31
0.0
0
LINE
8
0
6
CONTINUOUS
10
0.012523
20
0.084960
30
0.0
11
0.012523
21
0.084455
31
0.0
0
LINE
8
0
6
CONTINUOUS
10
0.012812
20
0.085004
30
0.0
11
0.012523
21
0.084960
31
0.0
0
LINE
8
0
6
CONTINUOUS
10
0.012523
20
0.084455
30
0.0
11
0.012523
21
0.068911
31
0.0
0
LINE
8
0
6
CONTINUOUS
10
0.012973
20
0.085027
30
0.0
11
0.013764
21
0.085299
31
0.0
0
LINE
8
0
6
CONTINUOUS
10
0.013764
20
0.085299
30
0.0
11
0.018408
21
0.087396
31
0.0
0
LINE
8
0
6
CONTINUOUS
10
0.018408
20
0.087396
30
0.0
11
0.016244
21
0.087278
31
0.0
0
LINE
8
0
6
CONTINUOUS
10
0.018452
20
0.090149
30
0.0
11
0.018404
21
0.090152
31
0.0
0
LINE
8
0
6
CONTINUOUS
10
0.012928
20
0.068911
30
0.0
11
0.012971
21
0.084519
31
0.0
0
LINE
8
0
6
CONTINUOUS
10
0.012971
20
0.084519
30
0.0
11
0.012973
21
0.085027
31
0.0
0
LINE
8
0
6
CONTINUOUS
10
0.012812
20
0.085004
30
0.0
11
0.012973
21
0.085027
31
0.0
0
LINE
8
0
6
CONTINUOUS
10
0.012973
20
0.085027
30
0.0
11
0.013620
21
0.085632
31
0.0
0
LINE
8
0
6
CONTINUOUS
10
0.018960
20
0.086455
30
0.0
11
0.018960
21
0.087025
31
0.0
0
LINE
8
0
6
CONTINUOUS
10
0.018960
20
0.087025
30
0.0
11
0.018960
21
0.087595
31
0.0
0
LINE
8
0
6
CONTINUOUS
10
0.018313
20
0.090158
30
0.0
11
0.017379
21
0.088870
31
0.0
0
LINE
8
0
6
CONTINUOUS
10
0.018404
20
0.090152
30
0.0
11
0.018313
21
0.090158
31
0.0
0
LINE
8
0
6
CONTINUOUS
10
0.018960
20
0.087595
30
0.0
11
0.018960
21
0.087715
31
0.0
0
LINE
8
0
6
CONTINUOUS
10
0.018960
20
0.089959
30
0.0
11
0.018960
21
0.090114
31
0.0
0
LINE
8
0
6
CONTINUOUS
10
0.018960
20
0.090114
30
0.0
11
0.018877
21
0.090120
31
0.0
0
LINE
8
0
6
CONTINUOUS
10
0.018877
20
0.090120
30
0.0
11
0.018515
21
0.090144
31
0.0
0
LINE
8
0
6
CONTINUOUS
10
0.018515
20
0.090144
30
0.0
11
0.018452
21
0.090149
31
0.0
0
LINE
8
0
6
CONTINUOUS
10
0.015626
20
0.087170
30
0.0
11
0.013354
21
0.085615
31
0.0
0
LINE
8
0
6
CONTINUOUS
10
0.018633
20
0.088741
30
0.0
11
0.018960
21
0.087715
31
0.0
0
LINE
8
0
6
CONTINUOUS
10
0.018960
20
0.087715
30
0.0
11
0.018960
21
0.088837
31
0.0
0
LINE
8
0
6
CONTINUOUS
10
0.018960
20
0.088837
30
0.0
11
0.018960
21
0.089959
31
0.0
0
LINE
8
0
6
CONTINUOUS
10
0.016244
20
0.087278
30
0.0
11
0.018449
21
0.087642
31
0.0
0
LINE
8
0
6
CONTINUOUS
10
0.017268
20
0.088021
30
0.0
11
0.018449
21
0.087642
31
0.0
0
LINE
8
0
6
CONTINUOUS
10
0.018449
20
0.087642
30
0.0
11
0.018633
21
0.088741
31
0.0
0
LINE
8
0
6
CONTINUOUS
10
0.016674
20
0.087887
30
0.0
11
0.015626
21
0.087170
31
0.0
0
LINE
8
0
6
CONTINUOUS
10
0.017379
20
0.088870
30
0.0
11
0.016674
21
0.087887
31
0.0
0
LINE
8
0
6
CONTINUOUS
10
0.018959
20
0.068911
30
0.0
11
0.018960
21
0.086455
31
0.0
0
LINE
8
0
6
CONTINUOUS
10
0.027832
20
0.045057
30
0.0
11
0.032397
21
0.045057
31
0.0
0
LINE
8
0
6
CONTINUOUS
10
0.042242
20
0.045057
30
0.0
11
0.046829
21
0.045057
31
0.0
0
LINE
8
0
6
CONTINUOUS
10
0.020878
20
0.045057
30
0.0
11
0.023897
21
0.045057
31
0.0
0
LINE
8
0
6
CONTINUOUS
10
0.037340
20
0.045057
30
0.0
11
0.042242
21
0.045057
31
0.0
0
LINE
8
0
6
CONTINUOUS
10
0.053788
20
0.045057
30
0.0
11
0.055686
21
0.045057
31
0.0
0
LINE
8
0
6
CONTINUOUS
10
0.032397
20
0.045057
30
0.0
11
0.037340
21
0.045057
31
0.0
0
LINE
8
0
6
CONTINUOUS
10
0.056332
20
0.045057
30
0.0
11
0.056332
21
0.045447
31
0.0
0
LINE
8
0
6
CONTINUOUS
10
0.055686
20
0.045057
30
0.0
11
0.056332
21
0.045057
31
0.0
0
LINE
8
0
6
CONTINUOUS
10
0.046829
20
0.045057
30
0.0
11
0.050767
21
0.045057
31
0.0
0
LINE
8
0
6
CONTINUOUS
10
0.023897
20
0.045057
30
0.0
11
0.027832
21
0.045057
31
0.0
0
LINE
8
0
6
CONTINUOUS
10
0.018979
20
0.045057
30
0.0
11
0.020878
21
0.045057
31
0.0
0
LINE
8
0
6
CONTINUOUS
10
0.050767
20
0.045057
30
0.0
11
0.053788
21
0.045057
31
0.0
0
LINE
8
0
6
CONTINUOUS
10
0.056332
20
0.045447
30
0.0
11
0.056332
21
0.068911
31
0.0
0
LINE
8
0
6
CONTINUOUS
10
0.018332
20
0.045057
30
0.0
11
0.018979
21
0.045057
31
0.0
0
LINE
8
0
6
CONTINUOUS
10
0.018332
20
0.045545
30
0.0
11
0.018332
21
0.045057
31
0.0
0
LINE
8
0
6
CONTINUOUS
10
0.012523
20
0.053597
30
0.0
11
0.013354
21
0.052941
31
0.0
0
LINE
8
0
6
CONTINUOUS
10
0.012523
20
0.053597
30
0.0
11
0.012812
21
0.053553
31
0.0
0
LINE
8
0
6
CONTINUOUS
10
0.012523
20
0.054102
30
0.0
11
0.012523
21
0.053597
31
0.0
0
LINE
8
0
6
CONTINUOUS
10
0.012523
20
0.068911
30
0.0
11
0.012523
21
0.054102
31
0.0
0
LINE
8
0
6
CONTINUOUS
10
0.013764
20
0.053258
30
0.0
11
0.012973
21
0.053529
31
0.0
0
LINE
8
0
6
CONTINUOUS
10
0.013764
20
0.053258
30
0.0
11
0.018408
21
0.051160
31
0.0
0
LINE
8
0
6
CONTINUOUS
10
0.018408
20
0.051160
30
0.0
11
0.016244
21
0.051278
31
0.0
0
LINE
8
0
6
CONTINUOUS
10
0.018404
20
0.048405
30
0.0
11
0.018452
21
0.048408
31
0.0
0
LINE
8
0
6
CONTINUOUS
10
0.012971
20
0.054037
30
0.0
11
0.012928
21
0.068911
31
0.0
0
LINE
8
0
6
CONTINUOUS
10
0.012973
20
0.053529
30
0.0
11
0.012971
21
0.054037
31
0.0
0
LINE
8
0
6
CONTINUOUS
10
0.013620
20
0.052925
30
0.0
11
0.012973
21
0.053529
31
0.0
0
LINE
8
0
6
CONTINUOUS
10
0.012973
20
0.053529
30
0.0
11
0.012812
21
0.053553
31
0.0
0
LINE
8
0
6
CONTINUOUS
10
0.018960
20
0.051532
30
0.0
11
0.018960
21
0.052102
31
0.0
0
LINE
8
0
6
CONTINUOUS
10
0.018960
20
0.050961
30
0.0
11
0.018960
21
0.051532
31
0.0
0
LINE
8
0
6
CONTINUOUS
10
0.018313
20
0.048398
30
0.0
11
0.018404
21
0.048405
31
0.0
0
LINE
8
0
6
CONTINUOUS
10
0.017379
20
0.049686
30
0.0
11
0.018313
21
0.048398
31
0.0
0
LINE
8
0
6
CONTINUOUS
10
0.018960
20
0.050842
30
0.0
11
0.018960
21
0.050961
31
0.0
0
LINE
8
0
6
CONTINUOUS
10
0.018877
20
0.048437
30
0.0
11
0.018960
21
0.048442
31
0.0
0
LINE
8
0
6
CONTINUOUS
10
0.018960
20
0.048442
30
0.0
11
0.018960
21
0.048597
31
0.0
0
LINE
8
0
6
CONTINUOUS
10
0.018515
20
0.048412
30
0.0
11
0.018877
21
0.048437
31
0.0
0
LINE
8
0
6
CONTINUOUS
10
0.018452
20
0.048408
30
0.0
11
0.018515
21
0.048412
31
0.0
0
LINE
8
0
6
CONTINUOUS
10
0.013354
20
0.052941
30
0.0
11
0.015626
21
0.051387
31
0.0
0
LINE
8
0
6
CONTINUOUS
10
0.018960
20
0.049719
30
0.0
11
0.018960
21
0.050842
31
0.0
0
LINE
8
0
6
CONTINUOUS
10
0.018633
20
0.049816
30
0.0
11
0.018960
21
0.050842
31
0.0
0
LINE
8
0
6
CONTINUOUS
10
0.018960
20
0.048597
30
0.0
11
0.018960
21
0.049719
31
0.0
0
LINE
8
0
6
CONTINUOUS
10
0.018633
20
0.049816
30
0.0
11
0.018449
21
0.050914
31
0.0
0
LINE
8
0
6
CONTINUOUS
10
0.017268
20
0.050536
30
0.0
11
0.018449
21
0.050914
31
0.0
0
LINE
8
0
6
CONTINUOUS
10
0.018449
20
0.050914
30
0.0
11
0.016244
21
0.051278
31
0.0
0
LINE
8
0
6
CONTINUOUS
10
0.015626
20
0.051387
30
0.0
11
0.016674
21
0.050670
31
0.0
0
LINE
8
0
6
CONTINUOUS
10
0.016674
20
0.050670
30
0.0
11
0.017379
21
0.049686
31
0.0
0
LINE
8
0
6
CONTINUOUS
10
0.018960
20
0.052102
30
0.0
11
0.018959
21
0.068910
31
0.0
0
LINE
8
0
6
CONTINUOUS
10
0.061151
20
-0.039054
30
0.0
11
0.060752
21
-0.039610
31
0.0
0
LINE
8
0
6
CONTINUOUS
10
0.061358
20
-0.039326
30
0.0
11
0.061770
21
-0.038634
31
0.0
0
LINE
8
0
6
CONTINUOUS
10
0.066836
20
-0.037081
30
0.0
11
0.063231
21
-0.036716
31
0.0
0
LINE
8
0
6
CONTINUOUS
10
0.066836
20
-0.037081
30
0.0
11
0.063656
21
-0.037302
31
0.0
0
LINE
8
0
6
CONTINUOUS
10
0.064391
20
-0.037482
30
0.0
11
0.068226
21
-0.037341
31
0.0
0
LINE
8
0
6
CONTINUOUS
10
0.070786
20
-0.037003
30
0.0
11
0.068698
21
-0.037090
31
0.0
0
LINE
8
0
6
CONTINUOUS
10
0.063231
20
-0.036716
30
0.0
11
0.066649
21
-0.037003
31
0.0
0
LINE
8
0
6
CONTINUOUS
10
0.060753
20
-0.036878
30
0.0
11
0.060023
21
-0.037382
31
0.0
0
LINE
8
0
6
CONTINUOUS
10
0.061624
20
-0.038584
30
0.0
11
0.062184
21
-0.038303
31
0.0
0
LINE
8
0
6
CONTINUOUS
10
0.060981
20
-0.037795
30
0.0
11
0.060395
21
-0.038171
31
0.0
0
LINE
8
0
6
CONTINUOUS
10
0.068234
20
-0.035060
30
0.0
11
0.064663
21
-0.034612
31
0.0
0
LINE
8
0
6
CONTINUOUS
10
0.059580
20
-0.039326
30
0.0
11
0.059848
21
-0.038634
31
0.0
0
LINE
8
0
6
CONTINUOUS
10
0.059265
20
-0.037883
30
0.0
11
0.058841
21
-0.038767
31
0.0
0
LINE
8
0
6
CONTINUOUS
10
0.058166
20
-0.038379
30
0.0
11
0.057645
21
-0.039205
31
0.0
0
LINE
8
0
6
CONTINUOUS
10
0.059338
20
-0.040026
30
0.0
11
0.059580
21
-0.039326
31
0.0
0
LINE
8
0
6
CONTINUOUS
10
0.058841
20
-0.038767
30
0.0
11
0.058643
21
-0.039745
31
0.0
0
LINE
8
0
6
CONTINUOUS
10
0.060395
20
-0.038171
30
0.0
11
0.059848
21
-0.038634
31
0.0
0
LINE
8
0
6
CONTINUOUS
10
0.060753
20
-0.036878
30
0.0
11
0.063231
21
-0.036716
31
0.0
0
LINE
8
0
6
CONTINUOUS
10
0.060715
20
-0.035899
30
0.0
11
0.063124
21
-0.035408
31
0.0
0
LINE
8
0
6
CONTINUOUS
10
0.066659
20
-0.035551
30
0.0
11
0.063239
21
-0.034901
31
0.0
0
LINE
8
0
6
CONTINUOUS
10
0.063139
20
-0.035111
30
0.0
11
0.066659
21
-0.035551
31
0.0
0
LINE
8
0
6
CONTINUOUS
10
0.059768
20
-0.036250
30
0.0
11
0.060835
21
-0.035613
31
0.0
0
LINE
8
0
6
CONTINUOUS
10
0.061103
20
-0.035316
30
0.0
11
0.059892
21
-0.035999
31
0.0
0
LINE
8
0
6
CONTINUOUS
10
0.058757
20
-0.037086
30
0.0
11
0.059768
21
-0.036250
31
0.0
0
LINE
8
0
6
CONTINUOUS
10
0.059892
20
-0.035999
30
0.0
11
0.058773
21
-0.036903
31
0.0
0
LINE
8
0
6
CONTINUOUS
10
0.057995
20
-0.038174
30
0.0
11
0.058757
21
-0.037086
31
0.0
0
LINE
8
0
6
CONTINUOUS
10
0.058773
20
-0.036903
30
0.0
11
0.057920
21
-0.038012
31
0.0
0
LINE
8
0
6
CONTINUOUS
10
0.057920
20
-0.038012
30
0.0
11
0.057253
21
-0.038882
31
0.0
0
LINE
8
0
6
CONTINUOUS
10
0.060835
20
-0.035613
30
0.0
11
0.063139
21
-0.035111
31
0.0
0
LINE
8
0
6
CONTINUOUS
10
0.069919
20
-0.035060
30
0.0
11
0.068234
21
-0.035060
31
0.0
0
LINE
8
0
6
CONTINUOUS
10
0.069780
20
-0.037003
30
0.0
11
0.070786
21
-0.037003
31
0.0
0
LINE
8
0
6
CONTINUOUS
10
0.068459
20
-0.037003
30
0.0
11
0.069194
21
-0.037003
31
0.0
0
LINE
8
0
6
CONTINUOUS
10
0.068479
20
-0.035551
30
0.0
11
0.069326
21
-0.035551
31
0.0
0
LINE
8
0
6
CONTINUOUS
10
0.070471
20
-0.037355
30
0.0
11
0.068698
21
-0.037090
31
0.0
0
LINE
8
0
6
CONTINUOUS
10
0.068226
20
-0.037341
30
0.0
11
0.070471
21
-0.037355
31
0.0
0
LINE
8
0
6
CONTINUOUS
10
0.070826
20
-0.035060
30
0.0
11
0.069919
21
-0.035060
31
0.0
0
LINE
8
0
6
CONTINUOUS
10
0.068631
20
-0.035423
30
0.0
11
0.069559
21
-0.035423
31
0.0
0
LINE
8
0
6
CONTINUOUS
10
0.070826
20
-0.035060
30
0.0
11
0.069559
21
-0.035423
31
0.0
0
LINE
8
0
6
CONTINUOUS
10
0.068459
20
-0.037003
30
0.0
11
0.068436
21
-0.035987
31
0.0
0
LINE
8
0
6
CONTINUOUS
10
0.068436
20
-0.035987
30
0.0
11
0.068479
21
-0.035551
31
0.0
0
LINE
8
0
6
CONTINUOUS
10
0.066659
20
-0.035551
30
0.0
11
0.068479
21
-0.035551
31
0.0
0
LINE
8
0
6
CONTINUOUS
10
0.068459
20
-0.037003
30
0.0
11
0.066649
21
-0.037003
31
0.0
0
LINE
8
0
6
CONTINUOUS
10
0.069194
20
-0.037003
30
0.0
11
0.069780
21
-0.037003
31
0.0
0
LINE
8
0
6
CONTINUOUS
10
0.063656
20
-0.037302
30
0.0
11
0.060981
21
-0.037795
31
0.0
0
LINE
8
0
6
CONTINUOUS
10
0.069559
20
-0.035423
30
0.0
11
0.069326
21
-0.035551
31
0.0
0
LINE
8
0
6
CONTINUOUS
10
0.069326
20
-0.035551
30
0.0
11
0.069282
21
-0.035987
31
0.0
0
LINE
8
0
6
CONTINUOUS
10
0.062272
20
-0.035040
30
0.0
11
0.061103
21
-0.035316
31
0.0
0
LINE
8
0
6
CONTINUOUS
10
0.064663
20
-0.034612
30
0.0
11
0.062272
21
-0.035040
31
0.0
0
LINE
8
0
6
CONTINUOUS
10
0.061103
20
-0.035316
30
0.0
11
0.063239
21
-0.034901
31
0.0
0
LINE
8
0
6
CONTINUOUS
10
0.058643
20
-0.039745
30
0.0
11
0.053149
21
-0.065636
31
0.0
0
LINE
8
0
6
CONTINUOUS
10
0.059338
20
-0.040026
30
0.0
11
0.053613
21
-0.067941
31
0.0
0
LINE
8
0
6
CONTINUOUS
10
0.057253
20
-0.038882
30
0.0
11
0.053231
21
-0.057201
31
0.0
0
LINE
8
0
6
CONTINUOUS
10
0.070471
20
-0.037355
30
0.0
11
0.071148
21
-0.037090
31
0.0
0
LINE
8
0
6
CONTINUOUS
10
0.070786
20
-0.037003
30
0.0
11
0.070471
21
-0.037355
31
0.0
0
LINE
8
0
6
CONTINUOUS
10
0.070786
20
-0.037003
30
0.0
11
0.071148
21
-0.037090
31
0.0
0
LINE
8
0
6
CONTINUOUS
10
0.071148
20
-0.037090
30
0.0
11
0.071468
21
-0.037003
31
0.0
0
LINE
8
0
6
CONTINUOUS
10
0.060752
20
-0.039610
30
0.0
11
0.060389
21
-0.040206
31
0.0
0
LINE
8
0
6
CONTINUOUS
10
0.060992
20
-0.040026
30
0.0
11
0.061358
21
-0.039326
31
0.0
0
LINE
8
0
6
CONTINUOUS
10
0.061624
20
-0.038584
30
0.0
11
0.061151
21
-0.039054
31
0.0
0
LINE
8
0
6
CONTINUOUS
10
0.061770
20
-0.038634
30
0.0
11
0.062263
21
-0.038171
31
0.0
0
LINE
8
0
6
CONTINUOUS
10
0.070786
20
-0.037003
30
0.0
11
0.071468
21
-0.037003
31
0.0
0
LINE
8
0
6
CONTINUOUS
10
0.071558
20
-0.035423
30
0.0
11
0.070826
21
-0.035060
31
0.0
0
LINE
8
0
6
CONTINUOUS
10
0.071518
20
-0.037003
30
0.0
11
0.071670
21
-0.035987
31
0.0
0
LINE
8
0
6
CONTINUOUS
10
0.071468
20
-0.037003
30
0.0
11
0.071518
21
-0.037003
31
0.0
0
LINE
8
0
6
CONTINUOUS
10
0.062184
20
-0.038303
30
0.0
11
0.065369
21
-0.037302
31
0.0
0
LINE
8
0
6
CONTINUOUS
10
0.071670
20
-0.035987
30
0.0
11
0.071629
21
-0.035551
31
0.0
0
LINE
8
0
6
CONTINUOUS
10
0.071629
20
-0.035551
30
0.0
11
0.071558
21
-0.035423
31
0.0
0
LINE
8
0
6
CONTINUOUS
10
0.054919
20
-0.067615
30
0.0
11
0.060992
21
-0.040026
31
0.0
0
LINE
8
0
6
CONTINUOUS
10
0.060389
20
-0.040206
30
0.0
11
0.054293
21
-0.068724
31
0.0
0
LINE
8
0
6
CONTINUOUS
10
0.052900
20
-0.061987
30
0.0
11
0.057645
21
-0.039205
31
0.0
0
LINE
8
0
6
CONTINUOUS
10
0.058287
20
-0.023672
30
0.0
11
0.057899
21
-0.010420
31
0.0
0
LINE
8
0
6
CONTINUOUS
10
0.057413
20
0.006128
30
0.0
11
0.056880
21
0.024310
31
0.0
0
LINE
8
0
6
CONTINUOUS
10
0.022227
20
-0.002359
30
0.0
11
0.018867
21
-0.010555
31
0.0
0
LINE
8
0
6
CONTINUOUS
10
0.015274
20
-0.006815
30
0.0
11
0.011174
21
-0.005243
31
0.0
0
LINE
8
0
6
CONTINUOUS
10
0.015274
20
-0.006815
30
0.0
11
0.014398
21
-0.009695
31
0.0
0
LINE
8
0
6
CONTINUOUS
10
0.018867
20
-0.010555
30
0.0
11
0.015274
21
-0.006815
31
0.0
0
LINE
8
0
6
CONTINUOUS
10
0.018867
20
-0.010555
30
0.0
11
0.016793
21
-0.012816
31
0.0
0
LINE
8
0
6
CONTINUOUS
10
0.016082
20
-0.013588
30
0.0
11
0.016886
21
-0.019276
31
0.0
0
LINE
8
0
6
CONTINUOUS
10
0.019794
20
0.023438
30
0.0
11
0.017917
21
0.025344
31
0.0
0
LINE
8
0
6
CONTINUOUS
10
0.018332
20
0.030605
30
0.0
11
0.017279
21
0.026036
31
0.0
0
LINE
8
0
6
CONTINUOUS
10
0.017917
20
0.025344
30
0.0
11
0.017279
21
0.026036
31
0.0
0
LINE
8
0
6
CONTINUOUS
10
0.017279
20
0.026036
30
0.0
11
0.014610
21
0.023325
31
0.0
0
LINE
8
0
6
CONTINUOUS
10
0.014873
20
0.022450
30
0.0
11
0.014610
21
0.023325
31
0.0
0
LINE
8
0
6
CONTINUOUS
10
0.014610
20
0.023325
30
0.0
11
0.010929
21
0.022070
31
0.0
0
LINE
8
0
6
CONTINUOUS
10
0.015666
20
0.019811
30
0.0
11
0.011320
21
0.018113
31
0.0
0
LINE
8
0
6
CONTINUOUS
10
0.011790
20
0.013499
30
0.0
11
0.016932
21
0.015613
31
0.0
0
LINE
8
0
6
CONTINUOUS
10
0.016932
20
0.015613
30
0.0
11
0.022790
21
0.020089
31
0.0
0
LINE
8
0
6
CONTINUOUS
10
0.019794
20
0.023438
30
0.0
11
0.022790
21
0.020089
31
0.0
0
LINE
8
0
6
CONTINUOUS
10
0.016460
20
-0.031780
30
0.0
11
0.014350
21
-0.092500
31
0.0
0
LINE
8
0
6
CONTINUOUS
10
0.023800
20
0.025019
30
0.0
11
0.022790
21
0.020089
31
0.0
0
LINE
8
0
6
CONTINUOUS
10
0.057899
20
-0.010420
30
0.0
11
0.057413
21
0.006128
31
0.0
0
LINE
8
0
6
CONTINUOUS
10
0.056614
20
0.033889
30
0.0
11
0.056347
21
0.043467
31
0.0
0
LINE
8
0
6
CONTINUOUS
10
0.018332
20
0.043467
30
0.0
11
0.018332
21
0.037443
31
0.0
0
LINE
8
0
6
CONTINUOUS
10
0.018979
20
0.044467
30
0.0
11
0.018332
21
0.044467
31
0.0
0
LINE
8
0
6
CONTINUOUS
10
0.018332
20
0.044467
30
0.0
11
0.018332
21
0.043467
31
0.0
0
LINE
8
0
6
CONTINUOUS
10
0.050767
20
0.044467
30
0.0
11
0.046832
21
0.044467
31
0.0
0
LINE
8
0
6
CONTINUOUS
10
0.056332
20
0.044467
30
0.0
11
0.055685
21
0.044467
31
0.0
0
LINE
8
0
6
CONTINUOUS
10
0.056347
20
0.043467
30
0.0
11
0.056332
21
0.044467
31
0.0
0
LINE
8
0
6
CONTINUOUS
10
0.027832
20
0.044467
30
0.0
11
0.023897
21
0.044467
31
0.0
0
LINE
8
0
6
CONTINUOUS
10
0.042250
20
0.044467
30
0.0
11
0.037332
21
0.044467
31
0.0
0
LINE
8
0
6
CONTINUOUS
10
0.037332
20
0.044467
30
0.0
11
0.032414
21
0.044467
31
0.0
0
LINE
8
0
6
CONTINUOUS
10
0.020878
20
0.044467
30
0.0
11
0.018979
21
0.044467
31
0.0
0
LINE
8
0
6
CONTINUOUS
10
0.055685
20
0.044467
30
0.0
11
0.053787
21
0.044467
31
0.0
0
LINE
8
0
6
CONTINUOUS
10
0.053787
20
0.044467
30
0.0
11
0.050767
21
0.044467
31
0.0
0
LINE
8
0
6
CONTINUOUS
10
0.023897
20
0.044467
30
0.0
11
0.020878
21
0.044467
31
0.0
0
LINE
8
0
6
CONTINUOUS
10
0.046832
20
0.044467
30
0.0
11
0.042250
21
0.044467
31
0.0
0
LINE
8
0
6
CONTINUOUS
10
0.032414
20
0.044467
30
0.0
11
0.027832
21
0.044467
31
0.0
0
LINE
8
0
6
CONTINUOUS
10
0.017407
20
-0.093500
30
0.0
11
0.021063
21
-0.093500
31
0.0
0
LINE
8
0
6
CONTINUOUS
10
0.025827
20
-0.093500
30
0.0
11
0.031374
21
-0.093500
31
0.0
0
LINE
8
0
6
CONTINUOUS
10
0.057249
20
-0.093500
30
0.0
11
0.059547
21
-0.093500
31
0.0
0
LINE
8
0
6
CONTINUOUS
10
0.014325
20
-0.093500
30
0.0
11
0.015109
21
-0.093500
31
0.0
0
LINE
8
0
6
CONTINUOUS
10
0.014350
20
-0.092500
30
0.0
11
0.014325
21
-0.093500
31
0.0
0
LINE
8
0
6
CONTINUOUS
10
0.048829
20
-0.093500
30
0.0
11
0.053593
21
-0.093500
31
0.0
0
LINE
8
0
6
CONTINUOUS
10
0.037328
20
-0.093500
30
0.0
11
0.043281
21
-0.093500
31
0.0
0
LINE
8
0
6
CONTINUOUS
10
0.021063
20
-0.093500
30
0.0
11
0.025827
21
-0.093500
31
0.0
0
LINE
8
0
6
CONTINUOUS
10
0.060330
20
-0.093500
30
0.0
11
0.060306
21
-0.092500
31
0.0
0
LINE
8
0
6
CONTINUOUS
10
0.059547
20
-0.093500
30
0.0
11
0.060330
21
-0.093500
31
0.0
0
LINE
8
0
6
CONTINUOUS
10
0.031374
20
-0.093500
30
0.0
11
0.037328
21
-0.093500
31
0.0
0
LINE
8
0
6
CONTINUOUS
10
0.015109
20
-0.093500
30
0.0
11
0.017407
21
-0.093500
31
0.0
0
LINE
8
0
6
CONTINUOUS
10
0.053593
20
-0.093500
30
0.0
11
0.057249
21
-0.093500
31
0.0
0
LINE
8
0
6
CONTINUOUS
10
0.043281
20
-0.093500
30
0.0
11
0.048829
21
-0.093500
31
0.0
0
LINE
8
0
6
CONTINUOUS
10
0.016886
20
-0.019276
30
0.0
11
0.016866
21
-0.020089
31
0.0
0
LINE
8
0
6
CONTINUOUS
10
0.018332
20
0.031418
30
0.0
11
0.018332
21
0.030605
31
0.0
0
LINE
8
0
6
CONTINUOUS
10
0.023618
20
-0.008353
30
0.0
11
0.027360
21
0.006284
31
0.0
0
LINE
8
0
6
CONTINUOUS
10
0.023070
20
-0.008047
30
0.0
11
0.027360
21
0.006284
31
0.0
0
LINE
8
0
6
CONTINUOUS
10
0.009043
20
-0.005186
30
0.0
11
-0.042118
21
-0.003814
31
0.0
0
LINE
8
0
6
CONTINUOUS
10
0.008807
20
0.021991
30
0.0
11
-0.042118
21
0.020100
31
0.0
0
LINE
8
0
6
CONTINUOUS
10
-0.042118
20
0.000971
30
0.0
11
0.009550
21
0.000252
31
0.0
0
LINE
8
0
6
CONTINUOUS
10
0.009635
20
0.013463
30
0.0
11
-0.042118
21
0.012595
31
0.0
0
LINE
8
0
6
CONTINUOUS
10
0.008627
20
-0.009481
30
0.0
11
0.010741
21
-0.009560
31
0.0
0
LINE
8
0
6
CONTINUOUS
10
-0.043118
20
-0.007557
30
0.0
11
-0.042118
21
-0.007594
31
0.0
0
LINE
8
0
6
CONTINUOUS
10
-0.043118
20
-0.006567
30
0.0
11
-0.043118
21
-0.007557
31
0.0
0
LINE
8
0
6
CONTINUOUS
10
-0.043118
20
0.000985
30
0.0
11
-0.043118
21
-0.003787
31
0.0
0
LINE
8
0
6
CONTINUOUS
10
-0.043118
20
0.000985
30
0.0
11
-0.042118
21
0.000971
31
0.0
0
LINE
8
0
6
CONTINUOUS
10
-0.043118
20
0.006504
30
0.0
11
-0.043118
21
0.000985
31
0.0
0
LINE
8
0
6
CONTINUOUS
10
-0.042118
20
-0.003814
30
0.0
11
-0.043118
21
-0.003787
31
0.0
0
LINE
8
0
6
CONTINUOUS
10
-0.043118
20
-0.006567
30
0.0
11
-0.043118
21
-0.003787
31
0.0
0
LINE
8
0
6
CONTINUOUS
10
-0.043118
20
0.006504
30
0.0
11
-0.043118
21
0.012578
31
0.0
0
LINE
8
0
6
CONTINUOUS
10
-0.043118
20
0.019221
30
0.0
11
-0.043118
21
0.016607
31
0.0
0
LINE
8
0
6
CONTINUOUS
10
-0.043118
20
0.012578
30
0.0
11
-0.042118
21
0.012595
31
0.0
0
LINE
8
0
6
CONTINUOUS
10
-0.043118
20
0.016607
30
0.0
11
-0.043118
21
0.012578
31
0.0
0
LINE
8
0
6
CONTINUOUS
10
-0.043118
20
0.020062
30
0.0
11
-0.043118
21
0.019221
31
0.0
0
LINE
8
0
6
CONTINUOUS
10
-0.042118
20
0.020100
30
0.0
11
-0.043118
21
0.020062
31
0.0
0
LINE
8
0
6
CONTINUOUS
10
0.010929
20
0.022070
30
0.0
11
0.008807
21
0.021991
31
0.0
0
LINE
8
0
6
CONTINUOUS
10
0.009043
20
-0.005186
30
0.0
11
0.011174
21
-0.005243
31
0.0
0
LINE
8
0
6
CONTINUOUS
10
0.011702
20
0.000222
30
0.0
11
0.009550
21
0.000252
31
0.0
0
LINE
8
0
6
CONTINUOUS
10
-0.042118
20
-0.007594
30
0.0
11
0.008627
21
-0.009481
31
0.0
0
LINE
8
0
6
CONTINUOUS
10
0.016793
20
-0.012816
30
0.0
11
0.014398
21
-0.009695
31
0.0
0
LINE
8
0
6
CONTINUOUS
10
0.016082
20
-0.013588
30
0.0
11
0.016793
21
-0.012816
31
0.0
0
LINE
8
0
6
CONTINUOUS
10
0.014105
20
-0.010712
30
0.0
11
0.016082
21
-0.013588
31
0.0
0
LINE
8
0
6
CONTINUOUS
10
0.009635
20
0.013463
30
0.0
11
0.011790
21
0.013499
31
0.0
0
LINE
8
0
6
CONTINUOUS
10
-0.044469
20
0.018544
30
0.0
11
-0.046112
21
0.019354
31
0.0
0
LINE
8
0
6
CONTINUOUS
10
-0.043118
20
0.017641
30
0.0
11
-0.044469
21
0.018544
31
0.0
0
LINE
8
0
6
CONTINUOUS
10
-0.049642
20
0.020300
30
0.0
11
-0.051469
21
0.020420
31
0.0
0
LINE
8
0
6
CONTINUOUS
10
-0.047846
20
0.019943
30
0.0
11
-0.049642
21
0.020300
31
0.0
0
LINE
8
0
6
CONTINUOUS
10
-0.046112
20
0.019354
30
0.0
11
-0.047846
21
0.019943
31
0.0
0
LINE
8
0
6
CONTINUOUS
10
-0.061819
20
-0.007543
30
0.0
11
-0.061711
21
-0.007427
31
0.0
0
LINE
8
0
6
CONTINUOUS
10
-0.061711
20
0.020267
30
0.0
11
-0.061819
21
0.020383
31
0.0
0
LINE
8
0
6
CONTINUOUS
10
-0.044469
20
-0.005704
30
0.0
11
-0.042947
21
-0.004687
31
0.0
0
LINE
8
0
6
CONTINUOUS
10
-0.051469
20
-0.007580
30
0.0
11
-0.049642
21
-0.007460
31
0.0
0
LINE
8
0
6
CONTINUOUS
10
-0.071021
20
0.020420
30
0.0
11
-0.071170
21
0.020420
31
0.0
0
LINE
8
0
6
CONTINUOUS
10
-0.049642
20
-0.007460
30
0.0
11
-0.047846
21
-0.007103
31
0.0
0
LINE
8
0
6
CONTINUOUS
10
-0.047846
20
-0.007103
30
0.0
11
-0.046112
21
-0.006514
31
0.0
0
LINE
8
0
6
CONTINUOUS
10
-0.071170
20
-0.007580
30
0.0
11
-0.071021
21
-0.007580
31
0.0
0
LINE
8
0
6
CONTINUOUS
10
-0.046112
20
-0.006514
30
0.0
11
-0.044469
21
-0.005704
31
0.0
0
LINE
8
0
6
CONTINUOUS
10
-0.061819
20
0.013401
30
0.0
11
-0.061819
21
0.016293
31
0.0
0
LINE
8
0
6
CONTINUOUS
10
-0.061819
20
0.010034
30
0.0
11
-0.061819
21
0.013401
31
0.0
0
LINE
8
0
6
CONTINUOUS
10
-0.061819
20
0.018512
30
0.0
11
-0.061819
21
0.019907
31
0.0
0
LINE
8
0
6
CONTINUOUS
10
-0.061819
20
-0.007067
30
0.0
11
-0.061819
21
-0.005672
31
0.0
0
LINE
8
0
6
CONTINUOUS
10
-0.061819
20
0.020383
30
0.0
11
-0.061969
21
0.020420
31
0.0
0
LINE
8
0
6
CONTINUOUS
10
-0.061819
20
0.019907
30
0.0
11
-0.061819
21
0.020383
31
0.0
0
LINE
8
0
6
CONTINUOUS
10
-0.061819
20
-0.003453
30
0.0
11
-0.061819
21
-0.000561
31
0.0
0
LINE
8
0
6
CONTINUOUS
10
-0.061819
20
0.002806
30
0.0
11
-0.061819
21
0.006420
31
0.0
0
LINE
8
0
6
CONTINUOUS
10
-0.061819
20
-0.005672
30
0.0
11
-0.061819
21
-0.003453
31
0.0
0
LINE
8
0
6
CONTINUOUS
10
-0.061819
20
-0.000561
30
0.0
11
-0.061819
21
0.002806
31
0.0
0
LINE
8
0
6
CONTINUOUS
10
-0.061819
20
0.006420
30
0.0
11
-0.061819
21
0.010034
31
0.0
0
LINE
8
0
6
CONTINUOUS
10
-0.061819
20
0.016293
30
0.0
11
-0.061819
21
0.018512
31
0.0
0
LINE
8
0
6
CONTINUOUS
10
-0.061485
20
0.020420
30
0.0
11
-0.061669
21
0.020420
31
0.0
0
LINE
8
0
6
CONTINUOUS
10
-0.061669
20
-0.007580
30
0.0
11
-0.061485
21
-0.007580
31
0.0
0
LINE
8
0
6
CONTINUOUS
10
-0.061969
20
-0.007580
30
0.0
11
-0.061819
21
-0.007543
31
0.0
0
LINE
8
0
6
CONTINUOUS
10
-0.061819
20
-0.007543
30
0.0
11
-0.061819
21
-0.007067
31
0.0
0
LINE
8
0
6
CONTINUOUS
10
-0.061711
20
-0.007427
30
0.0
11
-0.061669
21
-0.007580
31
0.0
0
LINE
8
0
6
CONTINUOUS
10
-0.061711
20
-0.006955
30
0.0
11
-0.061711
21
-0.007427
31
0.0
0
LINE
8
0
6
CONTINUOUS
10
-0.061669
20
-0.007580
30
0.0
11
-0.061669
21
-0.007103
31
0.0
0
LINE
8
0
6
CONTINUOUS
10
-0.061711
20
0.006420
30
0.0
11
-0.061711
21
0.002836
31
0.0
0
LINE
8
0
6
CONTINUOUS
10
-0.061669
20
0.002796
30
0.0
11
-0.061669
21
0.006420
31
0.0
0
LINE
8
0
6
CONTINUOUS
10
-0.061711
20
0.002836
30
0.0
11
-0.061711
21
-0.000503
31
0.0
0
LINE
8
0
6
CONTINUOUS
10
-0.061669
20
-0.000580
30
0.0
11
-0.061669
21
0.002796
31
0.0
0
LINE
8
0
6
CONTINUOUS
10
-0.061711
20
0.018412
30
0.0
11
-0.061711
21
0.016211
31
0.0
0
LINE
8
0
6
CONTINUOUS
10
-0.061669
20
0.016319
30
0.0
11
-0.061669
21
0.018544
31
0.0
0
LINE
8
0
6
CONTINUOUS
10
-0.061711
20
-0.003371
30
0.0
11
-0.061711
21
-0.005572
31
0.0
0
LINE
8
0
6
CONTINUOUS
10
-0.061669
20
-0.005704
30
0.0
11
-0.061669
21
-0.003480
31
0.0
0
LINE
8
0
6
CONTINUOUS
10
-0.061711
20
0.010004
30
0.0
11
-0.061711
21
0.006420
31
0.0
0
LINE
8
0
6
CONTINUOUS
10
-0.061669
20
0.006420
30
0.0
11
-0.061669
21
0.010043
31
0.0
0
LINE
8
0
6
CONTINUOUS
10
-0.061711
20
0.020267
30
0.0
11
-0.061711
21
0.019795
31
0.0
0
LINE
8
0
6
CONTINUOUS
10
-0.061669
20
0.020420
30
0.0
11
-0.061711
21
0.020267
31
0.0
0
LINE
8
0
6
CONTINUOUS
10
-0.061669
20
0.019943
30
0.0
11
-0.061669
21
0.020420
31
0.0
0
LINE
8
0
6
CONTINUOUS
10
-0.061711
20
-0.005572
30
0.0
11
-0.061711
21
-0.006955
31
0.0
0
LINE
8
0
6
CONTINUOUS
10
-0.061669
20
-0.007103
30
0.0
11
-0.061669
21
-0.005704
31
0.0
0
LINE
8
0
6
CONTINUOUS
10
-0.061711
20
0.013343
30
0.0
11
-0.061711
21
0.010004
31
0.0
0
LINE
8
0
6
CONTINUOUS
10
-0.061669
20
0.010043
30
0.0
11
-0.061669
21
0.013420
31
0.0
0
LINE
8
0
6
CONTINUOUS
10
-0.061711
20
0.019795
30
0.0
11
-0.061711
21
0.018412
31
0.0
0
LINE
8
0
6
CONTINUOUS
10
-0.061669
20
0.018544
30
0.0
11
-0.061669
21
0.019943
31
0.0
0
LINE
8
0
6
CONTINUOUS
10
-0.061711
20
-0.000503
30
0.0
11
-0.061711
21
-0.003371
31
0.0
0
LINE
8
0
6
CONTINUOUS
10
-0.061669
20
-0.003480
30
0.0
11
-0.061669
21
-0.000580
31
0.0
0
LINE
8
0
6
CONTINUOUS
10
-0.061711
20
0.016211
30
0.0
11
-0.061711
21
0.013343
31
0.0
0
LINE
8
0
6
CONTINUOUS
10
-0.061669
20
0.013420
30
0.0
11
-0.061669
21
0.016319
31
0.0
0
LINE
8
0
6
CONTINUOUS
10
-0.051469
20
0.020420
30
0.0
11
-0.061485
21
0.020420
31
0.0
0
LINE
8
0
6
CONTINUOUS
10
-0.061485
20
-0.007580
30
0.0
11
-0.051469
21
-0.007580
31
0.0
0
LINE
8
0
6
CONTINUOUS
10
-0.061969
20
0.020420
30
0.0
11
-0.062079
21
0.020420
31
0.0
0
LINE
8
0
6
CONTINUOUS
10
-0.062079
20
-0.007580
30
0.0
11
-0.061969
21
-0.007580
31
0.0
0
LINE
8
0
6
CONTINUOUS
10
-0.071170
20
-0.007103
30
0.0
11
-0.071170
21
-0.005704
31
0.0
0
LINE
8
0
6
CONTINUOUS
10
-0.071670
20
-0.005268
30
0.0
11
-0.071670
21
-0.006616
31
0.0
0
LINE
8
0
6
CONTINUOUS
10
-0.071523
20
-0.006960
30
0.0
11
-0.071523
21
-0.005576
31
0.0
0
LINE
8
0
6
CONTINUOUS
10
-0.071670
20
-0.007076
30
0.0
11
-0.071523
21
-0.007432
31
0.0
0
LINE
8
0
6
CONTINUOUS
10
-0.071670
20
-0.006616
30
0.0
11
-0.071670
21
-0.007076
31
0.0
0
LINE
8
0
6
CONTINUOUS
10
-0.071170
20
-0.007580
30
0.0
11
-0.071170
21
-0.007103
31
0.0
0
LINE
8
0
6
CONTINUOUS
10
-0.071523
20
-0.007432
30
0.0
11
-0.071170
21
-0.007580
31
0.0
0
LINE
8
0
6
CONTINUOUS
10
-0.071523
20
-0.006960
30
0.0
11
-0.071523
21
-0.007432
31
0.0
0
LINE
8
0
6
CONTINUOUS
10
-0.071670
20
0.015963
30
0.0
11
-0.071670
21
0.013168
31
0.0
0
LINE
8
0
6
CONTINUOUS
10
-0.071523
20
0.016215
30
0.0
11
-0.071523
21
0.013346
31
0.0
0
LINE
8
0
6
CONTINUOUS
10
-0.071670
20
0.019456
30
0.0
11
-0.071670
21
0.018108
31
0.0
0
LINE
8
0
6
CONTINUOUS
10
-0.071523
20
0.018416
30
0.0
11
-0.071523
21
0.019800
31
0.0
0
LINE
8
0
6
CONTINUOUS
10
-0.071170
20
0.010043
30
0.0
11
-0.071170
21
0.013420
31
0.0
0
LINE
8
0
6
CONTINUOUS
10
-0.071523
20
0.010005
30
0.0
11
-0.071523
21
0.013346
31
0.0
0
LINE
8
0
6
CONTINUOUS
10
-0.071170
20
0.020420
30
0.0
11
-0.071523
21
0.020272
31
0.0
0
LINE
8
0
6
CONTINUOUS
10
-0.071170
20
0.019943
30
0.0
11
-0.071170
21
0.020420
31
0.0
0
LINE
8
0
6
CONTINUOUS
10
-0.071670
20
0.019916
30
0.0
11
-0.071670
21
0.019456
31
0.0
0
LINE
8
0
6
CONTINUOUS
10
-0.071523
20
0.020272
30
0.0
11
-0.071670
21
0.019916
31
0.0
0
LINE
8
0
6
CONTINUOUS
10
-0.071523
20
0.019800
30
0.0
11
-0.071523
21
0.020272
31
0.0
0
LINE
8
0
6
CONTINUOUS
10
-0.071170
20
-0.005704
30
0.0
11
-0.071170
21
-0.003480
31
0.0
0
LINE
8
0
6
CONTINUOUS
10
-0.071670
20
-0.003123
30
0.0
11
-0.071670
21
-0.005268
31
0.0
0
LINE
8
0
6
CONTINUOUS
10
-0.071523
20
-0.005576
30
0.0
11
-0.071523
21
-0.003375
31
0.0
0
LINE
8
0
6
CONTINUOUS
10
-0.071670
20
-0.000328
30
0.0
11
-0.071670
21
-0.003123
31
0.0
0
LINE
8
0
6
CONTINUOUS
10
-0.071523
20
-0.003375
30
0.0
11
-0.071523
21
-0.000506
31
0.0
0
LINE
8
0
6
CONTINUOUS
10
-0.071670
20
0.018108
30
0.0
11
-0.071670
21
0.015963
31
0.0
0
LINE
8
0
6
CONTINUOUS
10
-0.071523
20
0.016215
30
0.0
11
-0.071523
21
0.018416
31
0.0
0
LINE
8
0
6
CONTINUOUS
10
-0.071170
20
0.006420
30
0.0
11
-0.071170
21
0.010043
31
0.0
0
LINE
8
0
6
CONTINUOUS
10
-0.071670
20
0.009913
30
0.0
11
-0.071670
21
0.006420
31
0.0
0
LINE
8
0
6
CONTINUOUS
10
-0.071523
20
0.006420
30
0.0
11
-0.071523
21
0.010005
31
0.0
0
LINE
8
0
6
CONTINUOUS
10
-0.071670
20
0.006420
30
0.0
11
-0.071670
21
0.002927
31
0.0
0
LINE
8
0
6
CONTINUOUS
10
-0.071523
20
0.002835
30
0.0
11
-0.071523
21
0.006420
31
0.0
0
LINE
8
0
6
CONTINUOUS
10
-0.071670
20
0.002927
30
0.0
11
-0.071670
21
-0.000328
31
0.0
0
LINE
8
0
6
CONTINUOUS
10
-0.071523
20
0.002835
30
0.0
11
-0.071523
21
-0.000506
31
0.0
0
LINE
8
0
6
CONTINUOUS
10
-0.062079
20
0.020420
30
0.0
11
-0.071021
21
0.020420
31
0.0
0
LINE
8
0
6
CONTINUOUS
10
-0.071021
20
-0.007580
30
0.0
11
-0.062079
21
-0.007580
31
0.0
0
LINE
8
0
6
CONTINUOUS
10
-0.071670
20
0.009913
30
0.0
11
-0.071670
21
0.013168
31
0.0
0
LINE
8
0
6
CONTINUOUS
10
0.016866
20
-0.020089
30
0.0
11
0.016460
21
-0.031780
31
0.0
0
LINE
8
0
6
CONTINUOUS
10
0.060306
20
-0.092500
30
0.0
11
0.059029
21
-0.048945
31
0.0
0
LINE
8
0
6
CONTINUOUS
10
0.058679
20
-0.037026
30
0.0
11
0.058287
21
-0.023672
31
0.0
0
LINE
8
0
6
CONTINUOUS
10
0.018332
20
0.037443
30
0.0
11
0.018332
21
0.031418
31
0.0
0
LINE
8
0
6
CONTINUOUS
10
0.056880
20
0.024310
30
0.0
11
0.056614
21
0.033889
31
0.0
0
LINE
8
0
6
CONTINUOUS
10
0.014105
20
-0.010712
30
0.0
11
0.014398
21
-0.009695
31
0.0
0
LINE
8
0
6
CONTINUOUS
10
0.010741
20
-0.009560
30
0.0
11
0.014105
21
-0.010712
31
0.0
0
LINE
8
0
6
CONTINUOUS
10
0.052900
20
-0.061987
30
0.0
11
0.052931
21
-0.061380
31
0.0
0
LINE
8
0
6
CONTINUOUS
10
0.052954
20
-0.062523
30
0.0
11
0.052900
21
-0.061987
31
0.0
0
LINE
8
0
6
CONTINUOUS
10
0.053088
20
-0.064291
30
0.0
11
0.052954
21
-0.062523
31
0.0
0
ENDSEC
0
EOF
