999
Erzeugt mit innoplus bad 
0
SECTION
2
HEADER
9
$ACADVER
1
AC1009
9
$DWGCODEPAGE
3
ISO8859-1
0
ENDSEC
0
SECTION
2
TABLES
0
TABLE
2
LAYER
70
1
0
LAYER
2
0
70
0
62
7
6
CONTINUOUS
0
ENDTAB
0
ENDSEC
0
SECTION
2
ENTITIES
0
LINE
8
0
6
CONTINUOUS
10
-0.018353
20
0.034336
30
0.0
11
-0.016455
21
0.029771
31
0.0
0
LINE
8
0
6
CONTINUOUS
10
-0.018353
20
0.044181
30
0.0
11
-0.019000
21
0.039279
31
0.0
0
LINE
8
0
6
CONTINUOUS
10
-0.000000
20
0.058271
30
0.0
11
-0.004918
21
0.057625
31
0.0
0
LINE
8
0
6
CONTINUOUS
10
-0.016455
20
0.048768
30
0.0
11
-0.018353
21
0.044181
31
0.0
0
LINE
8
0
6
CONTINUOUS
10
-0.009500
20
0.055727
30
0.0
11
-0.013435
21
0.052706
31
0.0
0
LINE
8
0
6
CONTINUOUS
10
-0.013435
20
0.025836
30
0.0
11
-0.009500
21
0.022816
31
0.0
0
LINE
8
0
6
CONTINUOUS
10
-0.004918
20
0.057625
30
0.0
11
-0.009500
21
0.055727
31
0.0
0
LINE
8
0
6
CONTINUOUS
10
-0.018353
20
0.034336
30
0.0
11
-0.019000
21
0.039279
31
0.0
0
LINE
8
0
6
CONTINUOUS
10
-0.016455
20
0.048768
30
0.0
11
-0.013435
21
0.052706
31
0.0
0
LINE
8
0
6
CONTINUOUS
10
-0.016455
20
0.029771
30
0.0
11
-0.013435
21
0.025836
31
0.0
0
LINE
8
0
6
CONTINUOUS
10
-0.004918
20
0.020918
30
0.0
11
-0.009500
21
0.022816
31
0.0
0
LINE
8
0
6
CONTINUOUS
10
-0.000000
20
0.020271
30
0.0
11
-0.004918
21
0.020918
31
0.0
0
LINE
8
0
6
CONTINUOUS
10
-0.004594
20
0.020318
30
0.0
11
-0.001566
21
0.015661
31
0.0
0
LINE
8
0
6
CONTINUOUS
10
-0.000000
20
0.014462
30
0.0
11
-0.000697
21
0.014750
31
0.0
0
LINE
8
0
6
CONTINUOUS
10
-0.000697
20
0.014715
30
0.0
11
-0.000000
21
0.014462
31
0.0
0
LINE
8
0
6
CONTINUOUS
10
-0.001566
20
0.015661
30
0.0
11
-0.001050
21
0.014867
31
0.0
0
LINE
8
0
6
CONTINUOUS
10
-0.001577
20
0.015703
30
0.0
11
-0.001063
21
0.014912
31
0.0
0
LINE
8
0
6
CONTINUOUS
10
-0.004601
20
0.020346
30
0.0
11
-0.001577
21
0.015703
31
0.0
0
LINE
8
0
6
CONTINUOUS
10
-0.004601
20
0.020346
30
0.0
11
-0.001550
21
0.018183
31
0.0
0
LINE
8
0
6
CONTINUOUS
10
-0.000690
20
0.020342
30
0.0
11
-0.001062
21
0.020391
31
0.0
0
LINE
8
0
6
CONTINUOUS
10
-0.001050
20
0.014867
30
0.0
11
-0.000697
21
0.014715
31
0.0
0
LINE
8
0
6
CONTINUOUS
10
-0.001062
20
0.014910
30
0.0
11
-0.001050
21
0.014867
31
0.0
0
LINE
8
0
6
CONTINUOUS
10
-0.001073
20
0.015559
30
0.0
11
-0.001063
21
0.014912
31
0.0
0
LINE
8
0
6
CONTINUOUS
10
-0.001063
20
0.014912
30
0.0
11
-0.000697
21
0.014750
31
0.0
0
LINE
8
0
6
CONTINUOUS
10
-0.000000
20
0.020251
30
0.0
11
-0.000690
21
0.020342
31
0.0
0
LINE
8
0
6
CONTINUOUS
10
-0.004918
20
0.020899
30
0.0
11
-0.004601
21
0.020346
31
0.0
0
LINE
8
0
6
CONTINUOUS
10
-0.004918
20
0.020899
30
0.0
11
-0.004323
21
0.020757
31
0.0
0
LINE
8
0
6
CONTINUOUS
10
-0.004290
20
0.020816
30
0.0
11
-0.004918
21
0.020899
31
0.0
0
LINE
8
0
6
CONTINUOUS
10
-0.001540
20
0.020454
30
0.0
11
-0.004290
21
0.020816
31
0.0
0
LINE
8
0
6
CONTINUOUS
10
-0.001062
20
0.020391
30
0.0
11
-0.001540
21
0.020454
31
0.0
0
LINE
8
0
6
CONTINUOUS
10
-0.004918
20
0.020899
30
0.0
11
-0.004448
21
0.020572
31
0.0
0
LINE
8
0
6
CONTINUOUS
10
-0.004448
20
0.020572
30
0.0
11
-0.004573
21
0.020388
31
0.0
0
LINE
8
0
6
CONTINUOUS
10
-0.001548
20
0.019207
30
0.0
11
-0.004573
21
0.020388
31
0.0
0
LINE
8
0
6
CONTINUOUS
10
-0.004573
20
0.020388
30
0.0
11
-0.001550
21
0.018183
31
0.0
0
LINE
8
0
6
CONTINUOUS
10
-0.004918
20
0.020898
30
0.0
11
-0.004594
21
0.020318
31
0.0
0
LINE
8
0
6
CONTINUOUS
10
0.016455
20
0.029771
30
0.0
11
0.018353
21
0.034336
31
0.0
0
LINE
8
0
6
CONTINUOUS
10
0.019000
20
0.039279
30
0.0
11
0.018353
21
0.044181
31
0.0
0
LINE
8
0
6
CONTINUOUS
10
0.004918
20
0.057625
30
0.0
11
-0.000000
21
0.058271
31
0.0
0
LINE
8
0
6
CONTINUOUS
10
0.018353
20
0.044181
30
0.0
11
0.016455
21
0.048768
31
0.0
0
LINE
8
0
6
CONTINUOUS
10
0.013435
20
0.052706
30
0.0
11
0.009500
21
0.055727
31
0.0
0
LINE
8
0
6
CONTINUOUS
10
0.009500
20
0.022816
30
0.0
11
0.013435
21
0.025836
31
0.0
0
LINE
8
0
6
CONTINUOUS
10
0.009500
20
0.055727
30
0.0
11
0.004918
21
0.057625
31
0.0
0
LINE
8
0
6
CONTINUOUS
10
0.019000
20
0.039279
30
0.0
11
0.018353
21
0.034336
31
0.0
0
LINE
8
0
6
CONTINUOUS
10
0.013435
20
0.052706
30
0.0
11
0.016455
21
0.048768
31
0.0
0
LINE
8
0
6
CONTINUOUS
10
0.013435
20
0.025836
30
0.0
11
0.016455
21
0.029771
31
0.0
0
LINE
8
0
6
CONTINUOUS
10
0.009500
20
0.022816
30
0.0
11
0.004918
21
0.020918
31
0.0
0
LINE
8
0
6
CONTINUOUS
10
0.004918
20
0.020918
30
0.0
11
-0.000000
21
0.020271
31
0.0
0
LINE
8
0
6
CONTINUOUS
10
-0.000000
20
0.015292
30
0.0
11
-0.000000
21
0.014462
31
0.0
0
LINE
8
0
6
CONTINUOUS
10
0.001566
20
0.015661
30
0.0
11
0.004594
21
0.020318
31
0.0
0
LINE
8
0
6
CONTINUOUS
10
0.000697
20
0.014750
30
0.0
11
-0.000000
21
0.014462
31
0.0
0
LINE
8
0
6
CONTINUOUS
10
-0.000000
20
0.014462
30
0.0
11
0.000697
21
0.014715
31
0.0
0
LINE
8
0
6
CONTINUOUS
10
0.001050
20
0.014867
30
0.0
11
0.001566
21
0.015661
31
0.0
0
LINE
8
0
6
CONTINUOUS
10
0.001063
20
0.014912
30
0.0
11
0.001577
21
0.015703
31
0.0
0
LINE
8
0
6
CONTINUOUS
10
0.001577
20
0.015703
30
0.0
11
0.004601
21
0.020346
31
0.0
0
LINE
8
0
6
CONTINUOUS
10
0.004601
20
0.020346
30
0.0
11
0.001550
21
0.018183
31
0.0
0
LINE
8
0
6
CONTINUOUS
10
0.001062
20
0.020391
30
0.0
11
0.000690
21
0.020342
31
0.0
0
LINE
8
0
6
CONTINUOUS
10
0.001050
20
0.014867
30
0.0
11
0.001062
21
0.014910
31
0.0
0
LINE
8
0
6
CONTINUOUS
10
0.000697
20
0.014715
30
0.0
11
0.001050
21
0.014867
31
0.0
0
LINE
8
0
6
CONTINUOUS
10
0.000697
20
0.014750
30
0.0
11
0.001063
21
0.014912
31
0.0
0
LINE
8
0
6
CONTINUOUS
10
0.001063
20
0.014912
30
0.0
11
0.001073
21
0.015559
31
0.0
0
LINE
8
0
6
CONTINUOUS
10
0.000690
20
0.020342
30
0.0
11
-0.000000
21
0.020251
31
0.0
0
LINE
8
0
6
CONTINUOUS
10
0.004601
20
0.020346
30
0.0
11
0.004918
21
0.020899
31
0.0
0
LINE
8
0
6
CONTINUOUS
10
0.004323
20
0.020757
30
0.0
11
0.004918
21
0.020899
31
0.0
0
LINE
8
0
6
CONTINUOUS
10
0.004918
20
0.020899
30
0.0
11
0.004290
21
0.020816
31
0.0
0
LINE
8
0
6
CONTINUOUS
10
0.004290
20
0.020816
30
0.0
11
0.001540
21
0.020454
31
0.0
0
LINE
8
0
6
CONTINUOUS
10
0.001540
20
0.020454
30
0.0
11
0.001062
21
0.020391
31
0.0
0
LINE
8
0
6
CONTINUOUS
10
0.004448
20
0.020572
30
0.0
11
0.004918
21
0.020899
31
0.0
0
LINE
8
0
6
CONTINUOUS
10
0.001550
20
0.018183
30
0.0
11
0.004573
21
0.020388
31
0.0
0
LINE
8
0
6
CONTINUOUS
10
0.001548
20
0.019207
30
0.0
11
0.004573
21
0.020388
31
0.0
0
LINE
8
0
6
CONTINUOUS
10
0.004573
20
0.020388
30
0.0
11
0.004448
21
0.020572
31
0.0
0
LINE
8
0
6
CONTINUOUS
10
0.004594
20
0.020318
30
0.0
11
0.004918
21
0.020898
31
0.0
0
LINE
8
0
6
CONTINUOUS
10
0.016657
20
0.028566
30
0.0
11
0.016923
21
0.029298
31
0.0
0
LINE
8
0
6
CONTINUOUS
10
-0.016923
20
0.029298
30
0.0
11
-0.016657
21
0.028566
31
0.0
0
LINE
8
0
6
CONTINUOUS
10
-0.016150
20
0.018997
30
0.0
11
-0.015225
21
-0.049379
31
0.0
0
LINE
8
0
6
CONTINUOUS
10
0.015225
20
-0.049379
30
0.0
11
0.016150
21
0.018997
31
0.0
0
LINE
8
0
6
CONTINUOUS
10
0.022216
20
0.045220
30
0.0
11
0.019919
21
0.050768
31
0.0
0
LINE
8
0
6
CONTINUOUS
10
0.016263
20
0.055532
30
0.0
11
0.011500
21
0.059187
31
0.0
0
LINE
8
0
6
CONTINUOUS
10
0.022216
20
0.033313
30
0.0
11
0.023000
21
0.039267
31
0.0
0
LINE
8
0
6
CONTINUOUS
10
0.005953
20
0.061485
30
0.0
11
-0.000000
21
0.062269
31
0.0
0
LINE
8
0
6
CONTINUOUS
10
0.016263
20
0.023001
30
0.0
11
0.019919
21
0.027765
31
0.0
0
LINE
8
0
6
CONTINUOUS
10
0.023000
20
0.039267
30
0.0
11
0.022216
21
0.045220
31
0.0
0
LINE
8
0
6
CONTINUOUS
10
0.019919
20
0.050768
30
0.0
11
0.016263
21
0.055532
31
0.0
0
LINE
8
0
6
CONTINUOUS
10
0.011500
20
0.059187
30
0.0
11
0.005953
21
0.061485
31
0.0
0
LINE
8
0
6
CONTINUOUS
10
0.019919
20
0.027765
30
0.0
11
0.022216
21
0.033313
31
0.0
0
LINE
8
0
6
CONTINUOUS
10
-0.019919
20
0.050768
30
0.0
11
-0.022216
21
0.045220
31
0.0
0
LINE
8
0
6
CONTINUOUS
10
-0.011500
20
0.059187
30
0.0
11
-0.016263
21
0.055532
31
0.0
0
LINE
8
0
6
CONTINUOUS
10
-0.023000
20
0.039267
30
0.0
11
-0.022216
21
0.033313
31
0.0
0
LINE
8
0
6
CONTINUOUS
10
-0.000000
20
0.062269
30
0.0
11
-0.005953
21
0.061485
31
0.0
0
LINE
8
0
6
CONTINUOUS
10
-0.019919
20
0.027765
30
0.0
11
-0.016263
21
0.023001
31
0.0
0
LINE
8
0
6
CONTINUOUS
10
-0.022216
20
0.045220
30
0.0
11
-0.023000
21
0.039267
31
0.0
0
LINE
8
0
6
CONTINUOUS
10
-0.016263
20
0.055532
30
0.0
11
-0.019919
21
0.050768
31
0.0
0
LINE
8
0
6
CONTINUOUS
10
-0.005953
20
0.061485
30
0.0
11
-0.011500
21
0.059187
31
0.0
0
LINE
8
0
6
CONTINUOUS
10
-0.022216
20
0.033313
30
0.0
11
-0.019919
21
0.027765
31
0.0
0
LINE
8
0
6
CONTINUOUS
10
0.009504
20
0.022810
30
0.0
11
0.013443
21
0.025827
31
0.0
0
LINE
8
0
6
CONTINUOUS
10
0.015202
20
-0.050361
30
0.0
11
0.015225
21
-0.049379
31
0.0
0
LINE
8
0
6
CONTINUOUS
10
0.013732
20
-0.055263
30
0.0
11
0.015202
21
-0.050361
31
0.0
0
LINE
8
0
6
CONTINUOUS
10
-0.000000
20
-0.062269
30
0.0
11
0.005620
21
-0.061402
31
0.0
0
LINE
8
0
6
CONTINUOUS
10
0.005620
20
-0.061402
30
0.0
11
0.010411
21
-0.058956
31
0.0
0
LINE
8
0
6
CONTINUOUS
10
0.010411
20
-0.058956
30
0.0
11
0.013732
21
-0.055263
31
0.0
0
LINE
8
0
6
CONTINUOUS
10
-0.015202
20
-0.050361
30
0.0
11
-0.013732
21
-0.055263
31
0.0
0
LINE
8
0
6
CONTINUOUS
10
-0.015225
20
-0.049379
30
0.0
11
-0.015202
21
-0.050361
31
0.0
0
LINE
8
0
6
CONTINUOUS
10
-0.005620
20
-0.061402
30
0.0
11
-0.000000
21
-0.062269
31
0.0
0
LINE
8
0
6
CONTINUOUS
10
-0.010411
20
-0.058956
30
0.0
11
-0.005620
21
-0.061402
31
0.0
0
LINE
8
0
6
CONTINUOUS
10
-0.013732
20
-0.055263
30
0.0
11
-0.010411
21
-0.058956
31
0.0
0
LINE
8
0
6
CONTINUOUS
10
0.016252
20
0.026536
30
0.0
11
0.016657
21
0.028566
31
0.0
0
LINE
8
0
6
CONTINUOUS
10
0.013635
20
0.024729
30
0.0
11
0.013532
21
0.025738
31
0.0
0
LINE
8
0
6
CONTINUOUS
10
0.016199
20
0.022595
30
0.0
11
0.016225
21
0.024540
31
0.0
0
LINE
8
0
6
CONTINUOUS
10
0.013732
20
0.022133
30
0.0
11
0.013796
21
0.018637
31
0.0
0
LINE
8
0
6
CONTINUOUS
10
0.016225
20
0.024540
30
0.0
11
0.016252
21
0.026536
31
0.0
0
LINE
8
0
6
CONTINUOUS
10
0.013635
20
0.024729
30
0.0
11
0.013732
21
0.022133
31
0.0
0
LINE
8
0
6
CONTINUOUS
10
0.016923
20
0.029298
30
0.0
11
0.016984
21
0.029464
31
0.0
0
LINE
8
0
6
CONTINUOUS
10
0.013796
20
0.018637
30
0.0
11
0.013793
21
0.014990
31
0.0
0
LINE
8
0
6
CONTINUOUS
10
0.016150
20
0.018997
30
0.0
11
0.016199
21
0.022595
31
0.0
0
LINE
8
0
6
CONTINUOUS
10
0.013443
20
0.025827
30
0.0
11
0.013964
21
0.026245
31
0.0
0
LINE
8
0
6
CONTINUOUS
10
-0.016657
20
0.028566
30
0.0
11
-0.016252
21
0.026536
31
0.0
0
LINE
8
0
6
CONTINUOUS
10
-0.013532
20
0.025738
30
0.0
11
-0.013635
21
0.024729
31
0.0
0
LINE
8
0
6
CONTINUOUS
10
-0.013796
20
0.018637
30
0.0
11
-0.013732
21
0.022133
31
0.0
0
LINE
8
0
6
CONTINUOUS
10
-0.016225
20
0.024540
30
0.0
11
-0.016199
21
0.022595
31
0.0
0
LINE
8
0
6
CONTINUOUS
10
-0.013732
20
0.022133
30
0.0
11
-0.013635
21
0.024729
31
0.0
0
LINE
8
0
6
CONTINUOUS
10
-0.016252
20
0.026536
30
0.0
11
-0.016225
21
0.024540
31
0.0
0
LINE
8
0
6
CONTINUOUS
10
-0.016984
20
0.029464
30
0.0
11
-0.016923
21
0.029298
31
0.0
0
LINE
8
0
6
CONTINUOUS
10
-0.013964
20
0.026245
30
0.0
11
-0.013444
21
0.025827
31
0.0
0
LINE
8
0
6
CONTINUOUS
10
-0.013444
20
0.025827
30
0.0
11
-0.009527
21
0.022769
31
0.0
0
LINE
8
0
6
CONTINUOUS
10
-0.016199
20
0.022595
30
0.0
11
-0.016150
21
0.018997
31
0.0
0
LINE
8
0
6
CONTINUOUS
10
-0.013793
20
0.014990
30
0.0
11
-0.013796
21
0.018637
31
0.0
0
ENDSEC
0
EOF
