999
Erzeugt mit innoplus bad 
0
SECTION
2
HEADER
9
$ACADVER
1
AC1009
9
$DWGCODEPAGE
3
ISO8859-1
0
ENDSEC
0
SECTION
2
TABLES
0
TABLE
2
LAYER
70
1
0
LAYER
2
0
70
0
62
7
6
CONTINUOUS
0
ENDTAB
0
ENDSEC
0
SECTION
2
ENTITIES
0
LINE
8
0
6
CONTINUOUS
10
-0.016455
20
0.154000
30
0.0
11
-0.018353
21
0.154000
31
0.0
0
LINE
8
0
6
CONTINUOUS
10
-0.009500
20
0.154000
30
0.0
11
-0.013435
21
0.154000
31
0.0
0
LINE
8
0
6
CONTINUOUS
10
-0.019000
20
0.154000
30
0.0
11
-0.019000
21
0.153610
31
0.0
0
LINE
8
0
6
CONTINUOUS
10
-0.018353
20
0.154000
30
0.0
11
-0.019000
21
0.154000
31
0.0
0
LINE
8
0
6
CONTINUOUS
10
-0.013435
20
0.154000
30
0.0
11
-0.016455
21
0.154000
31
0.0
0
LINE
8
0
6
CONTINUOUS
10
-0.004918
20
0.154000
30
0.0
11
-0.009500
21
0.154000
31
0.0
0
LINE
8
0
6
CONTINUOUS
10
-0.019000
20
0.153610
30
0.0
11
-0.019000
21
0.128901
31
0.0
0
LINE
8
0
6
CONTINUOUS
10
-0.000000
20
0.154000
30
0.0
11
-0.004918
21
0.154000
31
0.0
0
LINE
8
0
6
CONTINUOUS
10
-0.000000
20
0.144949
30
0.0
11
-0.000697
21
0.144994
31
0.0
0
LINE
8
0
6
CONTINUOUS
10
-0.001577
20
0.145289
30
0.0
11
-0.001063
21
0.145017
31
0.0
0
LINE
8
0
6
CONTINUOUS
10
-0.001577
20
0.145289
30
0.0
11
-0.004601
21
0.147386
31
0.0
0
LINE
8
0
6
CONTINUOUS
10
-0.004601
20
0.147386
30
0.0
11
-0.001550
21
0.147268
31
0.0
0
LINE
8
0
6
CONTINUOUS
10
-0.000690
20
0.150142
30
0.0
11
-0.001062
21
0.150139
31
0.0
0
LINE
8
0
6
CONTINUOUS
10
-0.001062
20
0.144509
30
0.0
11
-0.001050
21
0.128924
31
0.0
0
LINE
8
0
6
CONTINUOUS
10
-0.001063
20
0.145017
30
0.0
11
-0.001062
21
0.144509
31
0.0
0
LINE
8
0
6
CONTINUOUS
10
-0.001073
20
0.145622
30
0.0
11
-0.001063
21
0.145017
31
0.0
0
LINE
8
0
6
CONTINUOUS
10
-0.001063
20
0.145017
30
0.0
11
-0.000697
21
0.144994
31
0.0
0
LINE
8
0
6
CONTINUOUS
10
-0.004918
20
0.147014
30
0.0
11
-0.004918
21
0.146445
31
0.0
0
LINE
8
0
6
CONTINUOUS
10
-0.004918
20
0.147585
30
0.0
11
-0.004918
21
0.147014
31
0.0
0
LINE
8
0
6
CONTINUOUS
10
-0.000000
20
0.150148
30
0.0
11
-0.000690
21
0.150142
31
0.0
0
LINE
8
0
6
CONTINUOUS
10
-0.004918
20
0.147705
30
0.0
11
-0.004918
21
0.147585
31
0.0
0
LINE
8
0
6
CONTINUOUS
10
-0.004290
20
0.150110
30
0.0
11
-0.004918
21
0.150104
31
0.0
0
LINE
8
0
6
CONTINUOUS
10
-0.004918
20
0.150104
30
0.0
11
-0.004918
21
0.149949
31
0.0
0
LINE
8
0
6
CONTINUOUS
10
-0.001540
20
0.150134
30
0.0
11
-0.004290
21
0.150110
31
0.0
0
LINE
8
0
6
CONTINUOUS
10
-0.001062
20
0.150139
30
0.0
11
-0.001540
21
0.150134
31
0.0
0
LINE
8
0
6
CONTINUOUS
10
-0.004918
20
0.148827
30
0.0
11
-0.004918
21
0.147705
31
0.0
0
LINE
8
0
6
CONTINUOUS
10
-0.004448
20
0.148731
30
0.0
11
-0.004918
21
0.147705
31
0.0
0
LINE
8
0
6
CONTINUOUS
10
-0.004918
20
0.149949
30
0.0
11
-0.004918
21
0.148827
31
0.0
0
LINE
8
0
6
CONTINUOUS
10
-0.004448
20
0.148731
30
0.0
11
-0.004573
21
0.147632
31
0.0
0
LINE
8
0
6
CONTINUOUS
10
-0.001548
20
0.148010
30
0.0
11
-0.004573
21
0.147632
31
0.0
0
LINE
8
0
6
CONTINUOUS
10
-0.004573
20
0.147632
30
0.0
11
-0.001550
21
0.147268
31
0.0
0
LINE
8
0
6
CONTINUOUS
10
-0.004918
20
0.146445
30
0.0
11
-0.004918
21
0.128901
31
0.0
0
LINE
8
0
6
CONTINUOUS
10
-0.018353
20
0.103802
30
0.0
11
-0.016455
21
0.103802
31
0.0
0
LINE
8
0
6
CONTINUOUS
10
-0.013435
20
0.103802
30
0.0
11
-0.009500
21
0.103802
31
0.0
0
LINE
8
0
6
CONTINUOUS
10
-0.019000
20
0.103802
30
0.0
11
-0.018353
21
0.103802
31
0.0
0
LINE
8
0
6
CONTINUOUS
10
-0.019000
20
0.104193
30
0.0
11
-0.019000
21
0.103802
31
0.0
0
LINE
8
0
6
CONTINUOUS
10
-0.016455
20
0.103802
30
0.0
11
-0.013435
21
0.103802
31
0.0
0
LINE
8
0
6
CONTINUOUS
10
-0.009500
20
0.103802
30
0.0
11
-0.004918
21
0.103802
31
0.0
0
LINE
8
0
6
CONTINUOUS
10
-0.019000
20
0.128901
30
0.0
11
-0.019000
21
0.104193
31
0.0
0
LINE
8
0
6
CONTINUOUS
10
-0.004918
20
0.103802
30
0.0
11
-0.000000
21
0.103802
31
0.0
0
LINE
8
0
6
CONTINUOUS
10
-0.000697
20
0.112809
30
0.0
11
-0.000000
21
0.112853
31
0.0
0
LINE
8
0
6
CONTINUOUS
10
-0.001063
20
0.112785
30
0.0
11
-0.001577
21
0.112513
31
0.0
0
LINE
8
0
6
CONTINUOUS
10
-0.001577
20
0.112513
30
0.0
11
-0.004601
21
0.110416
31
0.0
0
LINE
8
0
6
CONTINUOUS
10
-0.004601
20
0.110416
30
0.0
11
-0.001550
21
0.110534
31
0.0
0
LINE
8
0
6
CONTINUOUS
10
-0.001062
20
0.107664
30
0.0
11
-0.000690
21
0.107660
31
0.0
0
LINE
8
0
6
CONTINUOUS
10
-0.001050
20
0.128901
30
0.0
11
-0.001062
21
0.113293
31
0.0
0
LINE
8
0
6
CONTINUOUS
10
-0.001062
20
0.113293
30
0.0
11
-0.001063
21
0.112785
31
0.0
0
LINE
8
0
6
CONTINUOUS
10
-0.000697
20
0.112809
30
0.0
11
-0.001063
21
0.112785
31
0.0
0
LINE
8
0
6
CONTINUOUS
10
-0.001063
20
0.112785
30
0.0
11
-0.001073
21
0.112180
31
0.0
0
LINE
8
0
6
CONTINUOUS
10
-0.004918
20
0.111357
30
0.0
11
-0.004918
21
0.110788
31
0.0
0
LINE
8
0
6
CONTINUOUS
10
-0.004918
20
0.110788
30
0.0
11
-0.004918
21
0.110217
31
0.0
0
LINE
8
0
6
CONTINUOUS
10
-0.000690
20
0.107660
30
0.0
11
-0.000000
21
0.107654
31
0.0
0
LINE
8
0
6
CONTINUOUS
10
-0.004918
20
0.110217
30
0.0
11
-0.004918
21
0.110097
31
0.0
0
LINE
8
0
6
CONTINUOUS
10
-0.004918
20
0.107853
30
0.0
11
-0.004918
21
0.107698
31
0.0
0
LINE
8
0
6
CONTINUOUS
10
-0.004918
20
0.107698
30
0.0
11
-0.004290
21
0.107692
31
0.0
0
LINE
8
0
6
CONTINUOUS
10
-0.004290
20
0.107692
30
0.0
11
-0.001540
21
0.107668
31
0.0
0
LINE
8
0
6
CONTINUOUS
10
-0.001540
20
0.107668
30
0.0
11
-0.001062
21
0.107664
31
0.0
0
LINE
8
0
6
CONTINUOUS
10
-0.004448
20
0.109071
30
0.0
11
-0.004918
21
0.110097
31
0.0
0
LINE
8
0
6
CONTINUOUS
10
-0.004918
20
0.110097
30
0.0
11
-0.004918
21
0.108975
31
0.0
0
LINE
8
0
6
CONTINUOUS
10
-0.004918
20
0.108975
30
0.0
11
-0.004918
21
0.107853
31
0.0
0
LINE
8
0
6
CONTINUOUS
10
-0.001550
20
0.110534
30
0.0
11
-0.004573
21
0.110170
31
0.0
0
LINE
8
0
6
CONTINUOUS
10
-0.001548
20
0.109792
30
0.0
11
-0.004573
21
0.110170
31
0.0
0
LINE
8
0
6
CONTINUOUS
10
-0.004573
20
0.110170
30
0.0
11
-0.004448
21
0.109071
31
0.0
0
LINE
8
0
6
CONTINUOUS
10
-0.004918
20
0.128901
30
0.0
11
-0.004918
21
0.111357
31
0.0
0
LINE
8
0
6
CONTINUOUS
10
0.018353
20
0.154000
30
0.0
11
0.016455
21
0.154000
31
0.0
0
LINE
8
0
6
CONTINUOUS
10
0.013435
20
0.154000
30
0.0
11
0.009500
21
0.154000
31
0.0
0
LINE
8
0
6
CONTINUOUS
10
0.019000
20
0.154000
30
0.0
11
0.018353
21
0.154000
31
0.0
0
LINE
8
0
6
CONTINUOUS
10
0.019000
20
0.153610
30
0.0
11
0.019000
21
0.154000
31
0.0
0
LINE
8
0
6
CONTINUOUS
10
0.016455
20
0.154000
30
0.0
11
0.013435
21
0.154000
31
0.0
0
LINE
8
0
6
CONTINUOUS
10
0.009500
20
0.154000
30
0.0
11
0.004918
21
0.154000
31
0.0
0
LINE
8
0
6
CONTINUOUS
10
0.019000
20
0.128901
30
0.0
11
0.019000
21
0.153610
31
0.0
0
LINE
8
0
6
CONTINUOUS
10
0.004918
20
0.154000
30
0.0
11
-0.000000
21
0.154000
31
0.0
0
LINE
8
0
6
CONTINUOUS
10
-0.000000
20
0.145605
30
0.0
11
-0.000000
21
0.144949
31
0.0
0
LINE
8
0
6
CONTINUOUS
10
-0.000000
20
0.144949
30
0.0
11
-0.000000
21
0.144445
31
0.0
0
LINE
8
0
6
CONTINUOUS
10
0.000697
20
0.144994
30
0.0
11
-0.000000
21
0.144949
31
0.0
0
LINE
8
0
6
CONTINUOUS
10
-0.000000
20
0.144445
30
0.0
11
-0.000000
21
0.128931
31
0.0
0
LINE
8
0
6
CONTINUOUS
10
0.001063
20
0.145017
30
0.0
11
0.001577
21
0.145289
31
0.0
0
LINE
8
0
6
CONTINUOUS
10
0.001577
20
0.145289
30
0.0
11
0.004601
21
0.147386
31
0.0
0
LINE
8
0
6
CONTINUOUS
10
0.004601
20
0.147386
30
0.0
11
0.001550
21
0.147268
31
0.0
0
LINE
8
0
6
CONTINUOUS
10
0.001062
20
0.150139
30
0.0
11
0.000690
21
0.150142
31
0.0
0
LINE
8
0
6
CONTINUOUS
10
0.001050
20
0.128901
30
0.0
11
0.001062
21
0.144509
31
0.0
0
LINE
8
0
6
CONTINUOUS
10
0.001062
20
0.144509
30
0.0
11
0.001063
21
0.145017
31
0.0
0
LINE
8
0
6
CONTINUOUS
10
0.000697
20
0.144994
30
0.0
11
0.001063
21
0.145017
31
0.0
0
LINE
8
0
6
CONTINUOUS
10
0.001063
20
0.145017
30
0.0
11
0.001073
21
0.145622
31
0.0
0
LINE
8
0
6
CONTINUOUS
10
0.004918
20
0.146445
30
0.0
11
0.004918
21
0.147014
31
0.0
0
LINE
8
0
6
CONTINUOUS
10
0.004918
20
0.147014
30
0.0
11
0.004918
21
0.147585
31
0.0
0
LINE
8
0
6
CONTINUOUS
10
0.000690
20
0.150142
30
0.0
11
-0.000000
21
0.150148
31
0.0
0
LINE
8
0
6
CONTINUOUS
10
0.004918
20
0.147585
30
0.0
11
0.004918
21
0.147705
31
0.0
0
LINE
8
0
6
CONTINUOUS
10
0.004918
20
0.149949
30
0.0
11
0.004918
21
0.150104
31
0.0
0
LINE
8
0
6
CONTINUOUS
10
0.004918
20
0.150104
30
0.0
11
0.004290
21
0.150110
31
0.0
0
LINE
8
0
6
CONTINUOUS
10
0.004290
20
0.150110
30
0.0
11
0.001540
21
0.150134
31
0.0
0
LINE
8
0
6
CONTINUOUS
10
0.001540
20
0.150134
30
0.0
11
0.001062
21
0.150139
31
0.0
0
LINE
8
0
6
CONTINUOUS
10
0.004448
20
0.148731
30
0.0
11
0.004918
21
0.147705
31
0.0
0
LINE
8
0
6
CONTINUOUS
10
0.004918
20
0.147705
30
0.0
11
0.004918
21
0.148827
31
0.0
0
LINE
8
0
6
CONTINUOUS
10
0.004918
20
0.148827
30
0.0
11
0.004918
21
0.149949
31
0.0
0
LINE
8
0
6
CONTINUOUS
10
0.001550
20
0.147268
30
0.0
11
0.004573
21
0.147632
31
0.0
0
LINE
8
0
6
CONTINUOUS
10
0.001548
20
0.148010
30
0.0
11
0.004573
21
0.147632
31
0.0
0
LINE
8
0
6
CONTINUOUS
10
0.004573
20
0.147632
30
0.0
11
0.004448
21
0.148731
31
0.0
0
LINE
8
0
6
CONTINUOUS
10
0.004918
20
0.128901
30
0.0
11
0.004918
21
0.146445
31
0.0
0
LINE
8
0
6
CONTINUOUS
10
0.016455
20
0.103802
30
0.0
11
0.018353
21
0.103802
31
0.0
0
LINE
8
0
6
CONTINUOUS
10
0.009500
20
0.103802
30
0.0
11
0.013435
21
0.103802
31
0.0
0
LINE
8
0
6
CONTINUOUS
10
0.019000
20
0.103802
30
0.0
11
0.019000
21
0.104193
31
0.0
0
LINE
8
0
6
CONTINUOUS
10
0.018353
20
0.103802
30
0.0
11
0.019000
21
0.103802
31
0.0
0
LINE
8
0
6
CONTINUOUS
10
0.013435
20
0.103802
30
0.0
11
0.016455
21
0.103802
31
0.0
0
LINE
8
0
6
CONTINUOUS
10
0.004918
20
0.103802
30
0.0
11
0.009500
21
0.103802
31
0.0
0
LINE
8
0
6
CONTINUOUS
10
0.019000
20
0.104193
30
0.0
11
0.019000
21
0.128901
31
0.0
0
LINE
8
0
6
CONTINUOUS
10
-0.000000
20
0.103802
30
0.0
11
0.004918
21
0.103802
31
0.0
0
LINE
8
0
6
CONTINUOUS
10
-0.000000
20
0.112853
30
0.0
11
-0.000000
21
0.112197
31
0.0
0
LINE
8
0
6
CONTINUOUS
10
-0.000000
20
0.112853
30
0.0
11
0.000697
21
0.112809
31
0.0
0
LINE
8
0
6
CONTINUOUS
10
-0.000000
20
0.113358
30
0.0
11
-0.000000
21
0.112853
31
0.0
0
LINE
8
0
6
CONTINUOUS
10
-0.000000
20
0.128901
30
0.0
11
-0.000000
21
0.113358
31
0.0
0
LINE
8
0
6
CONTINUOUS
10
0.001577
20
0.112513
30
0.0
11
0.001063
21
0.112785
31
0.0
0
LINE
8
0
6
CONTINUOUS
10
0.001577
20
0.112513
30
0.0
11
0.004601
21
0.110416
31
0.0
0
LINE
8
0
6
CONTINUOUS
10
0.004601
20
0.110416
30
0.0
11
0.001550
21
0.110534
31
0.0
0
LINE
8
0
6
CONTINUOUS
10
0.000690
20
0.107660
30
0.0
11
0.001062
21
0.107664
31
0.0
0
LINE
8
0
6
CONTINUOUS
10
0.001062
20
0.113293
30
0.0
11
0.001050
21
0.128878
31
0.0
0
LINE
8
0
6
CONTINUOUS
10
0.001063
20
0.112785
30
0.0
11
0.001062
21
0.113293
31
0.0
0
LINE
8
0
6
CONTINUOUS
10
0.001073
20
0.112180
30
0.0
11
0.001063
21
0.112785
31
0.0
0
LINE
8
0
6
CONTINUOUS
10
0.001063
20
0.112785
30
0.0
11
0.000697
21
0.112809
31
0.0
0
LINE
8
0
6
CONTINUOUS
10
0.004918
20
0.110788
30
0.0
11
0.004918
21
0.111357
31
0.0
0
LINE
8
0
6
CONTINUOUS
10
0.004918
20
0.110217
30
0.0
11
0.004918
21
0.110788
31
0.0
0
LINE
8
0
6
CONTINUOUS
10
-0.000000
20
0.107654
30
0.0
11
0.000690
21
0.107660
31
0.0
0
LINE
8
0
6
CONTINUOUS
10
0.004918
20
0.110097
30
0.0
11
0.004918
21
0.110217
31
0.0
0
LINE
8
0
6
CONTINUOUS
10
0.004290
20
0.107692
30
0.0
11
0.004918
21
0.107698
31
0.0
0
LINE
8
0
6
CONTINUOUS
10
0.004918
20
0.107698
30
0.0
11
0.004918
21
0.107853
31
0.0
0
LINE
8
0
6
CONTINUOUS
10
0.001540
20
0.107668
30
0.0
11
0.004290
21
0.107692
31
0.0
0
LINE
8
0
6
CONTINUOUS
10
0.001062
20
0.107664
30
0.0
11
0.001540
21
0.107668
31
0.0
0
LINE
8
0
6
CONTINUOUS
10
0.004918
20
0.108975
30
0.0
11
0.004918
21
0.110097
31
0.0
0
LINE
8
0
6
CONTINUOUS
10
0.004448
20
0.109071
30
0.0
11
0.004918
21
0.110097
31
0.0
0
LINE
8
0
6
CONTINUOUS
10
0.004918
20
0.107853
30
0.0
11
0.004918
21
0.108975
31
0.0
0
LINE
8
0
6
CONTINUOUS
10
0.004448
20
0.109071
30
0.0
11
0.004573
21
0.110170
31
0.0
0
LINE
8
0
6
CONTINUOUS
10
0.001548
20
0.109792
30
0.0
11
0.004573
21
0.110170
31
0.0
0
LINE
8
0
6
CONTINUOUS
10
0.004573
20
0.110170
30
0.0
11
0.001550
21
0.110534
31
0.0
0
LINE
8
0
6
CONTINUOUS
10
0.004918
20
0.111357
30
0.0
11
0.004918
21
0.128901
31
0.0
0
LINE
8
0
6
CONTINUOUS
10
-0.020086
20
0.052387
30
0.0
11
-0.022975
21
-0.153000
31
0.0
0
LINE
8
0
6
CONTINUOUS
10
0.016657
20
0.071386
30
0.0
11
0.016034
21
0.063902
31
0.0
0
LINE
8
0
6
CONTINUOUS
10
-0.016043
20
0.064172
30
0.0
11
-0.016923
21
0.071618
31
0.0
0
LINE
8
0
6
CONTINUOUS
10
-0.016150
20
0.067551
30
0.0
11
-0.015225
21
0.038527
31
0.0
0
LINE
8
0
6
CONTINUOUS
10
0.015225
20
0.038527
30
0.0
11
0.016150
21
0.067551
31
0.0
0
LINE
8
0
6
CONTINUOUS
10
0.005953
20
-0.154000
30
0.0
11
0.011500
21
-0.154000
31
0.0
0
LINE
8
0
6
CONTINUOUS
10
0.023000
20
-0.154000
30
0.0
11
0.022975
21
-0.153000
31
0.0
0
LINE
8
0
6
CONTINUOUS
10
0.022216
20
-0.154000
30
0.0
11
0.023000
21
-0.154000
31
0.0
0
LINE
8
0
6
CONTINUOUS
10
0.016263
20
-0.154000
30
0.0
11
0.019919
21
-0.154000
31
0.0
0
LINE
8
0
6
CONTINUOUS
10
-0.000000
20
-0.154000
30
0.0
11
0.005953
21
-0.154000
31
0.0
0
LINE
8
0
6
CONTINUOUS
10
0.019919
20
-0.154000
30
0.0
11
0.022216
21
-0.154000
31
0.0
0
LINE
8
0
6
CONTINUOUS
10
0.011500
20
-0.154000
30
0.0
11
0.016263
21
-0.154000
31
0.0
0
LINE
8
0
6
CONTINUOUS
10
-0.011500
20
-0.154000
30
0.0
11
-0.005953
21
-0.154000
31
0.0
0
LINE
8
0
6
CONTINUOUS
10
-0.022975
20
-0.153000
30
0.0
11
-0.023000
21
-0.154000
31
0.0
0
LINE
8
0
6
CONTINUOUS
10
-0.023000
20
-0.154000
30
0.0
11
-0.022216
21
-0.154000
31
0.0
0
LINE
8
0
6
CONTINUOUS
10
-0.019919
20
-0.154000
30
0.0
11
-0.016263
21
-0.154000
31
0.0
0
LINE
8
0
6
CONTINUOUS
10
-0.005953
20
-0.154000
30
0.0
11
-0.000000
21
-0.154000
31
0.0
0
LINE
8
0
6
CONTINUOUS
10
-0.022216
20
-0.154000
30
0.0
11
-0.019919
21
-0.154000
31
0.0
0
LINE
8
0
6
CONTINUOUS
10
-0.016263
20
-0.154000
30
0.0
11
-0.011500
21
-0.154000
31
0.0
0
LINE
8
0
6
CONTINUOUS
10
0.018353
20
0.102401
30
0.0
11
0.016454
21
0.102401
31
0.0
0
LINE
8
0
6
CONTINUOUS
10
0.013435
20
0.102401
30
0.0
11
0.009500
21
0.102401
31
0.0
0
LINE
8
0
6
CONTINUOUS
10
0.009500
20
0.102401
30
0.0
11
0.004918
21
0.102401
31
0.0
0
LINE
8
0
6
CONTINUOUS
10
0.019015
20
0.101401
30
0.0
11
0.019000
21
0.102401
31
0.0
0
LINE
8
0
6
CONTINUOUS
10
0.019000
20
0.102401
30
0.0
11
0.018353
21
0.102401
31
0.0
0
LINE
8
0
6
CONTINUOUS
10
0.016454
20
0.102401
30
0.0
11
0.013435
21
0.102401
31
0.0
0
LINE
8
0
6
CONTINUOUS
10
0.004918
20
0.102401
30
0.0
11
-0.000000
21
0.102401
31
0.0
0
LINE
8
0
6
CONTINUOUS
10
-0.016454
20
0.102401
30
0.0
11
-0.018353
21
0.102401
31
0.0
0
LINE
8
0
6
CONTINUOUS
10
-0.009500
20
0.102401
30
0.0
11
-0.013435
21
0.102401
31
0.0
0
LINE
8
0
6
CONTINUOUS
10
-0.004918
20
0.102401
30
0.0
11
-0.009500
21
0.102401
31
0.0
0
LINE
8
0
6
CONTINUOUS
10
-0.019000
20
0.102401
30
0.0
11
-0.019015
21
0.101401
31
0.0
0
LINE
8
0
6
CONTINUOUS
10
-0.018353
20
0.102401
30
0.0
11
-0.019000
21
0.102401
31
0.0
0
LINE
8
0
6
CONTINUOUS
10
-0.013435
20
0.102401
30
0.0
11
-0.016454
21
0.102401
31
0.0
0
LINE
8
0
6
CONTINUOUS
10
-0.000000
20
0.102401
30
0.0
11
-0.004918
21
0.102401
31
0.0
0
LINE
8
0
6
CONTINUOUS
10
0.010259
20
0.029505
30
0.0
11
0.013699
21
0.033418
31
0.0
0
LINE
8
0
6
CONTINUOUS
10
0.013699
20
0.033418
30
0.0
11
0.015202
21
0.038103
31
0.0
0
LINE
8
0
6
CONTINUOUS
10
0.015202
20
0.038103
30
0.0
11
0.015225
21
0.038527
31
0.0
0
LINE
8
0
6
CONTINUOUS
10
0.015202
20
0.038103
30
0.0
11
0.013732
21
0.042716
31
0.0
0
LINE
8
0
6
CONTINUOUS
10
-0.000000
20
0.049309
30
0.0
11
0.005620
21
0.048493
31
0.0
0
LINE
8
0
6
CONTINUOUS
10
0.005620
20
0.048493
30
0.0
11
0.010411
21
0.046191
31
0.0
0
LINE
8
0
6
CONTINUOUS
10
0.010411
20
0.046191
30
0.0
11
0.013732
21
0.042716
31
0.0
0
LINE
8
0
6
CONTINUOUS
10
-0.013699
20
0.033418
30
0.0
11
-0.010259
21
0.029505
31
0.0
0
LINE
8
0
6
CONTINUOUS
10
-0.015202
20
0.038103
30
0.0
11
-0.013699
21
0.033418
31
0.0
0
LINE
8
0
6
CONTINUOUS
10
-0.015202
20
0.038103
30
0.0
11
-0.013732
21
0.042716
31
0.0
0
LINE
8
0
6
CONTINUOUS
10
-0.015225
20
0.038527
30
0.0
11
-0.015202
21
0.038103
31
0.0
0
LINE
8
0
6
CONTINUOUS
10
-0.000000
20
0.049309
30
0.0
11
-0.005620
21
0.048493
31
0.0
0
LINE
8
0
6
CONTINUOUS
10
-0.005620
20
0.048493
30
0.0
11
-0.010411
21
0.046191
31
0.0
0
LINE
8
0
6
CONTINUOUS
10
-0.010411
20
0.046191
30
0.0
11
-0.013732
21
0.042716
31
0.0
0
LINE
8
0
6
CONTINUOUS
10
0.020086
20
0.052387
30
0.0
11
0.019593
21
0.072401
31
0.0
0
LINE
8
0
6
CONTINUOUS
10
0.019593
20
0.072401
30
0.0
11
0.019224
21
0.087401
31
0.0
0
LINE
8
0
6
CONTINUOUS
10
0.022975
20
-0.153000
30
0.0
11
0.020086
21
0.052387
31
0.0
0
LINE
8
0
6
CONTINUOUS
10
0.013635
20
0.085197
30
0.0
11
0.013532
21
0.090920
31
0.0
0
LINE
8
0
6
CONTINUOUS
10
0.016199
20
0.069078
30
0.0
11
0.016225
21
0.069904
31
0.0
0
LINE
8
0
6
CONTINUOUS
10
0.013732
20
0.080176
30
0.0
11
0.013796
21
0.077203
31
0.0
0
LINE
8
0
6
CONTINUOUS
10
0.016225
20
0.069904
30
0.0
11
0.016252
21
0.070751
31
0.0
0
LINE
8
0
6
CONTINUOUS
10
0.013635
20
0.085197
30
0.0
11
0.013732
21
0.080176
31
0.0
0
LINE
8
0
6
CONTINUOUS
10
0.013796
20
0.077203
30
0.0
11
0.013793
21
0.075501
31
0.0
0
LINE
8
0
6
CONTINUOUS
10
0.016150
20
0.067551
30
0.0
11
0.016199
21
0.069078
31
0.0
0
LINE
8
0
6
CONTINUOUS
10
-0.019593
20
0.072401
30
0.0
11
-0.020086
21
0.052387
31
0.0
0
LINE
8
0
6
CONTINUOUS
10
-0.019224
20
0.087401
30
0.0
11
-0.019593
21
0.072401
31
0.0
0
LINE
8
0
6
CONTINUOUS
10
-0.019015
20
0.101401
30
0.0
11
-0.019224
21
0.087401
31
0.0
0
LINE
8
0
6
CONTINUOUS
10
-0.015950
20
0.061264
30
0.0
11
-0.016923
21
0.071618
31
0.0
0
LINE
8
0
6
CONTINUOUS
10
-0.013532
20
0.090920
30
0.0
11
-0.013635
21
0.085197
31
0.0
0
LINE
8
0
6
CONTINUOUS
10
-0.013796
20
0.077203
30
0.0
11
-0.013732
21
0.080176
31
0.0
0
LINE
8
0
6
CONTINUOUS
10
-0.016225
20
0.069904
30
0.0
11
-0.016199
21
0.069078
31
0.0
0
LINE
8
0
6
CONTINUOUS
10
-0.013732
20
0.080176
30
0.0
11
-0.013635
21
0.085197
31
0.0
0
LINE
8
0
6
CONTINUOUS
10
-0.016252
20
0.070751
30
0.0
11
-0.016225
21
0.069904
31
0.0
0
LINE
8
0
6
CONTINUOUS
10
0.019224
20
0.087401
30
0.0
11
0.019015
21
0.101401
31
0.0
0
LINE
8
0
6
CONTINUOUS
10
-0.016199
20
0.069078
30
0.0
11
-0.016150
21
0.067551
31
0.0
0
LINE
8
0
6
CONTINUOUS
10
-0.013793
20
0.075501
30
0.0
11
-0.013796
21
0.077203
31
0.0
0
LINE
8
0
6
CONTINUOUS
10
-0.006973
20
0.040377
30
0.0
11
-0.003666
21
0.041516
31
0.0
0
LINE
8
0
6
CONTINUOUS
10
-0.009598
20
0.038604
30
0.0
11
-0.006973
21
0.040377
31
0.0
0
LINE
8
0
6
CONTINUOUS
10
-0.011283
20
0.036368
30
0.0
11
-0.009598
21
0.038604
31
0.0
0
LINE
8
0
6
CONTINUOUS
10
-0.011863
20
0.034528
30
0.0
11
-0.011863
21
0.033891
31
0.0
0
LINE
8
0
6
CONTINUOUS
10
-0.011863
20
0.033891
30
0.0
11
-0.011283
21
0.036368
31
0.0
0
LINE
8
0
6
CONTINUOUS
10
-0.011863
20
0.033891
30
0.0
11
-0.011283
21
0.031413
31
0.0
0
LINE
8
0
6
CONTINUOUS
10
-0.011283
20
0.031413
30
0.0
11
-0.009598
21
0.029178
31
0.0
0
LINE
8
0
6
CONTINUOUS
10
-0.009598
20
0.029178
30
0.0
11
-0.006973
21
0.027404
31
0.0
0
LINE
8
0
6
CONTINUOUS
10
-0.006973
20
0.027404
30
0.0
11
-0.003666
21
0.026265
31
0.0
0
LINE
8
0
6
CONTINUOUS
10
-0.003666
20
0.026265
30
0.0
11
-0.000000
21
0.025873
31
0.0
0
LINE
8
0
6
CONTINUOUS
10
-0.000000
20
0.025873
30
0.0
11
0.003666
21
0.026265
31
0.0
0
LINE
8
0
6
CONTINUOUS
10
0.003666
20
0.026265
30
0.0
11
0.006973
21
0.027404
31
0.0
0
LINE
8
0
6
CONTINUOUS
10
0.006973
20
0.027404
30
0.0
11
0.009598
21
0.029178
31
0.0
0
LINE
8
0
6
CONTINUOUS
10
0.009598
20
0.029178
30
0.0
11
0.011283
21
0.031413
31
0.0
0
LINE
8
0
6
CONTINUOUS
10
0.011283
20
0.031413
30
0.0
11
0.011863
21
0.033891
31
0.0
0
LINE
8
0
6
CONTINUOUS
10
0.011863
20
0.033891
30
0.0
11
0.011863
21
0.034528
31
0.0
0
LINE
8
0
6
CONTINUOUS
10
0.011283
20
0.036368
30
0.0
11
0.011863
21
0.033891
31
0.0
0
LINE
8
0
6
CONTINUOUS
10
0.009598
20
0.038604
30
0.0
11
0.011283
21
0.036368
31
0.0
0
LINE
8
0
6
CONTINUOUS
10
0.006973
20
0.040377
30
0.0
11
0.009598
21
0.038604
31
0.0
0
LINE
8
0
6
CONTINUOUS
10
0.003666
20
0.041516
30
0.0
11
0.006973
21
0.040377
31
0.0
0
LINE
8
0
6
CONTINUOUS
10
-0.000000
20
0.041909
30
0.0
11
0.003666
21
0.041516
31
0.0
0
LINE
8
0
6
CONTINUOUS
10
-0.003666
20
0.041516
30
0.0
11
-0.000000
21
0.041909
31
0.0
0
LINE
8
0
6
CONTINUOUS
10
0.011863
20
0.034528
30
0.0
11
0.011863
21
0.037553
31
0.0
0
LINE
8
0
6
CONTINUOUS
10
-0.011863
20
0.037553
30
0.0
11
-0.011863
21
0.034528
31
0.0
0
LINE
8
0
6
CONTINUOUS
10
-0.005304
20
0.038823
30
0.0
11
-0.002789
21
0.039689
31
0.0
0
LINE
8
0
6
CONTINUOUS
10
-0.007300
20
0.037474
30
0.0
11
-0.005304
21
0.038823
31
0.0
0
LINE
8
0
6
CONTINUOUS
10
-0.008581
20
0.035774
30
0.0
11
-0.007300
21
0.037474
31
0.0
0
LINE
8
0
6
CONTINUOUS
10
-0.009022
20
0.033891
30
0.0
11
-0.008581
21
0.035774
31
0.0
0
LINE
8
0
6
CONTINUOUS
10
0.008581
20
0.035774
30
0.0
11
0.009022
21
0.033891
31
0.0
0
LINE
8
0
6
CONTINUOUS
10
0.007300
20
0.037474
30
0.0
11
0.008581
21
0.035774
31
0.0
0
LINE
8
0
6
CONTINUOUS
10
0.005304
20
0.038823
30
0.0
11
0.007300
21
0.037474
31
0.0
0
LINE
8
0
6
CONTINUOUS
10
0.002789
20
0.039689
30
0.0
11
0.005304
21
0.038823
31
0.0
0
LINE
8
0
6
CONTINUOUS
10
-0.000000
20
0.039988
30
0.0
11
0.002789
21
0.039689
31
0.0
0
LINE
8
0
6
CONTINUOUS
10
-0.002789
20
0.039689
30
0.0
11
-0.000000
21
0.039988
31
0.0
0
LINE
8
0
6
CONTINUOUS
10
-0.005304
20
0.029340
30
0.0
11
-0.007300
21
0.030689
31
0.0
0
LINE
8
0
6
CONTINUOUS
10
-0.007300
20
0.030307
30
0.0
11
-0.005304
21
0.028958
31
0.0
0
LINE
8
0
6
CONTINUOUS
10
0.005304
20
0.029340
30
0.0
11
0.002789
21
0.028474
31
0.0
0
LINE
8
0
6
CONTINUOUS
10
0.002789
20
0.028092
30
0.0
11
0.005304
21
0.028958
31
0.0
0
LINE
8
0
6
CONTINUOUS
10
0.007300
20
0.030689
30
0.0
11
0.005304
21
0.029340
31
0.0
0
LINE
8
0
6
CONTINUOUS
10
0.005304
20
0.028958
30
0.0
11
0.007300
21
0.030307
31
0.0
0
LINE
8
0
6
CONTINUOUS
10
-0.002789
20
0.028474
30
0.0
11
-0.005304
21
0.029340
31
0.0
0
LINE
8
0
6
CONTINUOUS
10
-0.005304
20
0.028958
30
0.0
11
-0.002789
21
0.028092
31
0.0
0
LINE
8
0
6
CONTINUOUS
10
0.008581
20
0.032389
30
0.0
11
0.007300
21
0.030689
31
0.0
0
LINE
8
0
6
CONTINUOUS
10
0.007300
20
0.030307
30
0.0
11
0.008581
21
0.032007
31
0.0
0
LINE
8
0
6
CONTINUOUS
10
-0.000000
20
0.028176
30
0.0
11
-0.002789
21
0.028474
31
0.0
0
LINE
8
0
6
CONTINUOUS
10
-0.002789
20
0.028092
30
0.0
11
-0.000000
21
0.027794
31
0.0
0
LINE
8
0
6
CONTINUOUS
10
-0.008581
20
0.032389
30
0.0
11
-0.009022
21
0.034273
31
0.0
0
LINE
8
0
6
CONTINUOUS
10
-0.009022
20
0.033891
30
0.0
11
-0.008581
21
0.032007
31
0.0
0
LINE
8
0
6
CONTINUOUS
10
0.009022
20
0.034273
30
0.0
11
0.008581
21
0.032389
31
0.0
0
LINE
8
0
6
CONTINUOUS
10
0.008581
20
0.032007
30
0.0
11
0.009022
21
0.033891
31
0.0
0
LINE
8
0
6
CONTINUOUS
10
0.002789
20
0.028474
30
0.0
11
-0.000000
21
0.028176
31
0.0
0
LINE
8
0
6
CONTINUOUS
10
-0.000000
20
0.027794
30
0.0
11
0.002789
21
0.028092
31
0.0
0
LINE
8
0
6
CONTINUOUS
10
-0.007300
20
0.030689
30
0.0
11
-0.008581
21
0.032389
31
0.0
0
LINE
8
0
6
CONTINUOUS
10
-0.008581
20
0.032007
30
0.0
11
-0.007300
21
0.030307
31
0.0
0
LINE
8
0
6
CONTINUOUS
10
-0.011730
20
0.038130
30
0.0
11
-0.011863
21
0.037553
31
0.0
0
LINE
8
0
6
CONTINUOUS
10
0.011730
20
0.038130
30
0.0
11
0.011863
21
0.037553
31
0.0
0
LINE
8
0
6
CONTINUOUS
10
-0.000000
20
0.045679
30
0.0
11
0.003666
21
0.045281
31
0.0
0
LINE
8
0
6
CONTINUOUS
10
-0.009598
20
0.042330
30
0.0
11
-0.009246
21
0.042570
31
0.0
0
LINE
8
0
6
CONTINUOUS
10
-0.003666
20
0.045281
30
0.0
11
-0.000000
21
0.045679
31
0.0
0
LINE
8
0
6
CONTINUOUS
10
0.009246
20
0.042570
30
0.0
11
0.009598
21
0.042330
31
0.0
0
ENDSEC
0
EOF
