999
Erzeugt mit innoplus bad 
0
SECTION
2
HEADER
9
$ACADVER
1
AC1009
9
$DWGCODEPAGE
3
ISO8859-1
0
ENDSEC
0
SECTION
2
TABLES
0
TABLE
2
LAYER
70
1
0
LAYER
2
0
70
0
62
7
6
CONTINUOUS
0
ENDTAB
0
ENDSEC
0
SECTION
2
ENTITIES
0
LINE
8
0
6
CONTINUOUS
10
-0.020647
20
0.028667
30
0.0
11
-0.018748
21
0.024101
31
0.0
0
LINE
8
0
6
CONTINUOUS
10
-0.020647
20
0.038511
30
0.0
11
-0.021294
21
0.033609
31
0.0
0
LINE
8
0
6
CONTINUOUS
10
-0.002294
20
0.052601
30
0.0
11
-0.007211
21
0.051956
31
0.0
0
LINE
8
0
6
CONTINUOUS
10
-0.018748
20
0.043098
30
0.0
11
-0.020647
21
0.038511
31
0.0
0
LINE
8
0
6
CONTINUOUS
10
-0.011794
20
0.050058
30
0.0
11
-0.015729
21
0.047037
31
0.0
0
LINE
8
0
6
CONTINUOUS
10
-0.015729
20
0.020166
30
0.0
11
-0.011794
21
0.017147
31
0.0
0
LINE
8
0
6
CONTINUOUS
10
-0.007211
20
0.051956
30
0.0
11
-0.011794
21
0.050058
31
0.0
0
LINE
8
0
6
CONTINUOUS
10
-0.020647
20
0.028667
30
0.0
11
-0.021294
21
0.033609
31
0.0
0
LINE
8
0
6
CONTINUOUS
10
-0.018748
20
0.043098
30
0.0
11
-0.015729
21
0.047037
31
0.0
0
LINE
8
0
6
CONTINUOUS
10
-0.018748
20
0.024101
30
0.0
11
-0.015729
21
0.020166
31
0.0
0
LINE
8
0
6
CONTINUOUS
10
-0.007211
20
0.015249
30
0.0
11
-0.011794
21
0.017147
31
0.0
0
LINE
8
0
6
CONTINUOUS
10
-0.002294
20
0.014601
30
0.0
11
-0.007211
21
0.015249
31
0.0
0
LINE
8
0
6
CONTINUOUS
10
-0.002294
20
0.008792
30
0.0
11
-0.002991
21
0.009081
31
0.0
0
LINE
8
0
6
CONTINUOUS
10
-0.003871
20
0.010034
30
0.0
11
-0.003357
21
0.009243
31
0.0
0
LINE
8
0
6
CONTINUOUS
10
-0.006895
20
0.014677
30
0.0
11
-0.003871
21
0.010034
31
0.0
0
LINE
8
0
6
CONTINUOUS
10
-0.006895
20
0.014677
30
0.0
11
-0.003843
21
0.012514
31
0.0
0
LINE
8
0
6
CONTINUOUS
10
-0.002984
20
0.014673
30
0.0
11
-0.003356
21
0.014722
31
0.0
0
LINE
8
0
6
CONTINUOUS
10
-0.003367
20
0.009889
30
0.0
11
-0.003357
21
0.009243
31
0.0
0
LINE
8
0
6
CONTINUOUS
10
-0.003357
20
0.009243
30
0.0
11
-0.002991
21
0.009081
31
0.0
0
LINE
8
0
6
CONTINUOUS
10
-0.002294
20
0.014582
30
0.0
11
-0.002984
21
0.014673
31
0.0
0
LINE
8
0
6
CONTINUOUS
10
-0.007211
20
0.015229
30
0.0
11
-0.006895
21
0.014677
31
0.0
0
LINE
8
0
6
CONTINUOUS
10
-0.007211
20
0.015229
30
0.0
11
-0.006617
21
0.015087
31
0.0
0
LINE
8
0
6
CONTINUOUS
10
-0.006584
20
0.015147
30
0.0
11
-0.007211
21
0.015229
31
0.0
0
LINE
8
0
6
CONTINUOUS
10
-0.003834
20
0.014785
30
0.0
11
-0.006584
21
0.015147
31
0.0
0
LINE
8
0
6
CONTINUOUS
10
-0.003356
20
0.014722
30
0.0
11
-0.003834
21
0.014785
31
0.0
0
LINE
8
0
6
CONTINUOUS
10
-0.007211
20
0.015229
30
0.0
11
-0.006742
21
0.014903
31
0.0
0
LINE
8
0
6
CONTINUOUS
10
-0.006742
20
0.014903
30
0.0
11
-0.006867
21
0.014718
31
0.0
0
LINE
8
0
6
CONTINUOUS
10
-0.003841
20
0.013537
30
0.0
11
-0.006867
21
0.014718
31
0.0
0
LINE
8
0
6
CONTINUOUS
10
-0.006867
20
0.014718
30
0.0
11
-0.003843
21
0.012514
31
0.0
0
LINE
8
0
6
CONTINUOUS
10
0.014161
20
0.024101
30
0.0
11
0.016059
21
0.028667
31
0.0
0
LINE
8
0
6
CONTINUOUS
10
0.016706
20
0.033609
30
0.0
11
0.016059
21
0.038511
31
0.0
0
LINE
8
0
6
CONTINUOUS
10
0.002624
20
0.051956
30
0.0
11
-0.002294
21
0.052601
31
0.0
0
LINE
8
0
6
CONTINUOUS
10
0.016059
20
0.038511
30
0.0
11
0.014161
21
0.043098
31
0.0
0
LINE
8
0
6
CONTINUOUS
10
0.011141
20
0.047037
30
0.0
11
0.007206
21
0.050058
31
0.0
0
LINE
8
0
6
CONTINUOUS
10
0.007206
20
0.017147
30
0.0
11
0.011141
21
0.020166
31
0.0
0
LINE
8
0
6
CONTINUOUS
10
0.007206
20
0.050058
30
0.0
11
0.002624
21
0.051956
31
0.0
0
LINE
8
0
6
CONTINUOUS
10
0.016706
20
0.033609
30
0.0
11
0.016059
21
0.028667
31
0.0
0
LINE
8
0
6
CONTINUOUS
10
0.011141
20
0.047037
30
0.0
11
0.014161
21
0.043098
31
0.0
0
LINE
8
0
6
CONTINUOUS
10
0.011141
20
0.020166
30
0.0
11
0.014161
21
0.024101
31
0.0
0
LINE
8
0
6
CONTINUOUS
10
0.007206
20
0.017147
30
0.0
11
0.002624
21
0.015249
31
0.0
0
LINE
8
0
6
CONTINUOUS
10
0.002624
20
0.015249
30
0.0
11
-0.002294
21
0.014601
31
0.0
0
LINE
8
0
6
CONTINUOUS
10
-0.002294
20
0.009623
30
0.0
11
-0.002294
21
0.008792
31
0.0
0
LINE
8
0
6
CONTINUOUS
10
-0.001597
20
0.009081
30
0.0
11
-0.002294
21
0.008792
31
0.0
0
LINE
8
0
6
CONTINUOUS
10
-0.001231
20
0.009243
30
0.0
11
-0.000716
21
0.010034
31
0.0
0
LINE
8
0
6
CONTINUOUS
10
-0.000716
20
0.010034
30
0.0
11
0.002307
21
0.014677
31
0.0
0
LINE
8
0
6
CONTINUOUS
10
0.002307
20
0.014677
30
0.0
11
-0.000744
21
0.012514
31
0.0
0
LINE
8
0
6
CONTINUOUS
10
-0.001232
20
0.014722
30
0.0
11
-0.001604
21
0.014673
31
0.0
0
LINE
8
0
6
CONTINUOUS
10
-0.001597
20
0.009081
30
0.0
11
-0.001231
21
0.009243
31
0.0
0
LINE
8
0
6
CONTINUOUS
10
-0.001231
20
0.009243
30
0.0
11
-0.001221
21
0.009889
31
0.0
0
LINE
8
0
6
CONTINUOUS
10
-0.001604
20
0.014673
30
0.0
11
-0.002294
21
0.014582
31
0.0
0
LINE
8
0
6
CONTINUOUS
10
0.002307
20
0.014677
30
0.0
11
0.002624
21
0.015229
31
0.0
0
LINE
8
0
6
CONTINUOUS
10
0.002030
20
0.015087
30
0.0
11
0.002624
21
0.015229
31
0.0
0
LINE
8
0
6
CONTINUOUS
10
0.002624
20
0.015229
30
0.0
11
0.001996
21
0.015147
31
0.0
0
LINE
8
0
6
CONTINUOUS
10
0.001996
20
0.015147
30
0.0
11
-0.000754
21
0.014785
31
0.0
0
LINE
8
0
6
CONTINUOUS
10
-0.000754
20
0.014785
30
0.0
11
-0.001232
21
0.014722
31
0.0
0
LINE
8
0
6
CONTINUOUS
10
0.002155
20
0.014903
30
0.0
11
0.002624
21
0.015229
31
0.0
0
LINE
8
0
6
CONTINUOUS
10
-0.000744
20
0.012514
30
0.0
11
0.002280
21
0.014718
31
0.0
0
LINE
8
0
6
CONTINUOUS
10
-0.000746
20
0.013537
30
0.0
11
0.002280
21
0.014718
31
0.0
0
LINE
8
0
6
CONTINUOUS
10
0.002280
20
0.014718
30
0.0
11
0.002155
21
0.014903
31
0.0
0
LINE
8
0
6
CONTINUOUS
10
-0.015737
20
0.020158
30
0.0
11
-0.011821
21
0.017100
31
0.0
0
LINE
8
0
6
CONTINUOUS
10
-0.016257
20
0.020576
30
0.0
11
-0.015737
21
0.020158
31
0.0
0
LINE
8
0
6
CONTINUOUS
10
-0.018991
20
0.015708
30
0.0
11
-0.018903
21
0.011481
31
0.0
0
LINE
8
0
6
CONTINUOUS
10
-0.019278
20
0.023795
30
0.0
11
-0.019217
21
0.023629
31
0.0
0
LINE
8
0
6
CONTINUOUS
10
-0.018961
20
0.020505
30
0.0
11
-0.018975
21
0.018109
31
0.0
0
LINE
8
0
6
CONTINUOUS
10
-0.018975
20
0.018109
30
0.0
11
-0.018991
21
0.015708
31
0.0
0
LINE
8
0
6
CONTINUOUS
10
-0.016026
20
0.016463
30
0.0
11
-0.016090
21
0.012968
31
0.0
0
LINE
8
0
6
CONTINUOUS
10
-0.018950
20
0.022896
30
0.0
11
-0.018961
21
0.020505
31
0.0
0
LINE
8
0
6
CONTINUOUS
10
-0.015929
20
0.019059
30
0.0
11
-0.015826
21
0.020069
31
0.0
0
LINE
8
0
6
CONTINUOUS
10
-0.016026
20
-0.060932
30
0.0
11
-0.012705
21
-0.064625
31
0.0
0
LINE
8
0
6
CONTINUOUS
10
-0.012705
20
-0.064625
30
0.0
11
-0.007914
21
-0.067072
31
0.0
0
LINE
8
0
6
CONTINUOUS
10
-0.007914
20
-0.067072
30
0.0
11
-0.002294
21
-0.067939
31
0.0
0
LINE
8
0
6
CONTINUOUS
10
-0.017496
20
-0.056030
30
0.0
11
-0.016026
21
-0.060932
31
0.0
0
LINE
8
0
6
CONTINUOUS
10
-0.017519
20
-0.055048
30
0.0
11
-0.017496
21
-0.056030
31
0.0
0
LINE
8
0
6
CONTINUOUS
10
-0.024510
20
0.027644
30
0.0
11
-0.022212
21
0.022096
31
0.0
0
LINE
8
0
6
CONTINUOUS
10
-0.008247
20
0.055816
30
0.0
11
-0.013794
21
0.053518
31
0.0
0
LINE
8
0
6
CONTINUOUS
10
-0.018557
20
0.049862
30
0.0
11
-0.022212
21
0.045098
31
0.0
0
LINE
8
0
6
CONTINUOUS
10
-0.024510
20
0.039551
30
0.0
11
-0.025294
21
0.033597
31
0.0
0
LINE
8
0
6
CONTINUOUS
10
-0.022212
20
0.022096
30
0.0
11
-0.018557
21
0.017332
31
0.0
0
LINE
8
0
6
CONTINUOUS
10
-0.002294
20
0.056600
30
0.0
11
-0.008247
21
0.055816
31
0.0
0
LINE
8
0
6
CONTINUOUS
10
-0.025294
20
0.033597
30
0.0
11
-0.024510
21
0.027644
31
0.0
0
LINE
8
0
6
CONTINUOUS
10
-0.013794
20
0.053518
30
0.0
11
-0.018557
21
0.049862
31
0.0
0
LINE
8
0
6
CONTINUOUS
10
-0.022212
20
0.045098
30
0.0
11
-0.024510
21
0.039551
31
0.0
0
LINE
8
0
6
CONTINUOUS
10
-0.019217
20
0.023629
30
0.0
11
-0.018950
21
0.022896
31
0.0
0
LINE
8
0
6
CONTINUOUS
10
-0.018903
20
0.011481
30
0.0
11
-0.017519
21
-0.055048
31
0.0
0
LINE
8
0
6
CONTINUOUS
10
-0.016090
20
0.012968
30
0.0
11
-0.016086
21
0.008798
31
0.0
0
LINE
8
0
6
CONTINUOUS
10
0.007233
20
0.017100
30
0.0
11
0.011150
21
0.020158
31
0.0
0
LINE
8
0
6
CONTINUOUS
10
0.011150
20
0.020158
30
0.0
11
0.011670
21
0.020576
31
0.0
0
LINE
8
0
6
CONTINUOUS
10
0.014315
20
0.011481
30
0.0
11
0.014403
21
0.015708
31
0.0
0
LINE
8
0
6
CONTINUOUS
10
0.014629
20
0.023629
30
0.0
11
0.014690
21
0.023795
31
0.0
0
LINE
8
0
6
CONTINUOUS
10
0.014387
20
0.018109
30
0.0
11
0.014373
21
0.020505
31
0.0
0
LINE
8
0
6
CONTINUOUS
10
0.014403
20
0.015708
30
0.0
11
0.014387
21
0.018109
31
0.0
0
LINE
8
0
6
CONTINUOUS
10
0.011502
20
0.012968
30
0.0
11
0.011438
21
0.016463
31
0.0
0
LINE
8
0
6
CONTINUOUS
10
0.011238
20
0.020069
30
0.0
11
0.011341
21
0.019059
31
0.0
0
LINE
8
0
6
CONTINUOUS
10
0.014373
20
0.020505
30
0.0
11
0.014363
21
0.022896
31
0.0
0
LINE
8
0
6
CONTINUOUS
10
0.008117
20
-0.064625
30
0.0
11
0.011439
21
-0.060932
31
0.0
0
LINE
8
0
6
CONTINUOUS
10
0.003326
20
-0.067072
30
0.0
11
0.008117
21
-0.064625
31
0.0
0
LINE
8
0
6
CONTINUOUS
10
-0.002294
20
-0.067939
30
0.0
11
0.003326
21
-0.067072
31
0.0
0
LINE
8
0
6
CONTINUOUS
10
0.012908
20
-0.056030
30
0.0
11
0.012932
21
-0.055048
31
0.0
0
LINE
8
0
6
CONTINUOUS
10
0.011439
20
-0.060932
30
0.0
11
0.012908
21
-0.056030
31
0.0
0
LINE
8
0
6
CONTINUOUS
10
0.017625
20
0.022096
30
0.0
11
0.019922
21
0.027644
31
0.0
0
LINE
8
0
6
CONTINUOUS
10
0.009206
20
0.053518
30
0.0
11
0.003659
21
0.055816
31
0.0
0
LINE
8
0
6
CONTINUOUS
10
0.017625
20
0.045098
30
0.0
11
0.013970
21
0.049862
31
0.0
0
LINE
8
0
6
CONTINUOUS
10
0.020706
20
0.033597
30
0.0
11
0.019922
21
0.039551
31
0.0
0
LINE
8
0
6
CONTINUOUS
10
0.013970
20
0.017332
30
0.0
11
0.017625
21
0.022096
31
0.0
0
LINE
8
0
6
CONTINUOUS
10
0.003659
20
0.055816
30
0.0
11
-0.002294
21
0.056600
31
0.0
0
LINE
8
0
6
CONTINUOUS
10
0.019922
20
0.027644
30
0.0
11
0.020706
21
0.033597
31
0.0
0
LINE
8
0
6
CONTINUOUS
10
0.013970
20
0.049862
30
0.0
11
0.013910
21
0.049908
31
0.0
0
LINE
8
0
6
CONTINUOUS
10
0.010832
20
0.052270
30
0.0
11
0.009206
21
0.053518
31
0.0
0
LINE
8
0
6
CONTINUOUS
10
0.019922
20
0.039551
30
0.0
11
0.017625
21
0.045098
31
0.0
0
LINE
8
0
6
CONTINUOUS
10
0.014363
20
0.022896
30
0.0
11
0.014629
21
0.023629
31
0.0
0
LINE
8
0
6
CONTINUOUS
10
0.012932
20
-0.055048
30
0.0
11
0.014315
21
0.011481
31
0.0
0
LINE
8
0
6
CONTINUOUS
10
0.011499
20
0.008798
30
0.0
11
0.011502
21
0.012968
31
0.0
0
LINE
8
0
6
CONTINUOUS
10
0.021171
20
0.059394
30
0.0
11
0.024310
21
0.062885
31
0.0
0
LINE
8
0
6
CONTINUOUS
10
0.018630
20
0.056293
30
0.0
11
0.019167
21
0.057022
31
0.0
0
LINE
8
0
6
CONTINUOUS
10
0.018128
20
0.055534
30
0.0
11
0.018630
21
0.056293
31
0.0
0
LINE
8
0
6
CONTINUOUS
10
0.017800
20
0.055110
30
0.0
11
0.018128
21
0.055534
31
0.0
0
LINE
8
0
6
CONTINUOUS
10
0.017277
20
0.054435
30
0.0
11
0.017800
21
0.055110
31
0.0
0
LINE
8
0
6
CONTINUOUS
10
0.016935
20
0.053915
30
0.0
11
0.017277
21
0.054435
31
0.0
0
LINE
8
0
6
CONTINUOUS
10
0.019108
20
0.056984
30
0.0
11
0.021171
21
0.059394
31
0.0
0
LINE
8
0
6
CONTINUOUS
10
0.024250
20
0.062928
30
0.0
11
0.021009
21
0.059509
31
0.0
0
LINE
8
0
6
CONTINUOUS
10
0.021143
20
0.059409
30
0.0
11
0.024250
21
0.062928
31
0.0
0
LINE
8
0
6
CONTINUOUS
10
0.018267
20
0.056038
30
0.0
11
0.019082
21
0.057104
31
0.0
0
LINE
8
0
6
CONTINUOUS
10
0.018838
20
0.057372
30
0.0
11
0.017849
21
0.056162
31
0.0
0
LINE
8
0
6
CONTINUOUS
10
0.017521
20
0.055026
30
0.0
11
0.018267
21
0.056038
31
0.0
0
LINE
8
0
6
CONTINUOUS
10
0.017849
20
0.056162
30
0.0
11
0.017090
21
0.055042
31
0.0
0
LINE
8
0
6
CONTINUOUS
10
0.016950
20
0.054265
30
0.0
11
0.017521
21
0.055026
31
0.0
0
LINE
8
0
6
CONTINUOUS
10
0.017090
20
0.055042
30
0.0
11
0.016566
21
0.054190
31
0.0
0
LINE
8
0
6
CONTINUOUS
10
0.016566
20
0.054190
30
0.0
11
0.016023
21
0.053522
31
0.0
0
LINE
8
0
6
CONTINUOUS
10
0.019082
20
0.057104
30
0.0
11
0.021143
21
0.059409
31
0.0
0
LINE
8
0
6
CONTINUOUS
10
0.025294
20
0.064705
30
0.0
11
0.025248
21
0.065552
31
0.0
0
LINE
8
0
6
CONTINUOUS
10
0.025234
20
0.064748
30
0.0
11
0.025188
21
0.065595
31
0.0
0
LINE
8
0
6
CONTINUOUS
10
0.025016
20
0.064900
30
0.0
11
0.025028
21
0.065828
31
0.0
0
LINE
8
0
6
CONTINUOUS
10
0.024875
20
0.066114
30
0.0
11
0.023785
21
0.067095
31
0.0
0
LINE
8
0
6
CONTINUOUS
10
0.023785
20
0.067095
30
0.0
11
0.025028
21
0.065828
31
0.0
0
LINE
8
0
6
CONTINUOUS
10
0.025294
20
0.064705
30
0.0
11
0.025234
21
0.064748
31
0.0
0
LINE
8
0
6
CONTINUOUS
10
0.024310
20
0.062885
30
0.0
11
0.025294
21
0.064705
31
0.0
0
LINE
8
0
6
CONTINUOUS
10
0.024250
20
0.062928
30
0.0
11
0.025234
21
0.064748
31
0.0
0
LINE
8
0
6
CONTINUOUS
10
0.025028
20
0.065828
30
0.0
11
0.025188
21
0.065595
31
0.0
0
LINE
8
0
6
CONTINUOUS
10
0.025248
20
0.065552
30
0.0
11
0.024875
21
0.066114
31
0.0
0
LINE
8
0
6
CONTINUOUS
10
0.025188
20
0.065595
30
0.0
11
0.025248
21
0.065552
31
0.0
0
LINE
8
0
6
CONTINUOUS
10
0.013763
20
0.056132
30
0.0
11
0.010540
21
0.051886
31
0.0
0
LINE
8
0
6
CONTINUOUS
10
0.018838
20
0.057372
30
0.0
11
0.021009
21
0.059509
31
0.0
0
LINE
8
0
6
CONTINUOUS
10
0.016023
20
0.053522
30
0.0
11
0.014793
21
0.054227
31
0.0
0
LINE
8
0
6
CONTINUOUS
10
0.013039
20
0.049894
30
0.0
11
0.016023
21
0.053522
31
0.0
0
LINE
8
0
6
CONTINUOUS
10
0.019650
20
0.066141
30
0.0
11
0.017451
21
0.061993
31
0.0
0
LINE
8
0
6
CONTINUOUS
10
0.015913
20
0.059295
30
0.0
11
0.015413
21
0.058541
31
0.0
0
LINE
8
0
6
CONTINUOUS
10
0.015413
20
0.058541
30
0.0
11
0.014873
21
0.057809
31
0.0
0
LINE
8
0
6
CONTINUOUS
10
0.014588
20
0.057355
30
0.0
11
0.014134
21
0.056632
31
0.0
0
LINE
8
0
6
CONTINUOUS
10
0.014873
20
0.057809
30
0.0
11
0.014588
21
0.057355
31
0.0
0
LINE
8
0
6
CONTINUOUS
10
0.014134
20
0.056632
30
0.0
11
0.013763
21
0.056132
31
0.0
0
LINE
8
0
6
CONTINUOUS
10
0.017451
20
0.061993
30
0.0
11
0.015898
21
0.059228
31
0.0
0
LINE
8
0
6
CONTINUOUS
10
0.019711
20
0.066100
30
0.0
11
0.017475
21
0.061972
31
0.0
0
LINE
8
0
6
CONTINUOUS
10
0.019711
20
0.066100
30
0.0
11
0.017615
21
0.061880
31
0.0
0
LINE
8
0
6
CONTINUOUS
10
0.015558
20
0.057762
30
0.0
11
0.016355
21
0.059108
31
0.0
0
LINE
8
0
6
CONTINUOUS
10
0.016019
20
0.059244
30
0.0
11
0.015298
21
0.058112
31
0.0
0
LINE
8
0
6
CONTINUOUS
10
0.014768
20
0.056665
30
0.0
11
0.015558
21
0.057762
31
0.0
0
LINE
8
0
6
CONTINUOUS
10
0.015298
20
0.058112
30
0.0
11
0.014605
21
0.057064
31
0.0
0
LINE
8
0
6
CONTINUOUS
10
0.014148
20
0.055879
30
0.0
11
0.014768
21
0.056665
31
0.0
0
LINE
8
0
6
CONTINUOUS
10
0.014605
20
0.057064
30
0.0
11
0.014086
21
0.056266
31
0.0
0
LINE
8
0
6
CONTINUOUS
10
0.013707
20
0.055140
30
0.0
11
0.014148
21
0.055879
31
0.0
0
LINE
8
0
6
CONTINUOUS
10
0.017475
20
0.061972
30
0.0
11
0.016019
21
0.059244
31
0.0
0
LINE
8
0
6
CONTINUOUS
10
0.021832
20
0.067939
30
0.0
11
0.021021
21
0.067691
31
0.0
0
LINE
8
0
6
CONTINUOUS
10
0.021893
20
0.067898
30
0.0
11
0.021082
21
0.067650
31
0.0
0
LINE
8
0
6
CONTINUOUS
10
0.022167
20
0.067827
30
0.0
11
0.021299
21
0.067497
31
0.0
0
LINE
8
0
6
CONTINUOUS
10
0.023151
20
0.066188
30
0.0
11
0.023785
21
0.067095
31
0.0
0
LINE
8
0
6
CONTINUOUS
10
0.023785
20
0.067095
30
0.0
11
0.022488
21
0.067782
31
0.0
0
LINE
8
0
6
CONTINUOUS
10
0.022167
20
0.067827
30
0.0
11
0.023785
21
0.067095
31
0.0
0
LINE
8
0
6
CONTINUOUS
10
0.021021
20
0.067691
30
0.0
11
0.019650
21
0.066141
31
0.0
0
LINE
8
0
6
CONTINUOUS
10
0.021082
20
0.067650
30
0.0
11
0.021021
21
0.067691
31
0.0
0
LINE
8
0
6
CONTINUOUS
10
0.021082
20
0.067650
30
0.0
11
0.019711
21
0.066100
31
0.0
0
LINE
8
0
6
CONTINUOUS
10
0.021832
20
0.067939
30
0.0
11
0.021893
21
0.067898
31
0.0
0
LINE
8
0
6
CONTINUOUS
10
0.022488
20
0.067782
30
0.0
11
0.021832
21
0.067939
31
0.0
0
LINE
8
0
6
CONTINUOUS
10
0.021893
20
0.067898
30
0.0
11
0.022167
21
0.067827
31
0.0
0
LINE
8
0
6
CONTINUOUS
10
0.017615
20
0.061880
30
0.0
11
0.016355
21
0.059108
31
0.0
0
LINE
8
0
6
CONTINUOUS
10
0.013674
20
0.055718
30
0.0
11
0.010707
21
0.051712
31
0.0
0
LINE
8
0
6
CONTINUOUS
10
0.014793
20
0.054227
30
0.0
11
0.013707
21
0.055140
31
0.0
0
LINE
8
0
6
CONTINUOUS
10
0.013707
20
0.055140
30
0.0
11
0.011114
21
0.051365
31
0.0
0
LINE
8
0
6
CONTINUOUS
10
0.013626
20
0.049531
30
0.0
11
0.016935
21
0.053915
31
0.0
0
LINE
8
0
6
CONTINUOUS
10
0.012427
20
0.050357
30
0.0
11
0.013039
21
0.049894
31
0.0
0
LINE
8
0
6
CONTINUOUS
10
0.013567
20
0.049562
30
0.0
11
0.013451
21
0.049615
31
0.0
0
LINE
8
0
6
CONTINUOUS
10
0.011452
20
0.051099
30
0.0
11
0.012078
21
0.050617
31
0.0
0
LINE
8
0
6
CONTINUOUS
10
0.011114
20
0.051365
30
0.0
11
0.011452
21
0.051099
31
0.0
0
LINE
8
0
6
CONTINUOUS
10
0.013625
20
0.049530
30
0.0
11
0.013567
21
0.049562
31
0.0
0
LINE
8
0
6
CONTINUOUS
10
0.013308
20
0.049710
30
0.0
11
0.013039
21
0.049894
31
0.0
0
LINE
8
0
6
CONTINUOUS
10
0.010972
20
0.051489
30
0.0
11
0.011114
21
0.051365
31
0.0
0
LINE
8
0
6
CONTINUOUS
10
0.012427
20
0.050357
30
0.0
11
0.012078
21
0.050617
31
0.0
0
LINE
8
0
6
CONTINUOUS
10
0.013451
20
0.049615
30
0.0
11
0.013308
21
0.049710
31
0.0
0
LINE
8
0
6
CONTINUOUS
10
0.010540
20
0.051886
30
0.0
11
0.010646
21
0.051771
31
0.0
0
LINE
8
0
6
CONTINUOUS
10
0.010646
20
0.051771
30
0.0
11
0.010707
21
0.051712
31
0.0
0
LINE
8
0
6
CONTINUOUS
10
0.010707
20
0.051712
30
0.0
11
0.010972
21
0.051489
31
0.0
0
ENDSEC
0
EOF
