999
Erzeugt mit innoplus bad 
0
SECTION
2
HEADER
9
$ACADVER
1
AC1009
9
$DWGCODEPAGE
3
ISO8859-1
0
ENDSEC
0
SECTION
2
TABLES
0
TABLE
2
LAYER
70
1
0
LAYER
2
0
70
0
62
7
6
CONTINUOUS
0
ENDTAB
0
ENDSEC
0
SECTION
2
ENTITIES
0
LINE
8
0
6
CONTINUOUS
10
0.008792
20
0.144445
30
0.0
11
0.008792
21
0.113358
31
0.0
0
LINE
8
0
6
CONTINUOUS
10
0.028667
20
0.154000
30
0.0
11
0.024101
21
0.154000
31
0.0
0
LINE
8
0
6
CONTINUOUS
10
0.043098
20
0.154000
30
0.0
11
0.038511
21
0.154000
31
0.0
0
LINE
8
0
6
CONTINUOUS
10
0.020166
20
0.154000
30
0.0
11
0.017147
21
0.154000
31
0.0
0
LINE
8
0
6
CONTINUOUS
10
0.038511
20
0.154000
30
0.0
11
0.033609
21
0.154000
31
0.0
0
LINE
8
0
6
CONTINUOUS
10
0.051956
20
0.154000
30
0.0
11
0.050058
21
0.154000
31
0.0
0
LINE
8
0
6
CONTINUOUS
10
0.033609
20
0.154000
30
0.0
11
0.028667
21
0.154000
31
0.0
0
LINE
8
0
6
CONTINUOUS
10
0.052601
20
0.154000
30
0.0
11
0.051956
21
0.154000
31
0.0
0
LINE
8
0
6
CONTINUOUS
10
0.052601
20
0.153610
30
0.0
11
0.052601
21
0.154000
31
0.0
0
LINE
8
0
6
CONTINUOUS
10
0.047037
20
0.154000
30
0.0
11
0.043098
21
0.154000
31
0.0
0
LINE
8
0
6
CONTINUOUS
10
0.024101
20
0.154000
30
0.0
11
0.020166
21
0.154000
31
0.0
0
LINE
8
0
6
CONTINUOUS
10
0.017147
20
0.154000
30
0.0
11
0.015249
21
0.154000
31
0.0
0
LINE
8
0
6
CONTINUOUS
10
0.050058
20
0.154000
30
0.0
11
0.047037
21
0.154000
31
0.0
0
LINE
8
0
6
CONTINUOUS
10
0.052601
20
0.104193
30
0.0
11
0.052601
21
0.153610
31
0.0
0
LINE
8
0
6
CONTINUOUS
10
0.014601
20
0.154000
30
0.0
11
0.014601
21
0.153511
31
0.0
0
LINE
8
0
6
CONTINUOUS
10
0.015249
20
0.154000
30
0.0
11
0.014601
21
0.154000
31
0.0
0
LINE
8
0
6
CONTINUOUS
10
0.009623
20
0.145605
30
0.0
11
0.008792
21
0.144949
31
0.0
0
LINE
8
0
6
CONTINUOUS
10
0.008792
20
0.144949
30
0.0
11
0.008792
21
0.144445
31
0.0
0
LINE
8
0
6
CONTINUOUS
10
0.009081
20
0.144994
30
0.0
11
0.008792
21
0.144949
31
0.0
0
LINE
8
0
6
CONTINUOUS
10
0.009240
20
0.113293
30
0.0
11
0.009240
21
0.144509
31
0.0
0
LINE
8
0
6
CONTINUOUS
10
0.009243
20
0.145017
30
0.0
11
0.010034
21
0.145289
31
0.0
0
LINE
8
0
6
CONTINUOUS
10
0.010034
20
0.145289
30
0.0
11
0.014677
21
0.147386
31
0.0
0
LINE
8
0
6
CONTINUOUS
10
0.014677
20
0.147386
30
0.0
11
0.012514
21
0.147268
31
0.0
0
LINE
8
0
6
CONTINUOUS
10
0.014722
20
0.150139
30
0.0
11
0.014673
21
0.150142
31
0.0
0
LINE
8
0
6
CONTINUOUS
10
0.015229
20
0.111357
30
0.0
11
0.015229
21
0.146445
31
0.0
0
LINE
8
0
6
CONTINUOUS
10
0.009240
20
0.144509
30
0.0
11
0.009243
21
0.145017
31
0.0
0
LINE
8
0
6
CONTINUOUS
10
0.009081
20
0.144994
30
0.0
11
0.009243
21
0.145017
31
0.0
0
LINE
8
0
6
CONTINUOUS
10
0.009243
20
0.145017
30
0.0
11
0.009889
21
0.145622
31
0.0
0
LINE
8
0
6
CONTINUOUS
10
0.015229
20
0.146445
30
0.0
11
0.015229
21
0.147014
31
0.0
0
LINE
8
0
6
CONTINUOUS
10
0.015229
20
0.147014
30
0.0
11
0.015229
21
0.147585
31
0.0
0
LINE
8
0
6
CONTINUOUS
10
0.014582
20
0.150148
30
0.0
11
0.013648
21
0.148860
31
0.0
0
LINE
8
0
6
CONTINUOUS
10
0.014673
20
0.150142
30
0.0
11
0.014582
21
0.150148
31
0.0
0
LINE
8
0
6
CONTINUOUS
10
0.015229
20
0.147585
30
0.0
11
0.015229
21
0.147705
31
0.0
0
LINE
8
0
6
CONTINUOUS
10
0.015229
20
0.149949
30
0.0
11
0.015229
21
0.150104
31
0.0
0
LINE
8
0
6
CONTINUOUS
10
0.015229
20
0.150104
30
0.0
11
0.015147
21
0.150110
31
0.0
0
LINE
8
0
6
CONTINUOUS
10
0.015147
20
0.150110
30
0.0
11
0.014785
21
0.150134
31
0.0
0
LINE
8
0
6
CONTINUOUS
10
0.014785
20
0.150134
30
0.0
11
0.014722
21
0.150139
31
0.0
0
LINE
8
0
6
CONTINUOUS
10
0.011895
20
0.147160
30
0.0
11
0.009623
21
0.145605
31
0.0
0
LINE
8
0
6
CONTINUOUS
10
0.014903
20
0.148731
30
0.0
11
0.015229
21
0.147705
31
0.0
0
LINE
8
0
6
CONTINUOUS
10
0.015229
20
0.147705
30
0.0
11
0.015229
21
0.148827
31
0.0
0
LINE
8
0
6
CONTINUOUS
10
0.015229
20
0.148827
30
0.0
11
0.015229
21
0.149949
31
0.0
0
LINE
8
0
6
CONTINUOUS
10
0.012514
20
0.147268
30
0.0
11
0.014718
21
0.147632
31
0.0
0
LINE
8
0
6
CONTINUOUS
10
0.013537
20
0.148010
30
0.0
11
0.014718
21
0.147632
31
0.0
0
LINE
8
0
6
CONTINUOUS
10
0.014718
20
0.147632
30
0.0
11
0.014903
21
0.148731
31
0.0
0
LINE
8
0
6
CONTINUOUS
10
0.012944
20
0.147877
30
0.0
11
0.011895
21
0.147160
31
0.0
0
LINE
8
0
6
CONTINUOUS
10
0.013648
20
0.148860
30
0.0
11
0.012944
21
0.147877
31
0.0
0
LINE
8
0
6
CONTINUOUS
10
0.024101
20
0.103802
30
0.0
11
0.028667
21
0.103802
31
0.0
0
LINE
8
0
6
CONTINUOUS
10
0.038511
20
0.103802
30
0.0
11
0.043098
21
0.103802
31
0.0
0
LINE
8
0
6
CONTINUOUS
10
0.017147
20
0.103802
30
0.0
11
0.020166
21
0.103802
31
0.0
0
LINE
8
0
6
CONTINUOUS
10
0.033609
20
0.103802
30
0.0
11
0.038511
21
0.103802
31
0.0
0
LINE
8
0
6
CONTINUOUS
10
0.050058
20
0.103802
30
0.0
11
0.051956
21
0.103802
31
0.0
0
LINE
8
0
6
CONTINUOUS
10
0.028667
20
0.103802
30
0.0
11
0.033609
21
0.103802
31
0.0
0
LINE
8
0
6
CONTINUOUS
10
0.052601
20
0.103802
30
0.0
11
0.052601
21
0.104193
31
0.0
0
LINE
8
0
6
CONTINUOUS
10
0.051956
20
0.103802
30
0.0
11
0.052601
21
0.103802
31
0.0
0
LINE
8
0
6
CONTINUOUS
10
0.043098
20
0.103802
30
0.0
11
0.047037
21
0.103802
31
0.0
0
LINE
8
0
6
CONTINUOUS
10
0.020166
20
0.103802
30
0.0
11
0.024101
21
0.103802
31
0.0
0
LINE
8
0
6
CONTINUOUS
10
0.015249
20
0.103802
30
0.0
11
0.017147
21
0.103802
31
0.0
0
LINE
8
0
6
CONTINUOUS
10
0.047037
20
0.103802
30
0.0
11
0.050058
21
0.103802
31
0.0
0
LINE
8
0
6
CONTINUOUS
10
0.014601
20
0.103802
30
0.0
11
0.015249
21
0.103802
31
0.0
0
LINE
8
0
6
CONTINUOUS
10
0.014601
20
0.104291
30
0.0
11
0.014601
21
0.103802
31
0.0
0
LINE
8
0
6
CONTINUOUS
10
0.008792
20
0.112853
30
0.0
11
0.009623
21
0.112197
31
0.0
0
LINE
8
0
6
CONTINUOUS
10
0.008792
20
0.112853
30
0.0
11
0.009081
21
0.112809
31
0.0
0
LINE
8
0
6
CONTINUOUS
10
0.008792
20
0.113358
30
0.0
11
0.008792
21
0.112853
31
0.0
0
LINE
8
0
6
CONTINUOUS
10
0.010034
20
0.112513
30
0.0
11
0.009243
21
0.112785
31
0.0
0
LINE
8
0
6
CONTINUOUS
10
0.010034
20
0.112513
30
0.0
11
0.014677
21
0.110416
31
0.0
0
LINE
8
0
6
CONTINUOUS
10
0.014677
20
0.110416
30
0.0
11
0.012514
21
0.110534
31
0.0
0
LINE
8
0
6
CONTINUOUS
10
0.014673
20
0.107660
30
0.0
11
0.014722
21
0.107664
31
0.0
0
LINE
8
0
6
CONTINUOUS
10
0.009243
20
0.112785
30
0.0
11
0.009240
21
0.113293
31
0.0
0
LINE
8
0
6
CONTINUOUS
10
0.009889
20
0.112180
30
0.0
11
0.009243
21
0.112785
31
0.0
0
LINE
8
0
6
CONTINUOUS
10
0.009243
20
0.112785
30
0.0
11
0.009081
21
0.112809
31
0.0
0
LINE
8
0
6
CONTINUOUS
10
0.015229
20
0.110788
30
0.0
11
0.015229
21
0.111357
31
0.0
0
LINE
8
0
6
CONTINUOUS
10
0.015229
20
0.110217
30
0.0
11
0.015229
21
0.110788
31
0.0
0
LINE
8
0
6
CONTINUOUS
10
0.014582
20
0.107654
30
0.0
11
0.014673
21
0.107660
31
0.0
0
LINE
8
0
6
CONTINUOUS
10
0.013648
20
0.108942
30
0.0
11
0.014582
21
0.107654
31
0.0
0
LINE
8
0
6
CONTINUOUS
10
0.015229
20
0.110097
30
0.0
11
0.015229
21
0.110217
31
0.0
0
LINE
8
0
6
CONTINUOUS
10
0.015147
20
0.107692
30
0.0
11
0.015229
21
0.107698
31
0.0
0
LINE
8
0
6
CONTINUOUS
10
0.015229
20
0.107698
30
0.0
11
0.015229
21
0.107853
31
0.0
0
LINE
8
0
6
CONTINUOUS
10
0.014785
20
0.107668
30
0.0
11
0.015147
21
0.107692
31
0.0
0
LINE
8
0
6
CONTINUOUS
10
0.014722
20
0.107664
30
0.0
11
0.014785
21
0.107668
31
0.0
0
LINE
8
0
6
CONTINUOUS
10
0.009623
20
0.112197
30
0.0
11
0.011895
21
0.110643
31
0.0
0
LINE
8
0
6
CONTINUOUS
10
0.015229
20
0.108975
30
0.0
11
0.015229
21
0.110097
31
0.0
0
LINE
8
0
6
CONTINUOUS
10
0.014903
20
0.109071
30
0.0
11
0.015229
21
0.110097
31
0.0
0
LINE
8
0
6
CONTINUOUS
10
0.015229
20
0.107853
30
0.0
11
0.015229
21
0.108975
31
0.0
0
LINE
8
0
6
CONTINUOUS
10
0.014903
20
0.109071
30
0.0
11
0.014718
21
0.110170
31
0.0
0
LINE
8
0
6
CONTINUOUS
10
0.013537
20
0.109792
30
0.0
11
0.014718
21
0.110170
31
0.0
0
LINE
8
0
6
CONTINUOUS
10
0.014718
20
0.110170
30
0.0
11
0.012514
21
0.110534
31
0.0
0
LINE
8
0
6
CONTINUOUS
10
0.011895
20
0.110643
30
0.0
11
0.012944
21
0.109926
31
0.0
0
LINE
8
0
6
CONTINUOUS
10
0.012944
20
0.109926
30
0.0
11
0.013648
21
0.108942
31
0.0
0
LINE
8
0
6
CONTINUOUS
10
0.053687
20
0.052387
30
0.0
11
0.053194
21
0.072401
31
0.0
0
LINE
8
0
6
CONTINUOUS
10
0.052825
20
0.087401
30
0.0
11
0.052616
21
0.101401
31
0.0
0
LINE
8
0
6
CONTINUOUS
10
0.003188
20
0.081023
30
0.0
11
-0.066973
21
0.049740
31
0.0
0
LINE
8
0
6
CONTINUOUS
10
0.012647
20
0.050123
30
0.0
11
0.009150
21
0.050529
31
0.0
0
LINE
8
0
6
CONTINUOUS
10
0.012647
20
0.050123
30
0.0
11
0.010580
21
0.047813
31
0.0
0
LINE
8
0
6
CONTINUOUS
10
0.015137
20
0.046591
30
0.0
11
0.012647
21
0.050123
31
0.0
0
LINE
8
0
6
CONTINUOUS
10
0.015137
20
0.046591
30
0.0
11
0.013062
21
0.044329
31
0.0
0
LINE
8
0
6
CONTINUOUS
10
0.006374
20
0.047338
30
0.0
11
0.009872
21
0.047023
31
0.0
0
LINE
8
0
6
CONTINUOUS
10
0.010580
20
0.047813
30
0.0
11
0.009872
21
0.047023
31
0.0
0
LINE
8
0
6
CONTINUOUS
10
0.009872
20
0.047023
30
0.0
11
0.012352
21
0.043558
31
0.0
0
LINE
8
0
6
CONTINUOUS
10
0.013062
20
0.044329
30
0.0
11
0.012352
21
0.043558
31
0.0
0
LINE
8
0
6
CONTINUOUS
10
0.012352
20
0.043558
30
0.0
11
0.013156
21
0.037870
31
0.0
0
LINE
8
0
6
CONTINUOUS
10
0.018109
20
0.069746
30
0.0
11
0.020505
21
0.070568
31
0.0
0
LINE
8
0
6
CONTINUOUS
10
0.015708
20
0.068920
30
0.0
11
0.018109
21
0.069746
31
0.0
0
LINE
8
0
6
CONTINUOUS
10
0.014601
20
0.096506
30
0.0
11
0.013549
21
0.090797
31
0.0
0
LINE
8
0
6
CONTINUOUS
10
0.013549
20
0.090797
30
0.0
11
0.010913
21
0.085816
31
0.0
0
LINE
8
0
6
CONTINUOUS
10
0.010913
20
0.085816
30
0.0
11
0.007391
21
0.082897
31
0.0
0
LINE
8
0
6
CONTINUOUS
10
0.012968
20
0.077203
30
0.0
11
0.016463
21
0.080176
31
0.0
0
LINE
8
0
6
CONTINUOUS
10
0.013136
20
0.037057
30
0.0
11
0.010619
21
-0.153000
31
0.0
0
LINE
8
0
6
CONTINUOUS
10
0.020069
20
0.090920
30
0.0
11
0.019059
21
0.085197
31
0.0
0
LINE
8
0
6
CONTINUOUS
10
0.022896
20
0.071386
30
0.0
11
0.018496
21
0.054787
31
0.0
0
LINE
8
0
6
CONTINUOUS
10
0.056575
20
-0.153000
30
0.0
11
0.055923
21
-0.106606
31
0.0
0
LINE
8
0
6
CONTINUOUS
10
0.055785
20
-0.096803
30
0.0
11
0.053687
21
0.052387
31
0.0
0
LINE
8
0
6
CONTINUOUS
10
0.014601
20
0.101401
30
0.0
11
0.014601
21
0.097319
31
0.0
0
LINE
8
0
6
CONTINUOUS
10
0.053194
20
0.072401
30
0.0
11
0.052825
21
0.087401
31
0.0
0
LINE
8
0
6
CONTINUOUS
10
-0.064625
20
0.046191
30
0.0
11
-0.060932
21
0.042716
31
0.0
0
LINE
8
0
6
CONTINUOUS
10
-0.067072
20
0.048493
30
0.0
11
-0.064625
21
0.046191
31
0.0
0
LINE
8
0
6
CONTINUOUS
10
-0.067939
20
0.049309
30
0.0
11
-0.067072
21
0.048493
31
0.0
0
LINE
8
0
6
CONTINUOUS
10
-0.066973
20
0.049740
30
0.0
11
-0.067939
21
0.049309
31
0.0
0
LINE
8
0
6
CONTINUOUS
10
-0.056030
20
0.038103
30
0.0
11
-0.060932
21
0.042716
31
0.0
0
LINE
8
0
6
CONTINUOUS
10
-0.044738
20
0.027477
30
0.0
11
-0.044002
21
0.026785
31
0.0
0
LINE
8
0
6
CONTINUOUS
10
-0.044002
20
0.026785
30
0.0
11
-0.042992
21
0.027198
31
0.0
0
LINE
8
0
6
CONTINUOUS
10
-0.046892
20
0.029505
30
0.0
11
-0.044738
21
0.027477
31
0.0
0
LINE
8
0
6
CONTINUOUS
10
-0.056030
20
0.038103
30
0.0
11
-0.051051
21
0.033418
31
0.0
0
LINE
8
0
6
CONTINUOUS
10
-0.055048
20
0.038527
30
0.0
11
-0.056030
21
0.038103
31
0.0
0
LINE
8
0
6
CONTINUOUS
10
-0.051051
20
0.033418
30
0.0
11
-0.046892
21
0.029505
31
0.0
0
LINE
8
0
6
CONTINUOUS
10
-0.046892
20
0.029505
30
0.0
11
-0.045869
21
0.029889
31
0.0
0
LINE
8
0
6
CONTINUOUS
10
-0.042992
20
0.027198
30
0.0
11
0.002113
21
0.045599
31
0.0
0
LINE
8
0
6
CONTINUOUS
10
0.002808
20
0.046447
30
0.0
11
-0.043724
21
0.027882
31
0.0
0
LINE
8
0
6
CONTINUOUS
10
0.015249
20
0.102401
30
0.0
11
0.014601
21
0.102401
31
0.0
0
LINE
8
0
6
CONTINUOUS
10
0.014601
20
0.102401
30
0.0
11
0.014601
21
0.101401
31
0.0
0
LINE
8
0
6
CONTINUOUS
10
0.047036
20
0.102401
30
0.0
11
0.043101
21
0.102401
31
0.0
0
LINE
8
0
6
CONTINUOUS
10
0.052601
20
0.102401
30
0.0
11
0.051954
21
0.102401
31
0.0
0
LINE
8
0
6
CONTINUOUS
10
0.052616
20
0.101401
30
0.0
11
0.052601
21
0.102401
31
0.0
0
LINE
8
0
6
CONTINUOUS
10
0.024101
20
0.102401
30
0.0
11
0.020166
21
0.102401
31
0.0
0
LINE
8
0
6
CONTINUOUS
10
0.038519
20
0.102401
30
0.0
11
0.033601
21
0.102401
31
0.0
0
LINE
8
0
6
CONTINUOUS
10
0.033601
20
0.102401
30
0.0
11
0.028684
21
0.102401
31
0.0
0
LINE
8
0
6
CONTINUOUS
10
0.017147
20
0.102401
30
0.0
11
0.015249
21
0.102401
31
0.0
0
LINE
8
0
6
CONTINUOUS
10
0.051954
20
0.102401
30
0.0
11
0.050056
21
0.102401
31
0.0
0
LINE
8
0
6
CONTINUOUS
10
0.050056
20
0.102401
30
0.0
11
0.047036
21
0.102401
31
0.0
0
LINE
8
0
6
CONTINUOUS
10
0.020166
20
0.102401
30
0.0
11
0.017147
21
0.102401
31
0.0
0
LINE
8
0
6
CONTINUOUS
10
0.043101
20
0.102401
30
0.0
11
0.038519
21
0.102401
31
0.0
0
LINE
8
0
6
CONTINUOUS
10
0.028684
20
0.102401
30
0.0
11
0.024101
21
0.102401
31
0.0
0
LINE
8
0
6
CONTINUOUS
10
0.013676
20
-0.154000
30
0.0
11
0.017332
21
-0.154000
31
0.0
0
LINE
8
0
6
CONTINUOUS
10
0.022096
20
-0.154000
30
0.0
11
0.027644
21
-0.154000
31
0.0
0
LINE
8
0
6
CONTINUOUS
10
0.053518
20
-0.154000
30
0.0
11
0.055816
21
-0.154000
31
0.0
0
LINE
8
0
6
CONTINUOUS
10
0.010595
20
-0.154000
30
0.0
11
0.011378
21
-0.154000
31
0.0
0
LINE
8
0
6
CONTINUOUS
10
0.010619
20
-0.153000
30
0.0
11
0.010595
21
-0.154000
31
0.0
0
LINE
8
0
6
CONTINUOUS
10
0.045098
20
-0.154000
30
0.0
11
0.049862
21
-0.154000
31
0.0
0
LINE
8
0
6
CONTINUOUS
10
0.033597
20
-0.154000
30
0.0
11
0.039551
21
-0.154000
31
0.0
0
LINE
8
0
6
CONTINUOUS
10
0.017332
20
-0.154000
30
0.0
11
0.022096
21
-0.154000
31
0.0
0
LINE
8
0
6
CONTINUOUS
10
0.056600
20
-0.154000
30
0.0
11
0.056575
21
-0.153000
31
0.0
0
LINE
8
0
6
CONTINUOUS
10
0.055816
20
-0.154000
30
0.0
11
0.056600
21
-0.154000
31
0.0
0
LINE
8
0
6
CONTINUOUS
10
0.027644
20
-0.154000
30
0.0
11
0.033597
21
-0.154000
31
0.0
0
LINE
8
0
6
CONTINUOUS
10
0.011378
20
-0.154000
30
0.0
11
0.013676
21
-0.154000
31
0.0
0
LINE
8
0
6
CONTINUOUS
10
0.049862
20
-0.154000
30
0.0
11
0.053518
21
-0.154000
31
0.0
0
LINE
8
0
6
CONTINUOUS
10
0.039551
20
-0.154000
30
0.0
11
0.045098
21
-0.154000
31
0.0
0
LINE
8
0
6
CONTINUOUS
10
0.013156
20
0.037870
30
0.0
11
0.013136
21
0.037057
31
0.0
0
LINE
8
0
6
CONTINUOUS
10
0.014601
20
0.097319
30
0.0
11
0.014601
21
0.096506
31
0.0
0
LINE
8
0
6
CONTINUOUS
10
0.019887
20
0.048793
30
0.0
11
0.023629
21
0.071618
31
0.0
0
LINE
8
0
6
CONTINUOUS
10
0.019339
20
0.049098
30
0.0
11
0.023629
21
0.071618
31
0.0
0
LINE
8
0
6
CONTINUOUS
10
-0.045869
20
0.029889
30
0.0
11
0.004842
21
0.048912
31
0.0
0
LINE
8
0
6
CONTINUOUS
10
0.007082
20
0.048152
30
0.0
11
0.009150
21
0.050529
31
0.0
0
LINE
8
0
6
CONTINUOUS
10
-0.055048
20
0.038527
30
0.0
11
0.011481
21
0.067104
31
0.0
0
LINE
8
0
6
CONTINUOUS
10
0.007391
20
0.082897
30
0.0
11
0.003188
21
0.081023
31
0.0
0
LINE
8
0
6
CONTINUOUS
10
0.008798
20
0.075257
30
0.0
11
0.012968
21
0.077203
31
0.0
0
LINE
8
0
6
CONTINUOUS
10
0.002113
20
0.045599
30
0.0
11
0.006374
21
0.047338
31
0.0
0
LINE
8
0
6
CONTINUOUS
10
0.006374
20
0.047338
30
0.0
11
0.007082
21
0.048152
31
0.0
0
LINE
8
0
6
CONTINUOUS
10
0.004842
20
0.048912
30
0.0
11
0.009150
21
0.050529
31
0.0
0
LINE
8
0
6
CONTINUOUS
10
0.015708
20
0.068920
30
0.0
11
0.011481
21
0.067104
31
0.0
0
LINE
8
0
6
CONTINUOUS
10
-0.050047
20
0.025873
30
0.0
11
-0.049488
21
0.026510
31
0.0
0
LINE
8
0
6
CONTINUOUS
10
-0.050475
20
0.026265
30
0.0
11
-0.050047
21
0.025873
31
0.0
0
LINE
8
0
6
CONTINUOUS
10
-0.051715
20
0.027404
30
0.0
11
-0.050475
21
0.026265
31
0.0
0
LINE
8
0
6
CONTINUOUS
10
-0.053648
20
0.029178
30
0.0
11
-0.051715
21
0.027404
31
0.0
0
LINE
8
0
6
CONTINUOUS
10
-0.056082
20
0.031413
30
0.0
11
-0.053648
21
0.029178
31
0.0
0
LINE
8
0
6
CONTINUOUS
10
-0.058782
20
0.033891
30
0.0
11
-0.056082
21
0.031413
31
0.0
0
LINE
8
0
6
CONTINUOUS
10
-0.061481
20
0.036368
30
0.0
11
-0.058782
21
0.033891
31
0.0
0
LINE
8
0
6
CONTINUOUS
10
-0.063916
20
0.038604
30
0.0
11
-0.061481
21
0.036368
31
0.0
0
LINE
8
0
6
CONTINUOUS
10
-0.065848
20
0.040377
30
0.0
11
-0.063916
21
0.038604
31
0.0
0
LINE
8
0
6
CONTINUOUS
10
-0.067089
20
0.041516
30
0.0
11
-0.065848
21
0.040377
31
0.0
0
LINE
8
0
6
CONTINUOUS
10
-0.066957
20
0.042546
30
0.0
11
-0.067516
21
0.041909
31
0.0
0
LINE
8
0
6
CONTINUOUS
10
-0.067516
20
0.041909
30
0.0
11
-0.067089
21
0.041516
31
0.0
0
LINE
8
0
6
CONTINUOUS
10
-0.049488
20
0.026510
30
0.0
11
-0.046810
21
0.029428
31
0.0
0
LINE
8
0
6
CONTINUOUS
10
-0.064081
20
0.045679
30
0.0
11
-0.066957
21
0.042546
31
0.0
0
LINE
8
0
6
CONTINUOUS
10
0.057420
20
-0.099554
30
0.0
11
0.057021
21
-0.100110
31
0.0
0
LINE
8
0
6
CONTINUOUS
10
0.057627
20
-0.099826
30
0.0
11
0.058039
21
-0.099134
31
0.0
0
LINE
8
0
6
CONTINUOUS
10
0.063105
20
-0.097581
30
0.0
11
0.059500
21
-0.097216
31
0.0
0
LINE
8
0
6
CONTINUOUS
10
0.063105
20
-0.097581
30
0.0
11
0.059925
21
-0.097802
31
0.0
0
LINE
8
0
6
CONTINUOUS
10
0.060660
20
-0.097982
30
0.0
11
0.064496
21
-0.097841
31
0.0
0
LINE
8
0
6
CONTINUOUS
10
0.067055
20
-0.097503
30
0.0
11
0.064967
21
-0.097590
31
0.0
0
LINE
8
0
6
CONTINUOUS
10
0.059500
20
-0.097216
30
0.0
11
0.062918
21
-0.097503
31
0.0
0
LINE
8
0
6
CONTINUOUS
10
0.057022
20
-0.097378
30
0.0
11
0.056293
21
-0.097882
31
0.0
0
LINE
8
0
6
CONTINUOUS
10
0.057893
20
-0.099084
30
0.0
11
0.058453
21
-0.098803
31
0.0
0
LINE
8
0
6
CONTINUOUS
10
0.057250
20
-0.098295
30
0.0
11
0.056664
21
-0.098671
31
0.0
0
LINE
8
0
6
CONTINUOUS
10
0.064503
20
-0.095560
30
0.0
11
0.060932
21
-0.095112
31
0.0
0
LINE
8
0
6
CONTINUOUS
10
0.055849
20
-0.099826
30
0.0
11
0.056117
21
-0.099134
31
0.0
0
LINE
8
0
6
CONTINUOUS
10
0.055534
20
-0.098383
30
0.0
11
0.055110
21
-0.099267
31
0.0
0
LINE
8
0
6
CONTINUOUS
10
0.054435
20
-0.098879
30
0.0
11
0.053915
21
-0.099705
31
0.0
0
LINE
8
0
6
CONTINUOUS
10
0.055607
20
-0.100526
30
0.0
11
0.055849
21
-0.099826
31
0.0
0
LINE
8
0
6
CONTINUOUS
10
0.055110
20
-0.099267
30
0.0
11
0.054912
21
-0.100245
31
0.0
0
LINE
8
0
6
CONTINUOUS
10
0.056664
20
-0.098671
30
0.0
11
0.056117
21
-0.099134
31
0.0
0
LINE
8
0
6
CONTINUOUS
10
0.057022
20
-0.097378
30
0.0
11
0.059500
21
-0.097216
31
0.0
0
LINE
8
0
6
CONTINUOUS
10
0.056984
20
-0.096399
30
0.0
11
0.059394
21
-0.095908
31
0.0
0
LINE
8
0
6
CONTINUOUS
10
0.062928
20
-0.096051
30
0.0
11
0.059509
21
-0.095401
31
0.0
0
LINE
8
0
6
CONTINUOUS
10
0.059409
20
-0.095611
30
0.0
11
0.062928
21
-0.096051
31
0.0
0
LINE
8
0
6
CONTINUOUS
10
0.056038
20
-0.096750
30
0.0
11
0.057104
21
-0.096113
31
0.0
0
LINE
8
0
6
CONTINUOUS
10
0.057372
20
-0.095816
30
0.0
11
0.056162
21
-0.096499
31
0.0
0
LINE
8
0
6
CONTINUOUS
10
0.055026
20
-0.097586
30
0.0
11
0.056038
21
-0.096750
31
0.0
0
LINE
8
0
6
CONTINUOUS
10
0.056162
20
-0.096499
30
0.0
11
0.055042
21
-0.097403
31
0.0
0
LINE
8
0
6
CONTINUOUS
10
0.054265
20
-0.098674
30
0.0
11
0.055026
21
-0.097586
31
0.0
0
LINE
8
0
6
CONTINUOUS
10
0.055042
20
-0.097403
30
0.0
11
0.054190
21
-0.098512
31
0.0
0
LINE
8
0
6
CONTINUOUS
10
0.054190
20
-0.098512
30
0.0
11
0.053522
21
-0.099382
31
0.0
0
LINE
8
0
6
CONTINUOUS
10
0.057104
20
-0.096113
30
0.0
11
0.059409
21
-0.095611
31
0.0
0
LINE
8
0
6
CONTINUOUS
10
0.066188
20
-0.095560
30
0.0
11
0.064503
21
-0.095560
31
0.0
0
LINE
8
0
6
CONTINUOUS
10
0.066050
20
-0.097503
30
0.0
11
0.067055
21
-0.097503
31
0.0
0
LINE
8
0
6
CONTINUOUS
10
0.064728
20
-0.097503
30
0.0
11
0.065463
21
-0.097503
31
0.0
0
LINE
8
0
6
CONTINUOUS
10
0.064748
20
-0.096051
30
0.0
11
0.065595
21
-0.096051
31
0.0
0
LINE
8
0
6
CONTINUOUS
10
0.066740
20
-0.097855
30
0.0
11
0.064967
21
-0.097590
31
0.0
0
LINE
8
0
6
CONTINUOUS
10
0.064496
20
-0.097841
30
0.0
11
0.066740
21
-0.097855
31
0.0
0
LINE
8
0
6
CONTINUOUS
10
0.067095
20
-0.095560
30
0.0
11
0.066188
21
-0.095560
31
0.0
0
LINE
8
0
6
CONTINUOUS
10
0.064900
20
-0.095923
30
0.0
11
0.065828
21
-0.095923
31
0.0
0
LINE
8
0
6
CONTINUOUS
10
0.067095
20
-0.095560
30
0.0
11
0.065828
21
-0.095923
31
0.0
0
LINE
8
0
6
CONTINUOUS
10
0.064728
20
-0.097503
30
0.0
11
0.064705
21
-0.096487
31
0.0
0
LINE
8
0
6
CONTINUOUS
10
0.064705
20
-0.096487
30
0.0
11
0.064748
21
-0.096051
31
0.0
0
LINE
8
0
6
CONTINUOUS
10
0.062928
20
-0.096051
30
0.0
11
0.064748
21
-0.096051
31
0.0
0
LINE
8
0
6
CONTINUOUS
10
0.064728
20
-0.097503
30
0.0
11
0.062918
21
-0.097503
31
0.0
0
LINE
8
0
6
CONTINUOUS
10
0.065463
20
-0.097503
30
0.0
11
0.066050
21
-0.097503
31
0.0
0
LINE
8
0
6
CONTINUOUS
10
0.059925
20
-0.097802
30
0.0
11
0.057250
21
-0.098295
31
0.0
0
LINE
8
0
6
CONTINUOUS
10
0.065828
20
-0.095923
30
0.0
11
0.065595
21
-0.096051
31
0.0
0
LINE
8
0
6
CONTINUOUS
10
0.065595
20
-0.096051
30
0.0
11
0.065552
21
-0.096487
31
0.0
0
LINE
8
0
6
CONTINUOUS
10
0.058541
20
-0.095540
30
0.0
11
0.057372
21
-0.095816
31
0.0
0
LINE
8
0
6
CONTINUOUS
10
0.060932
20
-0.095112
30
0.0
11
0.058541
21
-0.095540
31
0.0
0
LINE
8
0
6
CONTINUOUS
10
0.057372
20
-0.095816
30
0.0
11
0.059509
21
-0.095401
31
0.0
0
LINE
8
0
6
CONTINUOUS
10
0.054912
20
-0.100245
30
0.0
11
0.049723
21
-0.124701
31
0.0
0
LINE
8
0
6
CONTINUOUS
10
0.055607
20
-0.100526
30
0.0
11
0.050154
21
-0.127119
31
0.0
0
LINE
8
0
6
CONTINUOUS
10
0.053522
20
-0.099382
30
0.0
11
0.049894
21
-0.115909
31
0.0
0
LINE
8
0
6
CONTINUOUS
10
0.066740
20
-0.097855
30
0.0
11
0.067417
21
-0.097590
31
0.0
0
LINE
8
0
6
CONTINUOUS
10
0.067055
20
-0.097503
30
0.0
11
0.066740
21
-0.097855
31
0.0
0
LINE
8
0
6
CONTINUOUS
10
0.067055
20
-0.097503
30
0.0
11
0.067417
21
-0.097590
31
0.0
0
LINE
8
0
6
CONTINUOUS
10
0.067417
20
-0.097590
30
0.0
11
0.067737
21
-0.097503
31
0.0
0
LINE
8
0
6
CONTINUOUS
10
0.057021
20
-0.100110
30
0.0
11
0.056658
21
-0.100706
31
0.0
0
LINE
8
0
6
CONTINUOUS
10
0.057261
20
-0.100526
30
0.0
11
0.057627
21
-0.099826
31
0.0
0
LINE
8
0
6
CONTINUOUS
10
0.057893
20
-0.099084
30
0.0
11
0.057420
21
-0.099554
31
0.0
0
LINE
8
0
6
CONTINUOUS
10
0.058039
20
-0.099134
30
0.0
11
0.058532
21
-0.098671
31
0.0
0
LINE
8
0
6
CONTINUOUS
10
0.067055
20
-0.097503
30
0.0
11
0.067737
21
-0.097503
31
0.0
0
LINE
8
0
6
CONTINUOUS
10
0.067827
20
-0.095923
30
0.0
11
0.067095
21
-0.095560
31
0.0
0
LINE
8
0
6
CONTINUOUS
10
0.067787
20
-0.097503
30
0.0
11
0.067939
21
-0.096487
31
0.0
0
LINE
8
0
6
CONTINUOUS
10
0.067737
20
-0.097503
30
0.0
11
0.067787
21
-0.097503
31
0.0
0
LINE
8
0
6
CONTINUOUS
10
0.058453
20
-0.098803
30
0.0
11
0.061638
21
-0.097802
31
0.0
0
LINE
8
0
6
CONTINUOUS
10
0.067939
20
-0.096487
30
0.0
11
0.067898
21
-0.096051
31
0.0
0
LINE
8
0
6
CONTINUOUS
10
0.067898
20
-0.096051
30
0.0
11
0.067827
21
-0.095923
31
0.0
0
LINE
8
0
6
CONTINUOUS
10
0.051485
20
-0.126770
30
0.0
11
0.057261
21
-0.100526
31
0.0
0
LINE
8
0
6
CONTINUOUS
10
0.056658
20
-0.100706
30
0.0
11
0.050835
21
-0.127948
31
0.0
0
LINE
8
0
6
CONTINUOUS
10
0.049531
20
-0.120748
30
0.0
11
0.053915
21
-0.099705
31
0.0
0
LINE
8
0
6
CONTINUOUS
10
0.049562
20
-0.120058
30
0.0
11
0.049615
21
-0.118075
31
0.0
0
LINE
8
0
6
CONTINUOUS
10
0.049530
20
-0.120756
30
0.0
11
0.049562
21
-0.120058
31
0.0
0
LINE
8
0
6
CONTINUOUS
10
0.049710
20
-0.117184
30
0.0
11
0.049894
21
-0.115909
31
0.0
0
LINE
8
0
6
CONTINUOUS
10
0.050835
20
-0.127948
30
0.0
11
0.050618
21
-0.127727
31
0.0
0
LINE
8
0
6
CONTINUOUS
10
0.050835
20
-0.127948
30
0.0
11
0.051260
21
-0.127126
31
0.0
0
LINE
8
0
6
CONTINUOUS
10
0.049615
20
-0.118075
30
0.0
11
0.049710
21
-0.117184
31
0.0
0
LINE
8
0
6
CONTINUOUS
10
0.051260
20
-0.127126
30
0.0
11
0.051485
21
-0.126770
31
0.0
0
LINE
8
0
6
CONTINUOUS
10
0.050154
20
-0.127119
30
0.0
11
0.050074
21
-0.126509
31
0.0
0
LINE
8
0
6
CONTINUOUS
10
0.050074
20
-0.126509
30
0.0
11
0.049723
21
-0.124701
31
0.0
0
LINE
8
0
6
CONTINUOUS
10
0.050618
20
-0.127727
30
0.0
11
0.050154
21
-0.127119
31
0.0
0
ENDSEC
0
EOF
