999
Erzeugt mit innoplus bad 
0
SECTION
2
HEADER
9
$ACADVER
1
AC1009
9
$DWGCODEPAGE
3
ISO8859-1
0
ENDSEC
0
SECTION
2
TABLES
0
TABLE
2
LAYER
70
1
0
LAYER
2
0
70
0
62
7
6
CONTINUOUS
0
ENDTAB
0
ENDSEC
0
SECTION
2
ENTITIES
0
LINE
8
0
6
CONTINUOUS
10
-0.018748
20
0.154000
30
0.0
11
-0.020647
21
0.154000
31
0.0
0
LINE
8
0
6
CONTINUOUS
10
-0.011794
20
0.154000
30
0.0
11
-0.015729
21
0.154000
31
0.0
0
LINE
8
0
6
CONTINUOUS
10
-0.021294
20
0.154000
30
0.0
11
-0.021294
21
0.153610
31
0.0
0
LINE
8
0
6
CONTINUOUS
10
-0.020647
20
0.154000
30
0.0
11
-0.021294
21
0.154000
31
0.0
0
LINE
8
0
6
CONTINUOUS
10
-0.015729
20
0.154000
30
0.0
11
-0.018748
21
0.154000
31
0.0
0
LINE
8
0
6
CONTINUOUS
10
-0.007211
20
0.154000
30
0.0
11
-0.011794
21
0.154000
31
0.0
0
LINE
8
0
6
CONTINUOUS
10
-0.021294
20
0.153610
30
0.0
11
-0.021294
21
0.104193
31
0.0
0
LINE
8
0
6
CONTINUOUS
10
-0.002294
20
0.154000
30
0.0
11
-0.007211
21
0.154000
31
0.0
0
LINE
8
0
6
CONTINUOUS
10
-0.002294
20
0.144949
30
0.0
11
-0.002991
21
0.144994
31
0.0
0
LINE
8
0
6
CONTINUOUS
10
-0.003356
20
0.144509
30
0.0
11
-0.003356
21
0.113293
31
0.0
0
LINE
8
0
6
CONTINUOUS
10
-0.003871
20
0.145289
30
0.0
11
-0.003357
21
0.145017
31
0.0
0
LINE
8
0
6
CONTINUOUS
10
-0.003871
20
0.145289
30
0.0
11
-0.006895
21
0.147386
31
0.0
0
LINE
8
0
6
CONTINUOUS
10
-0.006895
20
0.147386
30
0.0
11
-0.003843
21
0.147268
31
0.0
0
LINE
8
0
6
CONTINUOUS
10
-0.002984
20
0.150142
30
0.0
11
-0.003356
21
0.150139
31
0.0
0
LINE
8
0
6
CONTINUOUS
10
-0.007211
20
0.146445
30
0.0
11
-0.007211
21
0.111357
31
0.0
0
LINE
8
0
6
CONTINUOUS
10
-0.003357
20
0.145017
30
0.0
11
-0.003356
21
0.144509
31
0.0
0
LINE
8
0
6
CONTINUOUS
10
-0.003367
20
0.145622
30
0.0
11
-0.003357
21
0.145017
31
0.0
0
LINE
8
0
6
CONTINUOUS
10
-0.003357
20
0.145017
30
0.0
11
-0.002991
21
0.144994
31
0.0
0
LINE
8
0
6
CONTINUOUS
10
-0.007211
20
0.147014
30
0.0
11
-0.007211
21
0.146445
31
0.0
0
LINE
8
0
6
CONTINUOUS
10
-0.007211
20
0.147585
30
0.0
11
-0.007211
21
0.147014
31
0.0
0
LINE
8
0
6
CONTINUOUS
10
-0.002294
20
0.150148
30
0.0
11
-0.002984
21
0.150142
31
0.0
0
LINE
8
0
6
CONTINUOUS
10
-0.007211
20
0.147705
30
0.0
11
-0.007211
21
0.147585
31
0.0
0
LINE
8
0
6
CONTINUOUS
10
-0.006584
20
0.150110
30
0.0
11
-0.007211
21
0.150104
31
0.0
0
LINE
8
0
6
CONTINUOUS
10
-0.007211
20
0.150104
30
0.0
11
-0.007211
21
0.149949
31
0.0
0
LINE
8
0
6
CONTINUOUS
10
-0.003834
20
0.150134
30
0.0
11
-0.006584
21
0.150110
31
0.0
0
LINE
8
0
6
CONTINUOUS
10
-0.003356
20
0.150139
30
0.0
11
-0.003834
21
0.150134
31
0.0
0
LINE
8
0
6
CONTINUOUS
10
-0.007211
20
0.148827
30
0.0
11
-0.007211
21
0.147705
31
0.0
0
LINE
8
0
6
CONTINUOUS
10
-0.006742
20
0.148731
30
0.0
11
-0.007211
21
0.147705
31
0.0
0
LINE
8
0
6
CONTINUOUS
10
-0.007211
20
0.149949
30
0.0
11
-0.007211
21
0.148827
31
0.0
0
LINE
8
0
6
CONTINUOUS
10
-0.006742
20
0.148731
30
0.0
11
-0.006867
21
0.147632
31
0.0
0
LINE
8
0
6
CONTINUOUS
10
-0.003841
20
0.148010
30
0.0
11
-0.006867
21
0.147632
31
0.0
0
LINE
8
0
6
CONTINUOUS
10
-0.006867
20
0.147632
30
0.0
11
-0.003843
21
0.147268
31
0.0
0
LINE
8
0
6
CONTINUOUS
10
-0.020647
20
0.103802
30
0.0
11
-0.018748
21
0.103802
31
0.0
0
LINE
8
0
6
CONTINUOUS
10
-0.015729
20
0.103802
30
0.0
11
-0.011794
21
0.103802
31
0.0
0
LINE
8
0
6
CONTINUOUS
10
-0.021294
20
0.103802
30
0.0
11
-0.020647
21
0.103802
31
0.0
0
LINE
8
0
6
CONTINUOUS
10
-0.021294
20
0.104193
30
0.0
11
-0.021294
21
0.103802
31
0.0
0
LINE
8
0
6
CONTINUOUS
10
-0.018748
20
0.103802
30
0.0
11
-0.015729
21
0.103802
31
0.0
0
LINE
8
0
6
CONTINUOUS
10
-0.011794
20
0.103802
30
0.0
11
-0.007211
21
0.103802
31
0.0
0
LINE
8
0
6
CONTINUOUS
10
-0.007211
20
0.103802
30
0.0
11
-0.002294
21
0.103802
31
0.0
0
LINE
8
0
6
CONTINUOUS
10
-0.002991
20
0.112809
30
0.0
11
-0.002294
21
0.112853
31
0.0
0
LINE
8
0
6
CONTINUOUS
10
-0.003357
20
0.112785
30
0.0
11
-0.003871
21
0.112513
31
0.0
0
LINE
8
0
6
CONTINUOUS
10
-0.003871
20
0.112513
30
0.0
11
-0.006895
21
0.110416
31
0.0
0
LINE
8
0
6
CONTINUOUS
10
-0.006895
20
0.110416
30
0.0
11
-0.003843
21
0.110534
31
0.0
0
LINE
8
0
6
CONTINUOUS
10
-0.003356
20
0.107664
30
0.0
11
-0.002984
21
0.107660
31
0.0
0
LINE
8
0
6
CONTINUOUS
10
-0.003356
20
0.113293
30
0.0
11
-0.003357
21
0.112785
31
0.0
0
LINE
8
0
6
CONTINUOUS
10
-0.002991
20
0.112809
30
0.0
11
-0.003357
21
0.112785
31
0.0
0
LINE
8
0
6
CONTINUOUS
10
-0.003357
20
0.112785
30
0.0
11
-0.003367
21
0.112180
31
0.0
0
LINE
8
0
6
CONTINUOUS
10
-0.007211
20
0.111357
30
0.0
11
-0.007211
21
0.110788
31
0.0
0
LINE
8
0
6
CONTINUOUS
10
-0.007211
20
0.110788
30
0.0
11
-0.007211
21
0.110217
31
0.0
0
LINE
8
0
6
CONTINUOUS
10
-0.002984
20
0.107660
30
0.0
11
-0.002294
21
0.107654
31
0.0
0
LINE
8
0
6
CONTINUOUS
10
-0.007211
20
0.110217
30
0.0
11
-0.007211
21
0.110097
31
0.0
0
LINE
8
0
6
CONTINUOUS
10
-0.007211
20
0.107853
30
0.0
11
-0.007211
21
0.107698
31
0.0
0
LINE
8
0
6
CONTINUOUS
10
-0.007211
20
0.107698
30
0.0
11
-0.006584
21
0.107692
31
0.0
0
LINE
8
0
6
CONTINUOUS
10
-0.006584
20
0.107692
30
0.0
11
-0.003834
21
0.107668
31
0.0
0
LINE
8
0
6
CONTINUOUS
10
-0.003834
20
0.107668
30
0.0
11
-0.003356
21
0.107664
31
0.0
0
LINE
8
0
6
CONTINUOUS
10
-0.006742
20
0.109071
30
0.0
11
-0.007211
21
0.110097
31
0.0
0
LINE
8
0
6
CONTINUOUS
10
-0.007211
20
0.110097
30
0.0
11
-0.007211
21
0.108975
31
0.0
0
LINE
8
0
6
CONTINUOUS
10
-0.007211
20
0.108975
30
0.0
11
-0.007211
21
0.107853
31
0.0
0
LINE
8
0
6
CONTINUOUS
10
-0.003843
20
0.110534
30
0.0
11
-0.006867
21
0.110170
31
0.0
0
LINE
8
0
6
CONTINUOUS
10
-0.003841
20
0.109792
30
0.0
11
-0.006867
21
0.110170
31
0.0
0
LINE
8
0
6
CONTINUOUS
10
-0.006867
20
0.110170
30
0.0
11
-0.006742
21
0.109071
31
0.0
0
LINE
8
0
6
CONTINUOUS
10
0.016059
20
0.154000
30
0.0
11
0.014161
21
0.154000
31
0.0
0
LINE
8
0
6
CONTINUOUS
10
0.011141
20
0.154000
30
0.0
11
0.007206
21
0.154000
31
0.0
0
LINE
8
0
6
CONTINUOUS
10
0.016706
20
0.154000
30
0.0
11
0.016059
21
0.154000
31
0.0
0
LINE
8
0
6
CONTINUOUS
10
0.016706
20
0.153610
30
0.0
11
0.016706
21
0.154000
31
0.0
0
LINE
8
0
6
CONTINUOUS
10
0.014161
20
0.154000
30
0.0
11
0.011141
21
0.154000
31
0.0
0
LINE
8
0
6
CONTINUOUS
10
0.007206
20
0.154000
30
0.0
11
0.002624
21
0.154000
31
0.0
0
LINE
8
0
6
CONTINUOUS
10
0.016706
20
0.104193
30
0.0
11
0.016706
21
0.153610
31
0.0
0
LINE
8
0
6
CONTINUOUS
10
0.002624
20
0.154000
30
0.0
11
-0.002294
21
0.154000
31
0.0
0
LINE
8
0
6
CONTINUOUS
10
-0.002294
20
0.145605
30
0.0
11
-0.002294
21
0.144949
31
0.0
0
LINE
8
0
6
CONTINUOUS
10
-0.002294
20
0.144949
30
0.0
11
-0.002294
21
0.144445
31
0.0
0
LINE
8
0
6
CONTINUOUS
10
-0.001597
20
0.144994
30
0.0
11
-0.002294
21
0.144949
31
0.0
0
LINE
8
0
6
CONTINUOUS
10
-0.001232
20
0.113293
30
0.0
11
-0.001232
21
0.144509
31
0.0
0
LINE
8
0
6
CONTINUOUS
10
-0.001231
20
0.145017
30
0.0
11
-0.000716
21
0.145289
31
0.0
0
LINE
8
0
6
CONTINUOUS
10
-0.000716
20
0.145289
30
0.0
11
0.002307
21
0.147386
31
0.0
0
LINE
8
0
6
CONTINUOUS
10
0.002307
20
0.147386
30
0.0
11
-0.000744
21
0.147268
31
0.0
0
LINE
8
0
6
CONTINUOUS
10
-0.001232
20
0.150139
30
0.0
11
-0.001604
21
0.150142
31
0.0
0
LINE
8
0
6
CONTINUOUS
10
0.002624
20
0.111357
30
0.0
11
0.002624
21
0.146445
31
0.0
0
LINE
8
0
6
CONTINUOUS
10
-0.001232
20
0.144509
30
0.0
11
-0.001231
21
0.145017
31
0.0
0
LINE
8
0
6
CONTINUOUS
10
-0.001597
20
0.144994
30
0.0
11
-0.001231
21
0.145017
31
0.0
0
LINE
8
0
6
CONTINUOUS
10
-0.001231
20
0.145017
30
0.0
11
-0.001221
21
0.145622
31
0.0
0
LINE
8
0
6
CONTINUOUS
10
0.002624
20
0.146445
30
0.0
11
0.002624
21
0.147014
31
0.0
0
LINE
8
0
6
CONTINUOUS
10
0.002624
20
0.147014
30
0.0
11
0.002624
21
0.147585
31
0.0
0
LINE
8
0
6
CONTINUOUS
10
-0.001604
20
0.150142
30
0.0
11
-0.002294
21
0.150148
31
0.0
0
LINE
8
0
6
CONTINUOUS
10
0.002624
20
0.147585
30
0.0
11
0.002624
21
0.147705
31
0.0
0
LINE
8
0
6
CONTINUOUS
10
0.002624
20
0.149949
30
0.0
11
0.002624
21
0.150104
31
0.0
0
LINE
8
0
6
CONTINUOUS
10
0.002624
20
0.150104
30
0.0
11
0.001996
21
0.150110
31
0.0
0
LINE
8
0
6
CONTINUOUS
10
0.001996
20
0.150110
30
0.0
11
-0.000754
21
0.150134
31
0.0
0
LINE
8
0
6
CONTINUOUS
10
-0.000754
20
0.150134
30
0.0
11
-0.001232
21
0.150139
31
0.0
0
LINE
8
0
6
CONTINUOUS
10
0.002155
20
0.148731
30
0.0
11
0.002624
21
0.147705
31
0.0
0
LINE
8
0
6
CONTINUOUS
10
0.002624
20
0.147705
30
0.0
11
0.002624
21
0.148827
31
0.0
0
LINE
8
0
6
CONTINUOUS
10
0.002624
20
0.148827
30
0.0
11
0.002624
21
0.149949
31
0.0
0
LINE
8
0
6
CONTINUOUS
10
-0.000744
20
0.147268
30
0.0
11
0.002280
21
0.147632
31
0.0
0
LINE
8
0
6
CONTINUOUS
10
-0.000746
20
0.148010
30
0.0
11
0.002280
21
0.147632
31
0.0
0
LINE
8
0
6
CONTINUOUS
10
0.002280
20
0.147632
30
0.0
11
0.002155
21
0.148731
31
0.0
0
LINE
8
0
6
CONTINUOUS
10
0.014161
20
0.103802
30
0.0
11
0.016059
21
0.103802
31
0.0
0
LINE
8
0
6
CONTINUOUS
10
0.007206
20
0.103802
30
0.0
11
0.011141
21
0.103802
31
0.0
0
LINE
8
0
6
CONTINUOUS
10
0.016706
20
0.103802
30
0.0
11
0.016706
21
0.104193
31
0.0
0
LINE
8
0
6
CONTINUOUS
10
0.016059
20
0.103802
30
0.0
11
0.016706
21
0.103802
31
0.0
0
LINE
8
0
6
CONTINUOUS
10
0.011141
20
0.103802
30
0.0
11
0.014161
21
0.103802
31
0.0
0
LINE
8
0
6
CONTINUOUS
10
0.002624
20
0.103802
30
0.0
11
0.007206
21
0.103802
31
0.0
0
LINE
8
0
6
CONTINUOUS
10
-0.002294
20
0.103802
30
0.0
11
0.002624
21
0.103802
31
0.0
0
LINE
8
0
6
CONTINUOUS
10
-0.002294
20
0.112853
30
0.0
11
-0.002294
21
0.112197
31
0.0
0
LINE
8
0
6
CONTINUOUS
10
-0.002294
20
0.112853
30
0.0
11
-0.001597
21
0.112809
31
0.0
0
LINE
8
0
6
CONTINUOUS
10
-0.002294
20
0.113358
30
0.0
11
-0.002294
21
0.112853
31
0.0
0
LINE
8
0
6
CONTINUOUS
10
-0.000716
20
0.112513
30
0.0
11
-0.001231
21
0.112785
31
0.0
0
LINE
8
0
6
CONTINUOUS
10
-0.000716
20
0.112513
30
0.0
11
0.002307
21
0.110416
31
0.0
0
LINE
8
0
6
CONTINUOUS
10
0.002307
20
0.110416
30
0.0
11
-0.000744
21
0.110534
31
0.0
0
LINE
8
0
6
CONTINUOUS
10
-0.001604
20
0.107660
30
0.0
11
-0.001232
21
0.107664
31
0.0
0
LINE
8
0
6
CONTINUOUS
10
-0.001231
20
0.112785
30
0.0
11
-0.001232
21
0.113293
31
0.0
0
LINE
8
0
6
CONTINUOUS
10
-0.001221
20
0.112180
30
0.0
11
-0.001231
21
0.112785
31
0.0
0
LINE
8
0
6
CONTINUOUS
10
-0.001231
20
0.112785
30
0.0
11
-0.001597
21
0.112809
31
0.0
0
LINE
8
0
6
CONTINUOUS
10
0.002624
20
0.110788
30
0.0
11
0.002624
21
0.111357
31
0.0
0
LINE
8
0
6
CONTINUOUS
10
0.002624
20
0.110217
30
0.0
11
0.002624
21
0.110788
31
0.0
0
LINE
8
0
6
CONTINUOUS
10
-0.002294
20
0.107654
30
0.0
11
-0.001604
21
0.107660
31
0.0
0
LINE
8
0
6
CONTINUOUS
10
0.002624
20
0.110097
30
0.0
11
0.002624
21
0.110217
31
0.0
0
LINE
8
0
6
CONTINUOUS
10
0.001996
20
0.107692
30
0.0
11
0.002624
21
0.107698
31
0.0
0
LINE
8
0
6
CONTINUOUS
10
0.002624
20
0.107698
30
0.0
11
0.002624
21
0.107853
31
0.0
0
LINE
8
0
6
CONTINUOUS
10
-0.000754
20
0.107668
30
0.0
11
0.001996
21
0.107692
31
0.0
0
LINE
8
0
6
CONTINUOUS
10
-0.001232
20
0.107664
30
0.0
11
-0.000754
21
0.107668
31
0.0
0
LINE
8
0
6
CONTINUOUS
10
0.002624
20
0.108975
30
0.0
11
0.002624
21
0.110097
31
0.0
0
LINE
8
0
6
CONTINUOUS
10
0.002155
20
0.109071
30
0.0
11
0.002624
21
0.110097
31
0.0
0
LINE
8
0
6
CONTINUOUS
10
0.002624
20
0.107853
30
0.0
11
0.002624
21
0.108975
31
0.0
0
LINE
8
0
6
CONTINUOUS
10
0.002155
20
0.109071
30
0.0
11
0.002280
21
0.110170
31
0.0
0
LINE
8
0
6
CONTINUOUS
10
-0.000746
20
0.109792
30
0.0
11
0.002280
21
0.110170
31
0.0
0
LINE
8
0
6
CONTINUOUS
10
0.002280
20
0.110170
30
0.0
11
-0.000744
21
0.110534
31
0.0
0
LINE
8
0
6
CONTINUOUS
10
-0.002294
20
0.113358
30
0.0
11
-0.002294
21
0.144445
31
0.0
0
LINE
8
0
6
CONTINUOUS
10
-0.018991
20
0.068920
30
0.0
11
-0.018903
21
0.067104
31
0.0
0
LINE
8
0
6
CONTINUOUS
10
-0.018961
20
0.070568
30
0.0
11
-0.018975
21
0.069746
31
0.0
0
LINE
8
0
6
CONTINUOUS
10
-0.018975
20
0.069746
30
0.0
11
-0.018991
21
0.068920
31
0.0
0
LINE
8
0
6
CONTINUOUS
10
-0.016026
20
0.080176
30
0.0
11
-0.016090
21
0.077203
31
0.0
0
LINE
8
0
6
CONTINUOUS
10
-0.018950
20
0.071386
30
0.0
11
-0.018961
21
0.070568
31
0.0
0
LINE
8
0
6
CONTINUOUS
10
-0.015929
20
0.085197
30
0.0
11
-0.015826
21
0.090920
31
0.0
0
LINE
8
0
6
CONTINUOUS
10
-0.021309
20
0.101401
30
0.0
11
-0.021518
21
0.087401
31
0.0
0
LINE
8
0
6
CONTINUOUS
10
-0.021518
20
0.087401
30
0.0
11
-0.021887
21
0.072401
31
0.0
0
LINE
8
0
6
CONTINUOUS
10
-0.021887
20
0.072401
30
0.0
11
-0.022380
21
0.052387
31
0.0
0
LINE
8
0
6
CONTINUOUS
10
-0.022380
20
0.052387
30
0.0
11
-0.025269
21
-0.153000
31
0.0
0
LINE
8
0
6
CONTINUOUS
10
-0.016026
20
0.042716
30
0.0
11
-0.012705
21
0.046191
31
0.0
0
LINE
8
0
6
CONTINUOUS
10
-0.012705
20
0.046191
30
0.0
11
-0.007914
21
0.048493
31
0.0
0
LINE
8
0
6
CONTINUOUS
10
-0.007914
20
0.048493
30
0.0
11
-0.002294
21
0.049309
31
0.0
0
LINE
8
0
6
CONTINUOUS
10
-0.017519
20
0.038527
30
0.0
11
-0.017496
21
0.038103
31
0.0
0
LINE
8
0
6
CONTINUOUS
10
-0.016026
20
0.042716
30
0.0
11
-0.017496
21
0.038103
31
0.0
0
LINE
8
0
6
CONTINUOUS
10
-0.017496
20
0.038103
30
0.0
11
-0.015993
21
0.033418
31
0.0
0
LINE
8
0
6
CONTINUOUS
10
-0.015993
20
0.033418
30
0.0
11
-0.012553
21
0.029505
31
0.0
0
LINE
8
0
6
CONTINUOUS
10
-0.002294
20
0.102401
30
0.0
11
-0.007211
21
0.102401
31
0.0
0
LINE
8
0
6
CONTINUOUS
10
-0.015729
20
0.102401
30
0.0
11
-0.018748
21
0.102401
31
0.0
0
LINE
8
0
6
CONTINUOUS
10
-0.021294
20
0.102401
30
0.0
11
-0.021309
21
0.101401
31
0.0
0
LINE
8
0
6
CONTINUOUS
10
-0.020646
20
0.102401
30
0.0
11
-0.021294
21
0.102401
31
0.0
0
LINE
8
0
6
CONTINUOUS
10
-0.007211
20
0.102401
30
0.0
11
-0.011794
21
0.102401
31
0.0
0
LINE
8
0
6
CONTINUOUS
10
-0.011794
20
0.102401
30
0.0
11
-0.015729
21
0.102401
31
0.0
0
LINE
8
0
6
CONTINUOUS
10
-0.018748
20
0.102401
30
0.0
11
-0.020646
21
0.102401
31
0.0
0
LINE
8
0
6
CONTINUOUS
10
-0.018557
20
-0.154000
30
0.0
11
-0.013794
21
-0.154000
31
0.0
0
LINE
8
0
6
CONTINUOUS
10
-0.024510
20
-0.154000
30
0.0
11
-0.022212
21
-0.154000
31
0.0
0
LINE
8
0
6
CONTINUOUS
10
-0.008247
20
-0.154000
30
0.0
11
-0.002294
21
-0.154000
31
0.0
0
LINE
8
0
6
CONTINUOUS
10
-0.022212
20
-0.154000
30
0.0
11
-0.018557
21
-0.154000
31
0.0
0
LINE
8
0
6
CONTINUOUS
10
-0.025269
20
-0.153000
30
0.0
11
-0.025294
21
-0.154000
31
0.0
0
LINE
8
0
6
CONTINUOUS
10
-0.025294
20
-0.154000
30
0.0
11
-0.024510
21
-0.154000
31
0.0
0
LINE
8
0
6
CONTINUOUS
10
-0.013794
20
-0.154000
30
0.0
11
-0.008247
21
-0.154000
31
0.0
0
LINE
8
0
6
CONTINUOUS
10
-0.018903
20
0.067104
30
0.0
11
-0.017519
21
0.038527
31
0.0
0
LINE
8
0
6
CONTINUOUS
10
-0.016090
20
0.077203
30
0.0
11
-0.016086
21
0.075257
31
0.0
0
LINE
8
0
6
CONTINUOUS
10
0.014315
20
0.067104
30
0.0
11
0.014403
21
0.068920
31
0.0
0
LINE
8
0
6
CONTINUOUS
10
0.014387
20
0.069746
30
0.0
11
0.014373
21
0.070568
31
0.0
0
LINE
8
0
6
CONTINUOUS
10
0.014403
20
0.068920
30
0.0
11
0.014387
21
0.069746
31
0.0
0
LINE
8
0
6
CONTINUOUS
10
0.011502
20
0.077203
30
0.0
11
0.011438
21
0.080176
31
0.0
0
LINE
8
0
6
CONTINUOUS
10
0.011238
20
0.090920
30
0.0
11
0.011341
21
0.085197
31
0.0
0
LINE
8
0
6
CONTINUOUS
10
0.014373
20
0.070568
30
0.0
11
0.014363
21
0.071386
31
0.0
0
LINE
8
0
6
CONTINUOUS
10
0.016930
20
0.087401
30
0.0
11
0.016721
21
0.101401
31
0.0
0
LINE
8
0
6
CONTINUOUS
10
0.017299
20
0.072401
30
0.0
11
0.016930
21
0.087401
31
0.0
0
LINE
8
0
6
CONTINUOUS
10
0.017792
20
0.052387
30
0.0
11
0.017299
21
0.072401
31
0.0
0
LINE
8
0
6
CONTINUOUS
10
0.020681
20
-0.153000
30
0.0
11
0.017792
21
0.052387
31
0.0
0
LINE
8
0
6
CONTINUOUS
10
0.008117
20
0.046191
30
0.0
11
0.011439
21
0.042716
31
0.0
0
LINE
8
0
6
CONTINUOUS
10
0.003326
20
0.048493
30
0.0
11
0.008117
21
0.046191
31
0.0
0
LINE
8
0
6
CONTINUOUS
10
-0.002294
20
0.049309
30
0.0
11
0.003326
21
0.048493
31
0.0
0
LINE
8
0
6
CONTINUOUS
10
0.012908
20
0.038103
30
0.0
11
0.012932
21
0.038527
31
0.0
0
LINE
8
0
6
CONTINUOUS
10
0.012908
20
0.038103
30
0.0
11
0.011439
21
0.042716
31
0.0
0
LINE
8
0
6
CONTINUOUS
10
0.011405
20
0.033418
30
0.0
11
0.012908
21
0.038103
31
0.0
0
LINE
8
0
6
CONTINUOUS
10
0.007965
20
0.029505
30
0.0
11
0.011405
21
0.033418
31
0.0
0
LINE
8
0
6
CONTINUOUS
10
0.002624
20
0.102401
30
0.0
11
-0.002294
21
0.102401
31
0.0
0
LINE
8
0
6
CONTINUOUS
10
0.014161
20
0.102401
30
0.0
11
0.011141
21
0.102401
31
0.0
0
LINE
8
0
6
CONTINUOUS
10
0.016706
20
0.102401
30
0.0
11
0.016059
21
0.102401
31
0.0
0
LINE
8
0
6
CONTINUOUS
10
0.016721
20
0.101401
30
0.0
11
0.016706
21
0.102401
31
0.0
0
LINE
8
0
6
CONTINUOUS
10
0.007206
20
0.102401
30
0.0
11
0.002624
21
0.102401
31
0.0
0
LINE
8
0
6
CONTINUOUS
10
0.011141
20
0.102401
30
0.0
11
0.007206
21
0.102401
31
0.0
0
LINE
8
0
6
CONTINUOUS
10
0.016059
20
0.102401
30
0.0
11
0.014161
21
0.102401
31
0.0
0
LINE
8
0
6
CONTINUOUS
10
0.009206
20
-0.154000
30
0.0
11
0.013970
21
-0.154000
31
0.0
0
LINE
8
0
6
CONTINUOUS
10
0.017625
20
-0.154000
30
0.0
11
0.019922
21
-0.154000
31
0.0
0
LINE
8
0
6
CONTINUOUS
10
-0.002294
20
-0.154000
30
0.0
11
0.003659
21
-0.154000
31
0.0
0
LINE
8
0
6
CONTINUOUS
10
0.013970
20
-0.154000
30
0.0
11
0.017625
21
-0.154000
31
0.0
0
LINE
8
0
6
CONTINUOUS
10
0.019922
20
-0.154000
30
0.0
11
0.020706
21
-0.154000
31
0.0
0
LINE
8
0
6
CONTINUOUS
10
0.020706
20
-0.154000
30
0.0
11
0.020681
21
-0.153000
31
0.0
0
LINE
8
0
6
CONTINUOUS
10
0.003659
20
-0.154000
30
0.0
11
0.009206
21
-0.154000
31
0.0
0
LINE
8
0
6
CONTINUOUS
10
0.012932
20
0.038527
30
0.0
11
0.014315
21
0.067104
31
0.0
0
LINE
8
0
6
CONTINUOUS
10
0.011499
20
0.075257
30
0.0
11
0.011502
21
0.077203
31
0.0
0
LINE
8
0
6
CONTINUOUS
10
-0.009267
20
0.040377
30
0.0
11
-0.005960
21
0.041516
31
0.0
0
LINE
8
0
6
CONTINUOUS
10
-0.011891
20
0.038604
30
0.0
11
-0.009267
21
0.040377
31
0.0
0
LINE
8
0
6
CONTINUOUS
10
-0.013577
20
0.036368
30
0.0
11
-0.011891
21
0.038604
31
0.0
0
LINE
8
0
6
CONTINUOUS
10
-0.014157
20
0.034528
30
0.0
11
-0.014157
21
0.033891
31
0.0
0
LINE
8
0
6
CONTINUOUS
10
-0.014157
20
0.033891
30
0.0
11
-0.013577
21
0.036368
31
0.0
0
LINE
8
0
6
CONTINUOUS
10
-0.014157
20
0.033891
30
0.0
11
-0.013577
21
0.031413
31
0.0
0
LINE
8
0
6
CONTINUOUS
10
-0.013577
20
0.031413
30
0.0
11
-0.011891
21
0.029178
31
0.0
0
LINE
8
0
6
CONTINUOUS
10
-0.011891
20
0.029178
30
0.0
11
-0.009267
21
0.027404
31
0.0
0
LINE
8
0
6
CONTINUOUS
10
-0.009267
20
0.027404
30
0.0
11
-0.005960
21
0.026265
31
0.0
0
LINE
8
0
6
CONTINUOUS
10
-0.005960
20
0.026265
30
0.0
11
-0.002294
21
0.025873
31
0.0
0
LINE
8
0
6
CONTINUOUS
10
-0.002294
20
0.025873
30
0.0
11
0.001372
21
0.026265
31
0.0
0
LINE
8
0
6
CONTINUOUS
10
0.001372
20
0.026265
30
0.0
11
0.004679
21
0.027404
31
0.0
0
LINE
8
0
6
CONTINUOUS
10
0.004679
20
0.027404
30
0.0
11
0.007304
21
0.029178
31
0.0
0
LINE
8
0
6
CONTINUOUS
10
0.007304
20
0.029178
30
0.0
11
0.008989
21
0.031413
31
0.0
0
LINE
8
0
6
CONTINUOUS
10
0.008989
20
0.031413
30
0.0
11
0.009569
21
0.033891
31
0.0
0
LINE
8
0
6
CONTINUOUS
10
0.009569
20
0.033891
30
0.0
11
0.009569
21
0.034528
31
0.0
0
LINE
8
0
6
CONTINUOUS
10
0.008989
20
0.036368
30
0.0
11
0.009569
21
0.033891
31
0.0
0
LINE
8
0
6
CONTINUOUS
10
0.007304
20
0.038604
30
0.0
11
0.008989
21
0.036368
31
0.0
0
LINE
8
0
6
CONTINUOUS
10
0.004679
20
0.040377
30
0.0
11
0.007304
21
0.038604
31
0.0
0
LINE
8
0
6
CONTINUOUS
10
0.001372
20
0.041516
30
0.0
11
0.004679
21
0.040377
31
0.0
0
LINE
8
0
6
CONTINUOUS
10
-0.002294
20
0.041909
30
0.0
11
0.001372
21
0.041516
31
0.0
0
LINE
8
0
6
CONTINUOUS
10
-0.005960
20
0.041516
30
0.0
11
-0.002294
21
0.041909
31
0.0
0
LINE
8
0
6
CONTINUOUS
10
-0.007598
20
0.038823
30
0.0
11
-0.005082
21
0.039689
31
0.0
0
LINE
8
0
6
CONTINUOUS
10
-0.009594
20
0.037474
30
0.0
11
-0.007598
21
0.038823
31
0.0
0
LINE
8
0
6
CONTINUOUS
10
-0.010875
20
0.035774
30
0.0
11
-0.009594
21
0.037474
31
0.0
0
LINE
8
0
6
CONTINUOUS
10
-0.011316
20
0.033891
30
0.0
11
-0.010875
21
0.035774
31
0.0
0
LINE
8
0
6
CONTINUOUS
10
0.006287
20
0.035774
30
0.0
11
0.006728
21
0.033891
31
0.0
0
LINE
8
0
6
CONTINUOUS
10
0.005006
20
0.037474
30
0.0
11
0.006287
21
0.035774
31
0.0
0
LINE
8
0
6
CONTINUOUS
10
0.003010
20
0.038823
30
0.0
11
0.005006
21
0.037474
31
0.0
0
LINE
8
0
6
CONTINUOUS
10
0.000495
20
0.039689
30
0.0
11
0.003010
21
0.038823
31
0.0
0
LINE
8
0
6
CONTINUOUS
10
-0.002294
20
0.039988
30
0.0
11
0.000495
21
0.039689
31
0.0
0
LINE
8
0
6
CONTINUOUS
10
-0.005082
20
0.039689
30
0.0
11
-0.002294
21
0.039988
31
0.0
0
LINE
8
0
6
CONTINUOUS
10
-0.007598
20
0.029340
30
0.0
11
-0.009594
21
0.030689
31
0.0
0
LINE
8
0
6
CONTINUOUS
10
-0.009594
20
0.030307
30
0.0
11
-0.007598
21
0.028958
31
0.0
0
LINE
8
0
6
CONTINUOUS
10
0.003010
20
0.029340
30
0.0
11
0.000495
21
0.028474
31
0.0
0
LINE
8
0
6
CONTINUOUS
10
0.000495
20
0.028092
30
0.0
11
0.003010
21
0.028958
31
0.0
0
LINE
8
0
6
CONTINUOUS
10
0.005006
20
0.030689
30
0.0
11
0.003010
21
0.029340
31
0.0
0
LINE
8
0
6
CONTINUOUS
10
0.003010
20
0.028958
30
0.0
11
0.005006
21
0.030307
31
0.0
0
LINE
8
0
6
CONTINUOUS
10
-0.005082
20
0.028474
30
0.0
11
-0.007598
21
0.029340
31
0.0
0
LINE
8
0
6
CONTINUOUS
10
-0.007598
20
0.028958
30
0.0
11
-0.005082
21
0.028092
31
0.0
0
LINE
8
0
6
CONTINUOUS
10
0.006287
20
0.032389
30
0.0
11
0.005006
21
0.030689
31
0.0
0
LINE
8
0
6
CONTINUOUS
10
0.005006
20
0.030307
30
0.0
11
0.006287
21
0.032007
31
0.0
0
LINE
8
0
6
CONTINUOUS
10
-0.002294
20
0.028176
30
0.0
11
-0.005082
21
0.028474
31
0.0
0
LINE
8
0
6
CONTINUOUS
10
-0.005082
20
0.028092
30
0.0
11
-0.002294
21
0.027794
31
0.0
0
LINE
8
0
6
CONTINUOUS
10
-0.010875
20
0.032389
30
0.0
11
-0.011316
21
0.034273
31
0.0
0
LINE
8
0
6
CONTINUOUS
10
-0.011316
20
0.033891
30
0.0
11
-0.010875
21
0.032007
31
0.0
0
LINE
8
0
6
CONTINUOUS
10
0.006728
20
0.034273
30
0.0
11
0.006287
21
0.032389
31
0.0
0
LINE
8
0
6
CONTINUOUS
10
0.006287
20
0.032007
30
0.0
11
0.006728
21
0.033891
31
0.0
0
LINE
8
0
6
CONTINUOUS
10
0.000495
20
0.028474
30
0.0
11
-0.002294
21
0.028176
31
0.0
0
LINE
8
0
6
CONTINUOUS
10
-0.002294
20
0.027794
30
0.0
11
0.000495
21
0.028092
31
0.0
0
LINE
8
0
6
CONTINUOUS
10
-0.009594
20
0.030689
30
0.0
11
-0.010875
21
0.032389
31
0.0
0
LINE
8
0
6
CONTINUOUS
10
-0.010875
20
0.032007
30
0.0
11
-0.009594
21
0.030307
31
0.0
0
LINE
8
0
6
CONTINUOUS
10
0.023937
20
-0.097581
30
0.0
11
0.020911
21
-0.097216
31
0.0
0
LINE
8
0
6
CONTINUOUS
10
0.023937
20
-0.097581
30
0.0
11
0.020599
21
-0.097802
31
0.0
0
LINE
8
0
6
CONTINUOUS
10
0.019907
20
-0.097949
30
0.0
11
0.021968
21
-0.097841
31
0.0
0
LINE
8
0
6
CONTINUOUS
10
0.020911
20
-0.097216
30
0.0
11
0.024159
21
-0.097503
31
0.0
0
LINE
8
0
6
CONTINUOUS
10
0.021973
20
-0.095560
30
0.0
11
0.019868
21
-0.095182
31
0.0
0
LINE
8
0
6
CONTINUOUS
10
0.019898
20
-0.097310
30
0.0
11
0.020911
21
-0.097216
31
0.0
0
LINE
8
0
6
CONTINUOUS
10
0.019883
20
-0.096215
30
0.0
11
0.021171
21
-0.095908
31
0.0
0
LINE
8
0
6
CONTINUOUS
10
0.024250
20
-0.096051
30
0.0
11
0.021009
21
-0.095401
31
0.0
0
LINE
8
0
6
CONTINUOUS
10
0.021143
20
-0.095611
30
0.0
11
0.024250
21
-0.096051
31
0.0
0
LINE
8
0
6
CONTINUOUS
10
0.019878
20
-0.095919
30
0.0
11
0.021143
21
-0.095611
31
0.0
0
LINE
8
0
6
CONTINUOUS
10
0.023151
20
-0.095560
30
0.0
11
0.021973
21
-0.095560
31
0.0
0
LINE
8
0
6
CONTINUOUS
10
0.023537
20
-0.097855
30
0.0
11
0.024906
21
-0.097590
31
0.0
0
LINE
8
0
6
CONTINUOUS
10
0.021968
20
-0.097841
30
0.0
11
0.023537
21
-0.097855
31
0.0
0
LINE
8
0
6
CONTINUOUS
10
0.023785
20
-0.095560
30
0.0
11
0.023151
21
-0.095560
31
0.0
0
LINE
8
0
6
CONTINUOUS
10
0.025028
20
-0.095923
30
0.0
11
0.023785
21
-0.095560
31
0.0
0
LINE
8
0
6
CONTINUOUS
10
0.025139
20
-0.097503
30
0.0
11
0.025294
21
-0.096487
31
0.0
0
LINE
8
0
6
CONTINUOUS
10
0.025294
20
-0.096487
30
0.0
11
0.025234
21
-0.096051
31
0.0
0
LINE
8
0
6
CONTINUOUS
10
0.025234
20
-0.096051
30
0.0
11
0.025016
21
-0.095923
31
0.0
0
LINE
8
0
6
CONTINUOUS
10
0.024250
20
-0.096051
30
0.0
11
0.025234
21
-0.096051
31
0.0
0
LINE
8
0
6
CONTINUOUS
10
0.025139
20
-0.097503
30
0.0
11
0.024159
21
-0.097503
31
0.0
0
LINE
8
0
6
CONTINUOUS
10
0.024906
20
-0.097590
30
0.0
11
0.025139
21
-0.097503
31
0.0
0
LINE
8
0
6
CONTINUOUS
10
0.019908
20
-0.098044
30
0.0
11
0.020599
21
-0.097802
31
0.0
0
LINE
8
0
6
CONTINUOUS
10
0.020599
20
-0.097802
30
0.0
11
0.019908
21
-0.098001
31
0.0
0
LINE
8
0
6
CONTINUOUS
10
0.019874
20
-0.095618
30
0.0
11
0.021009
21
-0.095401
31
0.0
0
ENDSEC
0
EOF
