999
Erzeugt mit innoplus bad 
0
SECTION
2
HEADER
9
$ACADVER
1
AC1009
9
$DWGCODEPAGE
3
ISO8859-1
0
ENDSEC
0
SECTION
2
TABLES
0
TABLE
2
LAYER
70
1
0
LAYER
2
0
70
0
62
7
6
CONTINUOUS
0
ENDTAB
0
ENDSEC
0
SECTION
2
ENTITIES
0
LINE
8
0
6
CONTINUOUS
10
0.014462
20
0.100445
30
0.0
11
0.014462
21
0.069358
31
0.0
0
LINE
8
0
6
CONTINUOUS
10
0.034336
20
0.110000
30
0.0
11
0.029771
21
0.110000
31
0.0
0
LINE
8
0
6
CONTINUOUS
10
0.048768
20
0.110000
30
0.0
11
0.044181
21
0.110000
31
0.0
0
LINE
8
0
6
CONTINUOUS
10
0.025836
20
0.110000
30
0.0
11
0.022816
21
0.110000
31
0.0
0
LINE
8
0
6
CONTINUOUS
10
0.044181
20
0.110000
30
0.0
11
0.039279
21
0.110000
31
0.0
0
LINE
8
0
6
CONTINUOUS
10
0.057625
20
0.110000
30
0.0
11
0.055727
21
0.110000
31
0.0
0
LINE
8
0
6
CONTINUOUS
10
0.039279
20
0.110000
30
0.0
11
0.034336
21
0.110000
31
0.0
0
LINE
8
0
6
CONTINUOUS
10
0.058271
20
0.110000
30
0.0
11
0.057625
21
0.110000
31
0.0
0
LINE
8
0
6
CONTINUOUS
10
0.058271
20
0.109610
30
0.0
11
0.058271
21
0.110000
31
0.0
0
LINE
8
0
6
CONTINUOUS
10
0.052706
20
0.110000
30
0.0
11
0.048768
21
0.110000
31
0.0
0
LINE
8
0
6
CONTINUOUS
10
0.029771
20
0.110000
30
0.0
11
0.025836
21
0.110000
31
0.0
0
LINE
8
0
6
CONTINUOUS
10
0.022816
20
0.110000
30
0.0
11
0.020918
21
0.110000
31
0.0
0
LINE
8
0
6
CONTINUOUS
10
0.055727
20
0.110000
30
0.0
11
0.052706
21
0.110000
31
0.0
0
LINE
8
0
6
CONTINUOUS
10
0.058271
20
0.060193
30
0.0
11
0.058271
21
0.109610
31
0.0
0
LINE
8
0
6
CONTINUOUS
10
0.020271
20
0.110000
30
0.0
11
0.020271
21
0.109511
31
0.0
0
LINE
8
0
6
CONTINUOUS
10
0.020918
20
0.110000
30
0.0
11
0.020271
21
0.110000
31
0.0
0
LINE
8
0
6
CONTINUOUS
10
0.015292
20
0.101605
30
0.0
11
0.014462
21
0.100949
31
0.0
0
LINE
8
0
6
CONTINUOUS
10
0.014462
20
0.100949
30
0.0
11
0.014462
21
0.100445
31
0.0
0
LINE
8
0
6
CONTINUOUS
10
0.014750
20
0.100994
30
0.0
11
0.014462
21
0.100949
31
0.0
0
LINE
8
0
6
CONTINUOUS
10
0.014910
20
0.069293
30
0.0
11
0.014910
21
0.100509
31
0.0
0
LINE
8
0
6
CONTINUOUS
10
0.014912
20
0.101017
30
0.0
11
0.015703
21
0.101289
31
0.0
0
LINE
8
0
6
CONTINUOUS
10
0.015703
20
0.101289
30
0.0
11
0.020346
21
0.103386
31
0.0
0
LINE
8
0
6
CONTINUOUS
10
0.020346
20
0.103386
30
0.0
11
0.018183
21
0.103268
31
0.0
0
LINE
8
0
6
CONTINUOUS
10
0.020391
20
0.106139
30
0.0
11
0.020342
21
0.106142
31
0.0
0
LINE
8
0
6
CONTINUOUS
10
0.020899
20
0.067357
30
0.0
11
0.020899
21
0.102445
31
0.0
0
LINE
8
0
6
CONTINUOUS
10
0.014910
20
0.100509
30
0.0
11
0.014912
21
0.101017
31
0.0
0
LINE
8
0
6
CONTINUOUS
10
0.014750
20
0.100994
30
0.0
11
0.014912
21
0.101017
31
0.0
0
LINE
8
0
6
CONTINUOUS
10
0.014912
20
0.101017
30
0.0
11
0.015559
21
0.101622
31
0.0
0
LINE
8
0
6
CONTINUOUS
10
0.020899
20
0.102445
30
0.0
11
0.020899
21
0.103014
31
0.0
0
LINE
8
0
6
CONTINUOUS
10
0.020899
20
0.103014
30
0.0
11
0.020899
21
0.103585
31
0.0
0
LINE
8
0
6
CONTINUOUS
10
0.020251
20
0.106148
30
0.0
11
0.019318
21
0.104860
31
0.0
0
LINE
8
0
6
CONTINUOUS
10
0.020342
20
0.106142
30
0.0
11
0.020251
21
0.106148
31
0.0
0
LINE
8
0
6
CONTINUOUS
10
0.020899
20
0.103585
30
0.0
11
0.020899
21
0.103705
31
0.0
0
LINE
8
0
6
CONTINUOUS
10
0.020899
20
0.105949
30
0.0
11
0.020899
21
0.106104
31
0.0
0
LINE
8
0
6
CONTINUOUS
10
0.020899
20
0.106104
30
0.0
11
0.020816
21
0.106110
31
0.0
0
LINE
8
0
6
CONTINUOUS
10
0.020816
20
0.106110
30
0.0
11
0.020454
21
0.106134
31
0.0
0
LINE
8
0
6
CONTINUOUS
10
0.020454
20
0.106134
30
0.0
11
0.020391
21
0.106139
31
0.0
0
LINE
8
0
6
CONTINUOUS
10
0.017565
20
0.103160
30
0.0
11
0.015292
21
0.101605
31
0.0
0
LINE
8
0
6
CONTINUOUS
10
0.020572
20
0.104731
30
0.0
11
0.020899
21
0.103705
31
0.0
0
LINE
8
0
6
CONTINUOUS
10
0.020899
20
0.103705
30
0.0
11
0.020899
21
0.104827
31
0.0
0
LINE
8
0
6
CONTINUOUS
10
0.020899
20
0.104827
30
0.0
11
0.020899
21
0.105949
31
0.0
0
LINE
8
0
6
CONTINUOUS
10
0.018183
20
0.103268
30
0.0
11
0.020388
21
0.103632
31
0.0
0
LINE
8
0
6
CONTINUOUS
10
0.019207
20
0.104010
30
0.0
11
0.020388
21
0.103632
31
0.0
0
LINE
8
0
6
CONTINUOUS
10
0.020388
20
0.103632
30
0.0
11
0.020572
21
0.104731
31
0.0
0
LINE
8
0
6
CONTINUOUS
10
0.018613
20
0.103877
30
0.0
11
0.017565
21
0.103160
31
0.0
0
LINE
8
0
6
CONTINUOUS
10
0.019318
20
0.104860
30
0.0
11
0.018613
21
0.103877
31
0.0
0
LINE
8
0
6
CONTINUOUS
10
0.029771
20
0.059802
30
0.0
11
0.034336
21
0.059802
31
0.0
0
LINE
8
0
6
CONTINUOUS
10
0.044181
20
0.059802
30
0.0
11
0.048768
21
0.059802
31
0.0
0
LINE
8
0
6
CONTINUOUS
10
0.022816
20
0.059802
30
0.0
11
0.025836
21
0.059802
31
0.0
0
LINE
8
0
6
CONTINUOUS
10
0.039279
20
0.059802
30
0.0
11
0.044181
21
0.059802
31
0.0
0
LINE
8
0
6
CONTINUOUS
10
0.055727
20
0.059802
30
0.0
11
0.057625
21
0.059802
31
0.0
0
LINE
8
0
6
CONTINUOUS
10
0.034336
20
0.059802
30
0.0
11
0.039279
21
0.059802
31
0.0
0
LINE
8
0
6
CONTINUOUS
10
0.058271
20
0.059802
30
0.0
11
0.058271
21
0.060193
31
0.0
0
LINE
8
0
6
CONTINUOUS
10
0.057625
20
0.059802
30
0.0
11
0.058271
21
0.059802
31
0.0
0
LINE
8
0
6
CONTINUOUS
10
0.048768
20
0.059802
30
0.0
11
0.052706
21
0.059802
31
0.0
0
LINE
8
0
6
CONTINUOUS
10
0.025836
20
0.059802
30
0.0
11
0.029771
21
0.059802
31
0.0
0
LINE
8
0
6
CONTINUOUS
10
0.020918
20
0.059802
30
0.0
11
0.022816
21
0.059802
31
0.0
0
LINE
8
0
6
CONTINUOUS
10
0.052706
20
0.059802
30
0.0
11
0.055727
21
0.059802
31
0.0
0
LINE
8
0
6
CONTINUOUS
10
0.020271
20
0.059802
30
0.0
11
0.020918
21
0.059802
31
0.0
0
LINE
8
0
6
CONTINUOUS
10
0.020271
20
0.060291
30
0.0
11
0.020271
21
0.059802
31
0.0
0
LINE
8
0
6
CONTINUOUS
10
0.014462
20
0.068853
30
0.0
11
0.015292
21
0.068197
31
0.0
0
LINE
8
0
6
CONTINUOUS
10
0.014462
20
0.068853
30
0.0
11
0.014750
21
0.068809
31
0.0
0
LINE
8
0
6
CONTINUOUS
10
0.014462
20
0.069358
30
0.0
11
0.014462
21
0.068853
31
0.0
0
LINE
8
0
6
CONTINUOUS
10
0.015703
20
0.068513
30
0.0
11
0.014912
21
0.068785
31
0.0
0
LINE
8
0
6
CONTINUOUS
10
0.015703
20
0.068513
30
0.0
11
0.020346
21
0.066416
31
0.0
0
LINE
8
0
6
CONTINUOUS
10
0.020346
20
0.066416
30
0.0
11
0.018183
21
0.066534
31
0.0
0
LINE
8
0
6
CONTINUOUS
10
0.020342
20
0.063660
30
0.0
11
0.020391
21
0.063664
31
0.0
0
LINE
8
0
6
CONTINUOUS
10
0.014912
20
0.068785
30
0.0
11
0.014910
21
0.069293
31
0.0
0
LINE
8
0
6
CONTINUOUS
10
0.015559
20
0.068180
30
0.0
11
0.014912
21
0.068785
31
0.0
0
LINE
8
0
6
CONTINUOUS
10
0.014912
20
0.068785
30
0.0
11
0.014750
21
0.068809
31
0.0
0
LINE
8
0
6
CONTINUOUS
10
0.020899
20
0.066788
30
0.0
11
0.020899
21
0.067357
31
0.0
0
LINE
8
0
6
CONTINUOUS
10
0.020899
20
0.066217
30
0.0
11
0.020899
21
0.066788
31
0.0
0
LINE
8
0
6
CONTINUOUS
10
0.020251
20
0.063654
30
0.0
11
0.020342
21
0.063660
31
0.0
0
LINE
8
0
6
CONTINUOUS
10
0.019318
20
0.064942
30
0.0
11
0.020251
21
0.063654
31
0.0
0
LINE
8
0
6
CONTINUOUS
10
0.020899
20
0.066097
30
0.0
11
0.020899
21
0.066217
31
0.0
0
LINE
8
0
6
CONTINUOUS
10
0.020816
20
0.063692
30
0.0
11
0.020899
21
0.063698
31
0.0
0
LINE
8
0
6
CONTINUOUS
10
0.020899
20
0.063698
30
0.0
11
0.020899
21
0.063853
31
0.0
0
LINE
8
0
6
CONTINUOUS
10
0.020454
20
0.063668
30
0.0
11
0.020816
21
0.063692
31
0.0
0
LINE
8
0
6
CONTINUOUS
10
0.020391
20
0.063664
30
0.0
11
0.020454
21
0.063668
31
0.0
0
LINE
8
0
6
CONTINUOUS
10
0.015292
20
0.068197
30
0.0
11
0.017565
21
0.066643
31
0.0
0
LINE
8
0
6
CONTINUOUS
10
0.020899
20
0.064975
30
0.0
11
0.020899
21
0.066097
31
0.0
0
LINE
8
0
6
CONTINUOUS
10
0.020572
20
0.065071
30
0.0
11
0.020899
21
0.066097
31
0.0
0
LINE
8
0
6
CONTINUOUS
10
0.020899
20
0.063853
30
0.0
11
0.020899
21
0.064975
31
0.0
0
LINE
8
0
6
CONTINUOUS
10
0.020572
20
0.065071
30
0.0
11
0.020388
21
0.066170
31
0.0
0
LINE
8
0
6
CONTINUOUS
10
0.019207
20
0.065792
30
0.0
11
0.020388
21
0.066170
31
0.0
0
LINE
8
0
6
CONTINUOUS
10
0.020388
20
0.066170
30
0.0
11
0.018183
21
0.066534
31
0.0
0
LINE
8
0
6
CONTINUOUS
10
0.017565
20
0.066643
30
0.0
11
0.018613
21
0.065926
31
0.0
0
LINE
8
0
6
CONTINUOUS
10
0.018613
20
0.065926
30
0.0
11
0.019318
21
0.064942
31
0.0
0
LINE
8
0
6
CONTINUOUS
10
-0.044378
20
-0.018127
30
0.0
11
-0.043819
21
-0.017490
31
0.0
0
LINE
8
0
6
CONTINUOUS
10
-0.044805
20
-0.017735
30
0.0
11
-0.044378
21
-0.018127
31
0.0
0
LINE
8
0
6
CONTINUOUS
10
-0.046046
20
-0.016596
30
0.0
11
-0.044805
21
-0.017735
31
0.0
0
LINE
8
0
6
CONTINUOUS
10
-0.047978
20
-0.014822
30
0.0
11
-0.046046
21
-0.016596
31
0.0
0
LINE
8
0
6
CONTINUOUS
10
-0.050413
20
-0.012587
30
0.0
11
-0.047978
21
-0.014822
31
0.0
0
LINE
8
0
6
CONTINUOUS
10
-0.053112
20
-0.010109
30
0.0
11
-0.050413
21
-0.012587
31
0.0
0
LINE
8
0
6
CONTINUOUS
10
-0.055811
20
-0.007632
30
0.0
11
-0.053112
21
-0.010109
31
0.0
0
LINE
8
0
6
CONTINUOUS
10
-0.058246
20
-0.005396
30
0.0
11
-0.055811
21
-0.007632
31
0.0
0
LINE
8
0
6
CONTINUOUS
10
-0.060178
20
-0.003623
30
0.0
11
-0.058246
21
-0.005396
31
0.0
0
LINE
8
0
6
CONTINUOUS
10
-0.061419
20
-0.002484
30
0.0
11
-0.060178
21
-0.003623
31
0.0
0
LINE
8
0
6
CONTINUOUS
10
-0.061288
20
-0.001454
30
0.0
11
-0.061847
21
-0.002091
31
0.0
0
LINE
8
0
6
CONTINUOUS
10
-0.061847
20
-0.002091
30
0.0
11
-0.061419
21
-0.002484
31
0.0
0
LINE
8
0
6
CONTINUOUS
10
-0.043819
20
-0.017490
30
0.0
11
-0.041141
21
-0.014572
31
0.0
0
LINE
8
0
6
CONTINUOUS
10
-0.058411
20
0.001679
30
0.0
11
-0.061288
21
-0.001454
31
0.0
0
LINE
8
0
6
CONTINUOUS
10
-0.037323
20
-0.016802
30
0.0
11
0.009575
21
0.002331
31
0.0
0
LINE
8
0
6
CONTINUOUS
10
0.020271
20
0.057401
30
0.0
11
0.020271
21
0.053319
31
0.0
0
LINE
8
0
6
CONTINUOUS
10
-0.038055
20
-0.016118
30
0.0
11
0.010211
21
0.003139
31
0.0
0
LINE
8
0
6
CONTINUOUS
10
0.059356
20
0.008387
30
0.0
11
0.058864
21
0.028401
31
0.0
0
LINE
8
0
6
CONTINUOUS
10
-0.040199
20
-0.014111
30
0.0
11
0.012069
21
0.005497
31
0.0
0
LINE
8
0
6
CONTINUOUS
10
0.058495
20
0.043401
30
0.0
11
0.058286
21
0.057401
31
0.0
0
LINE
8
0
6
CONTINUOUS
10
0.009342
20
0.037239
30
0.0
11
-0.061304
21
0.005740
31
0.0
0
LINE
8
0
6
CONTINUOUS
10
0.018997
20
0.023551
30
0.0
11
0.022595
21
0.025078
31
0.0
0
LINE
8
0
6
CONTINUOUS
10
0.018317
20
0.006123
30
0.0
11
0.014820
21
0.006529
31
0.0
0
LINE
8
0
6
CONTINUOUS
10
0.018317
20
0.006123
30
0.0
11
0.016249
21
0.003813
31
0.0
0
LINE
8
0
6
CONTINUOUS
10
0.020806
20
0.002591
30
0.0
11
0.018317
21
0.006123
31
0.0
0
LINE
8
0
6
CONTINUOUS
10
0.020806
20
0.002591
30
0.0
11
0.018731
21
0.000329
31
0.0
0
LINE
8
0
6
CONTINUOUS
10
0.012043
20
0.003338
30
0.0
11
0.015542
21
0.003023
31
0.0
0
LINE
8
0
6
CONTINUOUS
10
0.016249
20
0.003813
30
0.0
11
0.015542
21
0.003023
31
0.0
0
LINE
8
0
6
CONTINUOUS
10
0.015542
20
0.003023
30
0.0
11
0.018021
21
-0.000442
31
0.0
0
LINE
8
0
6
CONTINUOUS
10
0.018731
20
0.000329
30
0.0
11
0.018021
21
-0.000442
31
0.0
0
LINE
8
0
6
CONTINUOUS
10
0.018021
20
-0.000442
30
0.0
11
0.018825
21
-0.006130
31
0.0
0
LINE
8
0
6
CONTINUOUS
10
0.024540
20
0.025904
30
0.0
11
0.026536
21
0.026751
31
0.0
0
LINE
8
0
6
CONTINUOUS
10
0.022595
20
0.025078
30
0.0
11
0.024540
21
0.025904
31
0.0
0
LINE
8
0
6
CONTINUOUS
10
0.020271
20
0.052506
30
0.0
11
0.019218
21
0.046797
31
0.0
0
LINE
8
0
6
CONTINUOUS
10
0.019218
20
0.046797
30
0.0
11
0.016582
21
0.041816
31
0.0
0
LINE
8
0
6
CONTINUOUS
10
0.016582
20
0.041816
30
0.0
11
0.013060
21
0.038897
31
0.0
0
LINE
8
0
6
CONTINUOUS
10
0.018637
20
0.033203
30
0.0
11
0.022133
21
0.036176
31
0.0
0
LINE
8
0
6
CONTINUOUS
10
0.022133
20
0.036176
30
0.0
11
0.024729
21
0.041197
31
0.0
0
LINE
8
0
6
CONTINUOUS
10
0.062245
20
-0.109000
30
0.0
11
0.060105
21
-0.022037
31
0.0
0
LINE
8
0
6
CONTINUOUS
10
0.025738
20
0.046920
30
0.0
11
0.024729
21
0.041197
31
0.0
0
LINE
8
0
6
CONTINUOUS
10
0.018153
20
-0.033394
30
0.0
11
0.016289
21
-0.109000
31
0.0
0
LINE
8
0
6
CONTINUOUS
10
0.058864
20
0.028401
30
0.0
11
0.058495
21
0.043401
31
0.0
0
LINE
8
0
6
CONTINUOUS
10
-0.038333
20
-0.017215
30
0.0
11
-0.039073
21
-0.016518
31
0.0
0
LINE
8
0
6
CONTINUOUS
10
-0.039068
20
-0.016523
30
0.0
11
-0.038333
21
-0.017215
31
0.0
0
LINE
8
0
6
CONTINUOUS
10
-0.055263
20
-0.001284
30
0.0
11
-0.058956
21
0.002191
31
0.0
0
LINE
8
0
6
CONTINUOUS
10
-0.058956
20
0.002191
30
0.0
11
-0.061402
21
0.004493
31
0.0
0
LINE
8
0
6
CONTINUOUS
10
-0.062269
20
0.005309
30
0.0
11
-0.061402
21
0.004493
31
0.0
0
LINE
8
0
6
CONTINUOUS
10
-0.061304
20
0.005740
30
0.0
11
-0.062269
21
0.005309
31
0.0
0
LINE
8
0
6
CONTINUOUS
10
-0.055263
20
-0.001284
30
0.0
11
-0.050361
21
-0.005897
31
0.0
0
LINE
8
0
6
CONTINUOUS
10
-0.038333
20
-0.017215
30
0.0
11
-0.037323
21
-0.016802
31
0.0
0
LINE
8
0
6
CONTINUOUS
10
-0.039068
20
-0.016523
30
0.0
11
-0.038333
21
-0.017215
31
0.0
0
LINE
8
0
6
CONTINUOUS
10
-0.039068
20
-0.016523
30
0.0
11
-0.041223
21
-0.014495
31
0.0
0
LINE
8
0
6
CONTINUOUS
10
-0.049379
20
-0.005473
30
0.0
11
-0.050361
21
-0.005897
31
0.0
0
LINE
8
0
6
CONTINUOUS
10
-0.050361
20
-0.005897
30
0.0
11
-0.045382
21
-0.010582
31
0.0
0
LINE
8
0
6
CONTINUOUS
10
-0.041223
20
-0.014495
30
0.0
11
-0.040199
21
-0.014111
31
0.0
0
LINE
8
0
6
CONTINUOUS
10
-0.041223
20
-0.014495
30
0.0
11
-0.045382
21
-0.010582
31
0.0
0
LINE
8
0
6
CONTINUOUS
10
0.020271
20
0.058401
30
0.0
11
0.020271
21
0.057401
31
0.0
0
LINE
8
0
6
CONTINUOUS
10
0.020918
20
0.058401
30
0.0
11
0.020271
21
0.058401
31
0.0
0
LINE
8
0
6
CONTINUOUS
10
0.052706
20
0.058401
30
0.0
11
0.048771
21
0.058401
31
0.0
0
LINE
8
0
6
CONTINUOUS
10
0.058271
20
0.058401
30
0.0
11
0.057623
21
0.058401
31
0.0
0
LINE
8
0
6
CONTINUOUS
10
0.058286
20
0.057401
30
0.0
11
0.058271
21
0.058401
31
0.0
0
LINE
8
0
6
CONTINUOUS
10
0.029771
20
0.058401
30
0.0
11
0.025836
21
0.058401
31
0.0
0
LINE
8
0
6
CONTINUOUS
10
0.044188
20
0.058401
30
0.0
11
0.039271
21
0.058401
31
0.0
0
LINE
8
0
6
CONTINUOUS
10
0.039271
20
0.058401
30
0.0
11
0.034353
21
0.058401
31
0.0
0
LINE
8
0
6
CONTINUOUS
10
0.022816
20
0.058401
30
0.0
11
0.020918
21
0.058401
31
0.0
0
LINE
8
0
6
CONTINUOUS
10
0.057623
20
0.058401
30
0.0
11
0.055725
21
0.058401
31
0.0
0
LINE
8
0
6
CONTINUOUS
10
0.055725
20
0.058401
30
0.0
11
0.052706
21
0.058401
31
0.0
0
LINE
8
0
6
CONTINUOUS
10
0.025836
20
0.058401
30
0.0
11
0.022816
21
0.058401
31
0.0
0
LINE
8
0
6
CONTINUOUS
10
0.048771
20
0.058401
30
0.0
11
0.044188
21
0.058401
31
0.0
0
LINE
8
0
6
CONTINUOUS
10
0.034353
20
0.058401
30
0.0
11
0.029771
21
0.058401
31
0.0
0
LINE
8
0
6
CONTINUOUS
10
0.019346
20
-0.110000
30
0.0
11
0.023001
21
-0.110000
31
0.0
0
LINE
8
0
6
CONTINUOUS
10
0.027765
20
-0.110000
30
0.0
11
0.033313
21
-0.110000
31
0.0
0
LINE
8
0
6
CONTINUOUS
10
0.059187
20
-0.110000
30
0.0
11
0.061485
21
-0.110000
31
0.0
0
LINE
8
0
6
CONTINUOUS
10
0.016289
20
-0.109000
30
0.0
11
0.016264
21
-0.110000
31
0.0
0
LINE
8
0
6
CONTINUOUS
10
0.016264
20
-0.110000
30
0.0
11
0.017048
21
-0.110000
31
0.0
0
LINE
8
0
6
CONTINUOUS
10
0.050768
20
-0.110000
30
0.0
11
0.055532
21
-0.110000
31
0.0
0
LINE
8
0
6
CONTINUOUS
10
0.039267
20
-0.110000
30
0.0
11
0.045220
21
-0.110000
31
0.0
0
LINE
8
0
6
CONTINUOUS
10
0.023001
20
-0.110000
30
0.0
11
0.027765
21
-0.110000
31
0.0
0
LINE
8
0
6
CONTINUOUS
10
0.062269
20
-0.110000
30
0.0
11
0.062245
21
-0.109000
31
0.0
0
LINE
8
0
6
CONTINUOUS
10
0.061485
20
-0.110000
30
0.0
11
0.062269
21
-0.110000
31
0.0
0
LINE
8
0
6
CONTINUOUS
10
0.033313
20
-0.110000
30
0.0
11
0.039267
21
-0.110000
31
0.0
0
LINE
8
0
6
CONTINUOUS
10
0.017048
20
-0.110000
30
0.0
11
0.019346
21
-0.110000
31
0.0
0
LINE
8
0
6
CONTINUOUS
10
0.055532
20
-0.110000
30
0.0
11
0.059187
21
-0.110000
31
0.0
0
LINE
8
0
6
CONTINUOUS
10
0.045220
20
-0.110000
30
0.0
11
0.050768
21
-0.110000
31
0.0
0
LINE
8
0
6
CONTINUOUS
10
0.014990
20
0.031501
30
0.0
11
0.018637
21
0.033203
31
0.0
0
LINE
8
0
6
CONTINUOUS
10
0.013060
20
0.038897
30
0.0
11
0.009342
21
0.037239
31
0.0
0
LINE
8
0
6
CONTINUOUS
10
0.018997
20
0.023551
30
0.0
11
-0.049379
21
-0.005473
31
0.0
0
LINE
8
0
6
CONTINUOUS
10
0.014820
20
0.006529
30
0.0
11
0.012069
21
0.005497
31
0.0
0
LINE
8
0
6
CONTINUOUS
10
0.012751
20
0.004152
30
0.0
11
0.014820
21
0.006529
31
0.0
0
LINE
8
0
6
CONTINUOUS
10
0.009575
20
0.002331
30
0.0
11
0.012043
21
0.003338
31
0.0
0
LINE
8
0
6
CONTINUOUS
10
0.012043
20
0.003338
30
0.0
11
0.012751
21
0.004152
31
0.0
0
LINE
8
0
6
CONTINUOUS
10
0.018825
20
-0.006130
30
0.0
11
0.018805
21
-0.006943
31
0.0
0
LINE
8
0
6
CONTINUOUS
10
0.020271
20
0.053319
30
0.0
11
0.020271
21
0.052506
31
0.0
0
LINE
8
0
6
CONTINUOUS
10
0.028566
20
0.027386
30
0.0
11
0.025556
21
0.004793
31
0.0
0
LINE
8
0
6
CONTINUOUS
10
0.057262
20
0.058401
30
0.0
11
0.057262
21
0.059802
31
0.0
0
LINE
8
0
6
CONTINUOUS
10
0.021279
20
0.059802
30
0.0
11
0.021279
21
0.058401
31
0.0
0
LINE
8
0
6
CONTINUOUS
10
0.018805
20
-0.006943
30
0.0
11
0.018153
21
-0.033394
31
0.0
0
LINE
8
0
6
CONTINUOUS
10
0.060105
20
-0.022037
30
0.0
11
0.059356
21
0.008387
31
0.0
0
ENDSEC
0
EOF
